999
DXF file: S:\Prolink\03_Konstruktion\CAD-Plots\Internet\2D_neu\S5\s5-45_grt_smr_sg_h50_w38.dxf
999
Pro/ENGINEER 2012230 by Parametric Technology Corporation
  0
SECTION
  2
HEADER
  9
$ACADVER
  1
AC1021
  9
$DWGCODEPAGE
  3
ANSI_1252
  9
$EXTMAX
 10
297.0
 20
210.0
 30
0.0
  9
$EXTMIN
 10
0.0
 20
0.0
 30
0.0
  9
$LIMMIN
 10
0.0
 20
0.0
  9
$LIMMAX
 10
297.0
 20
210.0
  9
$VIEWCTR
 10
148.5
 20
105.0
  9
$VIEWSIZE
 40
210.0
  9
$CLAYER
  8
0
  9
$LTSCALE
 40
16.335
  9
$CELTYPE
  6
BYLAYER
  9
$DIMSCALE
 40
1.0
  9
$DIMASZ
 40
3.5
  9
$DIMEXO
 40
0.0
  9
$DIMDLI
 40
11.286
  9
$DIMEXE
 40
1.5
  9
$DIMCEN
 40
2.673
  9
$DIMLFAC
 40
1.0
  9
$DIMBLK
  1
_FILLED
  9
$DIMTXT
 40
3.5
  9
$DIMTOL
 70
1
  9
$DIMLIM
 70
0
  9
$DIMTFAC
 40
1.0
  9
$DIMTP
 40
0.005
  9
$DIMTM
 40
0.005
  9
$DIMGAP
 40
0.625
  9
$DIMDSEP
 70
46
  9
$PDMODE
 70
3
  9
$PDSIZE
 40
0.3125
  9
$HANDSEED
  5
372
  9
$TILEMODE
 70
1
  9
$MEASUREMENT
 70
1
  9
$INSUNITS
 70
4
  0
ENDSEC
  0
SECTION
  2
CLASSES
  0
CLASS
  1
ACDBDICTIONARYWDFLT
  2
AcDbDictionaryWithDefault
  3
AutoCAD 2000
 90
0
 91
1
280
0
281
0
  0
CLASS
  1
ACDBPLACEHOLDER
  2
AcDbPlaceHolder
  3
AutoCAD 2000
 90
0
 91
1
280
0
281
0
  0
CLASS
  1
LAYOUT
  2
AcDbLayout
  3
AutoCAD 2000
 90
0
 91
0
280
0
281
0
  0
ENDSEC
  0
SECTION
  2
TABLES
  0
TABLE
  2
VPORT
  5
8
100
AcDbSymbolTable
 70
2
  0
VPORT
  5
1F4
100
AcDbSymbolTableRecord
100
AcDbViewportTableRecord
  2
*ACTIVE
 70
0
 10
0.0
 20
0.0
 11
1.0
 21
1.0
 12
148.5
 22
105.0
 13
0.0
 23
0.0
 14
1.0
 24
1.0
 15
0.0
 25
0.0
 16
0.0
 26
0.0
 36
1.0
 17
0.0
 27
0.0
 37
0.0
 40
210.0
 41
1.4142857143
 42
50.0
 43
0.0
 44
0.0
 50
0.0
 51
0.0
 71
0
 72
100
 73
1
 74
1
 75
0
 76
0
 77
0
 78
0
  0
ENDTAB
  0
TABLE
  2
LTYPE
  5
5
100
AcDbSymbolTable
 70
6
  0
LTYPE
  5
14
100
AcDbSymbolTableRecord
100
AcDbLinetypeTableRecord
  2
BYBLOCK
 70
0
  3

 72
65
 73
0
 40
0.0
  0
LTYPE
  5
15
100
AcDbSymbolTableRecord
100
AcDbLinetypeTableRecord
  2
BYLAYER
 70
0
  3

 72
65
 73
0
 40
0.0
  0
LTYPE
  5
16
100
AcDbSymbolTableRecord
100
AcDbLinetypeTableRecord
  2
CONTINUOUS
 70
64
  3
Solid line
 72
65
 73
0
 40
0.0
  0
LTYPE
  5
1F5
100
AcDbSymbolTableRecord
100
AcDbLinetypeTableRecord
  2
CENTER
 70
64
  3
____ _ ____ _ ____ _ ____ _ ____ _ ____ _ ____
 72
65
 73
4
 40
0.6
 49
0.375
 74
0
 49
-0.075
 74
0
 49
0.075
 74
0
 49
-0.075
 74
0
  0
LTYPE
  5
1F6
100
AcDbSymbolTableRecord
100
AcDbLinetypeTableRecord
  2
HIDDEN
 70
64
  3
- - - - - - - - - - - - - - - - - - - -
 72
65
 73
2
 40
0.2
 49
0.1
 74
0
 49
-0.1
 74
0
  0
LTYPE
  5
1F7
100
AcDbSymbolTableRecord
100
AcDbLinetypeTableRecord
  2
PHANTOM
 70
64
  3
_____ _ _ _____ _ _ _____ _ _ _____
 72
65
 73
6
 40
0.8
 49
0.45
 74
0
 49
-0.05
 74
0
 49
0.1
 74
0
 49
-0.05
 74
0
 49
0.1
 74
0
 49
-0.05
 74
0
  0
LTYPE
  5
1F8
100
AcDbSymbolTableRecord
100
AcDbLinetypeTableRecord
  2
DOT
 70
64
  3
. . . . . . . . . . . . . . . . . . . .
 72
65
 73
2
 40
0.2
 49
0.1
 74
0
 49
-0.1
 74
0
  0
LTYPE
  5
1F9
100
AcDbSymbolTableRecord
100
AcDbLinetypeTableRecord
  2
DASHED
 70
64
  3
- - - - - - - - - - - - - - - - - - - -
 72
65
 73
2
 40
0.2
 49
0.1
 74
0
 49
-0.1
 74
0
  0
ENDTAB
  0
TABLE
  2
LAYER
  5
2
100
AcDbSymbolTable
 70
36
  0
LAYER
  5
10
100
AcDbSymbolTableRecord
100
AcDbLayerTableRecord
  2
0
 70
0
 62
7
  6
CONTINUOUS
370
-3
390
F
  0
LAYER
  5
1FA
100
AcDbSymbolTableRecord
100
AcDbLayerTableRecord
  2
DEFAULT_1
 70
0
 62
7
  6
CENTER
370
-3
390
F
  0
LAYER
  5
1FB
100
AcDbSymbolTableRecord
100
AcDbLayerTableRecord
  2
DEFAULT_2
 70
0
 62
8
  6
HIDDEN
370
-3
390
F
  0
LAYER
  5
1FC
100
AcDbSymbolTableRecord
100
AcDbLayerTableRecord
  2
DEFAULT_3
 70
0
 62
7
  6
PHANTOM
370
-3
390
F
  0
LAYER
  5
1FD
100
AcDbSymbolTableRecord
100
AcDbLayerTableRecord
  2
01___PRT_ALL_DTM_PLN
 70
0
 62
7
  6
CONTINUOUS
370
-3
390
F
  0
LAYER
  5
1FE
100
AcDbSymbolTableRecord
100
AcDbLayerTableRecord
  2
01___PRT_DEF_DTM_PLN
 70
0
 62
7
  6
CONTINUOUS
370
-3
390
F
  0
LAYER
  5
1FF
100
AcDbSymbolTableRecord
100
AcDbLayerTableRecord
  2
02___PRT_ALL_AXES
 70
0
 62
7
  6
CONTINUOUS
370
-3
390
F
  0
LAYER
  5
200
100
AcDbSymbolTableRecord
100
AcDbLayerTableRecord
  2
03___PRT_ALL_CURVES
 70
0
 62
7
  6
CONTINUOUS
370
-3
390
F
  0
LAYER
  5
201
100
AcDbSymbolTableRecord
100
AcDbLayerTableRecord
  2
04___PRT_ALL_DTM_PNT
 70
0
 62
7
  6
CONTINUOUS
370
-3
390
F
  0
LAYER
  5
202
100
AcDbSymbolTableRecord
100
AcDbLayerTableRecord
  2
05___PRT_ALL_DTM_CSYS
 70
0
 62
7
  6
CONTINUOUS
370
-3
390
F
  0
LAYER
  5
203
100
AcDbSymbolTableRecord
100
AcDbLayerTableRecord
  2
05___PRT_DEF_DTM_CSYS
 70
0
 62
7
  6
CONTINUOUS
370
-3
390
F
  0
LAYER
  5
204
100
AcDbSymbolTableRecord
100
AcDbLayerTableRecord
  2
06___PRT_ALL_SURFS
 70
0
 62
7
  6
CONTINUOUS
370
-3
390
F
  0
LAYER
  5
205
100
AcDbSymbolTableRecord
100
AcDbLayerTableRecord
  2
AUSFORMSCHRAEGEN
 70
0
 62
7
  6
CONTINUOUS
370
-3
390
F
  0
LAYER
  5
206
100
AcDbSymbolTableRecord
100
AcDbLayerTableRecord
  2
BEZUGSACHSEN
 70
0
 62
7
  6
CONTINUOUS
370
-3
390
F
  0
LAYER
  5
207
100
AcDbSymbolTableRecord
100
AcDbLayerTableRecord
  2
BEZUGSEBENE
 70
0
 62
7
  6
CONTINUOUS
370
-3
390
F
  0
LAYER
  5
208
100
AcDbSymbolTableRecord
100
AcDbLayerTableRecord
  2
BEZUGSEBENEN
 70
0
 62
7
  6
CONTINUOUS
370
-3
390
F
  0
LAYER
  5
209
100
AcDbSymbolTableRecord
100
AcDbLayerTableRecord
  2
BEZUGSEBENEN-KES
 70
0
 62
7
  6
CONTINUOUS
370
-3
390
F
  0
LAYER
  5
20A
100
AcDbSymbolTableRecord
100
AcDbLayerTableRecord
  2
KURVEN
 70
0
 62
7
  6
CONTINUOUS
370
-3
390
F
  0
LAYER
  5
20B
100
AcDbSymbolTableRecord
100
AcDbLayerTableRecord
  2
RUNDUNGEN
 70
0
 62
7
  6
CONTINUOUS
370
-3
390
F
  0
ENDTAB
  0
TABLE
  2
STYLE
  5
3
100
AcDbSymbolTable
 70
1
  0
STYLE
  5
11
100
AcDbSymbolTableRecord
100
AcDbTextStyleTableRecord
  2
STANDARD
 70
0
 40
0.0
 41
0.7
 50
0.0
 71
0
 42
0.2
  3
txt
  4

  0
STYLE
  5
20C
100
AcDbSymbolTableRecord
100
AcDbTextStyleTableRecord
  2
TEXTSTYLE_1
 70
0
 40
0.0
 41
0.8
 50
0.0
 71
0
 42
0.2
  3
gdt
  4

  0
ENDTAB
  0
TABLE
  2
VIEW
  5
6
100
AcDbSymbolTable
 70
0
  0
ENDTAB
  0
TABLE
  2
UCS
  5
7
100
AcDbSymbolTable
 70
0
  0
ENDTAB
  0
TABLE
  2
APPID
  5
9
100
AcDbSymbolTable
 70
1
  0
APPID
  5
20D
100
AcDbSymbolTableRecord
100
AcDbRegAppTableRecord
  2
ACAD
 70
0
  0
ENDTAB
  0
TABLE
  2
BLOCK_RECORD
  5
1
100
AcDbSymbolTable
 70
0
  0
BLOCK_RECORD
  5
20E
100
AcDbSymbolTableRecord
100
AcDbBlockTableRecord
  2
*Model_Space
  0
BLOCK_RECORD
  5
20F
100
AcDbSymbolTableRecord
100
AcDbBlockTableRecord
  2
*Paper_Space
  0
ENDTAB
  0
TABLE
  2
DIMSTYLE
  5
A
100
AcDbSymbolTable
 70
1
100
AcDbDimStyleTable
 71
0
  0
DIMSTYLE
105
210
100
AcDbSymbolTableRecord
100
AcDbDimStyleTableRecord
  2
STANDARD
 70
0
  3

  4

 40
1.0
 41
3.5
 42
0.0
 43
0.38
 44
1.5
 45
0.0
 46
0.0
 47
0.005
 48
0.005
140
3.5
141
0.09
142
0.0
143
25.4
144
1.0
145
0.0
146
1.0
147
0.625
 71
1.0
 72
0.0
 73
0
 74
0
 75
0
 76
0
 77
1
 78
8
170
0
171
2
172
0
173
0
174
0
175
0
176
0
177
0
178
5
270
2
271
3
272
3
273
2
274
2
275
0
280
0
281
0
282
0
283
1
284
8
285
0
286
0
287
3
288
0
340
11
278
46
  0
ENDTAB
  0
ENDSEC
  0
SECTION
  2
BLOCKS
  0
BLOCK
  5
20
100
AcDbEntity
  8
0
100
AcDbBlockBegin
  2
*Model_Space
 70
0
 10
0.0
 20
0.0
 30
0.0
  3
*Model_Space
  1

  0
ENDBLK
  5
21
100
AcDbEntity
  8
0
100
AcDbBlockEnd
  0
BLOCK
  5
1C
100
AcDbEntity
  8
0
100
AcDbBlockBegin
  2
*Paper_Space
 70
0
 10
0.0
 20
0.0
 30
0.0
  3
*Paper_Space
  1

  0
ENDBLK
  5
1D
100
AcDbEntity
  8
0
100
AcDbBlockEnd
  0
ENDSEC
  0
SECTION
  2
ENTITIES
  0
LINE
  5
211
100
AcDbEntity
  8
0
100
AcDbLine
 62
7
  6
CONTINUOUS
 10
0.0
 20
0.0
 11
0.0
 21
210.0
  0
LINE
  5
212
100
AcDbEntity
  8
0
100
AcDbLine
 62
7
  6
CONTINUOUS
 10
0.0
 20
0.0
 11
297.0
 21
0.0
  0
LINE
  5
213
100
AcDbEntity
  8
0
100
AcDbLine
 62
7
  6
CONTINUOUS
 10
0.0
 20
210.0
 11
297.0
 21
210.0
  0
LINE
  5
214
100
AcDbEntity
  8
0
100
AcDbLine
 62
7
  6
CONTINUOUS
 10
297.0
 20
0.0
 11
297.0
 21
210.0
  0
LINE
  5
215
100
AcDbEntity
  8
0
100
AcDbLine
 62
7
  6
CONTINUOUS
 10
67.767578125
 20
141.1988555105
 11
67.767578125
 21
142.1988452824
  0
LINE
  5
216
100
AcDbEntity
  8
RUNDUNGEN
100
AcDbLine
 62
7
  6
CONTINUOUS
 10
67.767578125
 20
142.1988452824
 11
67.767578125
 21
151.1988568041
  0
LINE
  5
217
100
AcDbEntity
  8
0
100
AcDbLine
 62
7
  6
CONTINUOUS
 10
68.767578125
 20
140.1988568041
 11
68.7675781258
 21
142.1990534456
  0
LINE
  5
218
100
AcDbEntity
  8
RUNDUNGEN
100
AcDbLine
 62
7
  6
CONTINUOUS
 10
68.767578125
 20
142.1990534456
 11
68.7675781258
 21
152.1988567934
  0
LINE
  5
219
100
AcDbEntity
  8
RUNDUNGEN
100
AcDbLine
 62
7
  6
CONTINUOUS
 10
72.7631042355
 20
140.1988568041
 11
72.7631042355
 21
152.1988568041
  0
LINE
  5
21A
100
AcDbEntity
  8
RUNDUNGEN
100
AcDbLine
 62
7
  6
CONTINUOUS
 10
74.6856279075
 20
140.298946723
 11
74.6856278997
 21
152.0987667262
  0
LINE
  5
21B
100
AcDbEntity
  8
RUNDUNGEN
100
AcDbLine
 62
7
  6
CONTINUOUS
 10
80.4499409165
 20
152.0252540264
 11
80.4499409165
 21
140.3724595818
  0
LINE
  5
21C
100
AcDbEntity
  8
RUNDUNGEN
100
AcDbLine
 62
7
  6
CONTINUOUS
 10
82.3724643084
 20
150.1988568041
 11
82.3724643084
 21
142.1988568041
  0
LINE
  5
21D
100
AcDbEntity
  8
02___PRT_ALL_AXES
100
AcDbLine
 62
7
  6
CONTINUOUS
 10
105.267578125
 20
140.1988568041
 11
104.2695221424
 21
140.1988568041
  0
LINE
  5
21E
100
AcDbEntity
  8
0
100
AcDbLine
 62
7
  6
CONTINUOUS
 10
68.767578125
 20
140.1988568041
 11
72.7631042355
 21
140.1988568041
  0
LINE
  5
21F
100
AcDbEntity
  8
RUNDUNGEN
100
AcDbLine
 62
7
  6
CONTINUOUS
 10
72.7631042355
 20
140.1988568041
 11
104.2695221424
 21
140.1988568041
  0
LINE
  5
220
100
AcDbEntity
  8
RUNDUNGEN
100
AcDbLine
 62
7
  6
CONTINUOUS
 10
67.767578125
 20
142.1988452824
 11
68.767578125
 21
142.1988452824
  0
LINE
  5
221
100
AcDbEntity
  8
RUNDUNGEN
100
AcDbLine
 62
7
  6
CONTINUOUS
 10
82.3724643084
 20
142.1988568041
 11
91.6924643084
 21
142.1988568041
  0
LINE
  5
222
100
AcDbEntity
  8
RUNDUNGEN
100
AcDbLine
 62
7
  6
CONTINUOUS
 10
90.5842874099
 20
197.5028921348
 11
90.5842670543
 21
197.5026492764
  0
LINE
  5
223
100
AcDbEntity
  8
0
100
AcDbLine
 62
7
  6
CONTINUOUS
 10
97.6148197861
 20
143.4538568041
 11
95.1746728674
 21
143.4538568041
  0
LINE
  5
224
100
AcDbEntity
  8
0
100
AcDbLine
 62
7
  6
CONTINUOUS
 10
76.9211734271
 20
143.4538568041
 11
79.0746312741
 21
143.4538568041
  0
LINE
  5
225
100
AcDbEntity
  8
RUNDUNGEN
100
AcDbLine
 62
7
  6
CONTINUOUS
 10
90.5789219364
 20
197.3884780878
 11
90.5789230594
 21
197.388276651
  0
LINE
  5
226
100
AcDbEntity
  8
RUNDUNGEN
100
AcDbLine
 62
7
  6
CONTINUOUS
 10
89.8861166088
 20
152.381038847
 11
89.8861152179
 21
152.3808335155
  0
LWPOLYLINE
  5
227
100
AcDbEntity
  8
0
100
AcDbPolyline
 62
7
  6
CONTINUOUS
 90
4
 70
0
 10
90.5789232296
 20
197.3886882088
 10
90.5003781629
 20
189.6370540863
 10
90.3717087083
 20
181.6852505137
 10
90.0698324791
 20
165.8921778094
  0
LWPOLYLINE
  5
228
100
AcDbEntity
  8
0
100
AcDbPolyline
 62
7
  6
CONTINUOUS
 90
3
 70
0
 10
90.0698324791
 20
165.8921778094
 10
89.9460151788
 20
158.0504063933
 10
89.8861323415
 20
152.3830833952
  0
LINE
  5
229
100
AcDbEntity
  8
RUNDUNGEN
100
AcDbLine
 62
7
  6
CONTINUOUS
 10
90.5842874099
 20
197.5028921348
 11
90.5789236994
 21
197.3884998963
  0
LWPOLYLINE
  5
22A
100
AcDbEntity
  8
RUNDUNGEN
100
AcDbPolyline
 62
7
  6
CONTINUOUS
 90
7
 70
0
 10
89.8861330898
 20
152.382911712
 10
89.8814528095
 20
152.3437354122
 10
89.8658596503
 20
152.3010022446
 10
89.8386776832
 20
152.2612329306
 10
89.8016931114
 20
152.2292047264
 10
89.7602286799
 20
152.2086885309
 10
89.7222812275
 20
152.1999403538
  0
LINE
  5
22B
100
AcDbEntity
  8
0
100
AcDbLine
 62
7
  6
CONTINUOUS
 10
79.0746312741
 20
148.9438568041
 11
76.9211734271
 21
148.9438568041
  0
LINE
  5
22C
100
AcDbEntity
  8
0
100
AcDbLine
 62
7
  6
CONTINUOUS
 10
95.1746728674
 20
148.9438568041
 11
97.6148197861
 21
148.9438568041
  0
LINE
  5
22D
100
AcDbEntity
  8
RUNDUNGEN
100
AcDbLine
 62
7
  6
CONTINUOUS
 10
82.3724643084
 20
150.1988568041
 11
91.6924643084
 21
150.1988568041
  0
LINE
  5
22E
100
AcDbEntity
  8
RUNDUNGEN
100
AcDbLine
 62
7
  6
CONTINUOUS
 10
67.767578125
 20
150.1988684614
 11
68.767578125
 21
150.1988684588
  0
LINE
  5
22F
100
AcDbEntity
  8
RUNDUNGEN
100
AcDbLine
 62
7
  6
CONTINUOUS
 10
91.6924643084
 20
150.1988568041
 11
91.6924643084
 21
142.1988568041
  0
LINE
  5
230
100
AcDbEntity
  8
RUNDUNGEN
100
AcDbLine
 62
7
  6
CONTINUOUS
 10
93.594577341
 20
152.1009698367
 11
93.594577341
 21
140.2967437715
  0
LINE
  5
231
100
AcDbEntity
  8
RUNDUNGEN
100
AcDbLine
 62
7
  6
CONTINUOUS
 10
89.7222812275
 20
152.1999403538
 11
89.704872676
 21
152.1987994982
  0
LINE
  5
232
100
AcDbEntity
  8
RUNDUNGEN
100
AcDbLine
 62
7
  6
CONTINUOUS
 10
89.7026095158
 20
152.1987873918
 11
89.704872676
 21
152.1987994982
  0
LINE
  5
233
100
AcDbEntity
  8
02___PRT_ALL_AXES
100
AcDbLine
 62
7
  6
CONTINUOUS
 10
105.267578125
 20
152.1988568041
 11
104.2695221421
 21
152.1988568041
  0
LINE
  5
234
100
AcDbEntity
  8
RUNDUNGEN
100
AcDbLine
 62
7
  6
CONTINUOUS
 10
68.767578125
 20
152.1988568041
 11
89.702622717
 21
152.1988568041
  0
LINE
  5
235
100
AcDbEntity
  8
RUNDUNGEN
100
AcDbLine
 62
7
  6
CONTINUOUS
 10
93.7953887568
 20
152.1988568041
 11
104.2695221421
 21
152.1988568041
  0
LINE
  5
236
100
AcDbEntity
  8
RUNDUNGEN
100
AcDbLine
 62
7
  6
CONTINUOUS
 10
103.5169016765
 20
199.8399056594
 11
103.5169005574
 21
199.839847755
  0
LINE
  5
237
100
AcDbEntity
  8
RUNDUNGEN
100
AcDbLine
 62
7
  6
CONTINUOUS
 10
103.5169027399
 20
199.8399585875
 11
103.5096603567
 21
199.9634557196
  0
LWPOLYLINE
  5
238
100
AcDbEntity
  8
0
100
AcDbPolyline
 62
7
  6
CONTINUOUS
 90
7
 70
0
 10
104.22053894
 20
152.1988568041
 10
104.2006260623
 20
154.6755386425
 10
104.0794364608
 20
163.4748892589
 10
103.9140364639
 20
172.412247152
 10
103.7391836072
 20
181.4883522335
 10
103.5928328052
 20
190.7039176389
 10
103.5169013822
 20
199.8399986748
  0
LINE
  5
239
100
AcDbEntity
  8
02___PRT_ALL_AXES
100
AcDbLine
 62
7
  6
CONTINUOUS
 10
105.267578125
 20
140.1988568041
 11
105.267578125
 21
152.1988568041
  0
LINE
  5
23A
100
AcDbEntity
  8
RUNDUNGEN
100
AcDbLine
 62
7
  6
CONTINUOUS
 10
103.509711815
 20
199.9628700567
 11
103.4866176
 21
200.1481236251
  0
LINE
  5
23B
100
AcDbEntity
  8
RUNDUNGEN
100
AcDbLine
 62
7
  6
CONTINUOUS
 10
103.5096603567
 20
199.9634557196
 11
103.5097246531
 21
199.9628714514
  0
LWPOLYLINE
  5
23C
100
AcDbEntity
  8
RUNDUNGEN
100
AcDbPolyline
 62
7
  6
CONTINUOUS
 90
5
 70
0
 10
103.4866176
 20
200.1481236251
 10
103.4335140764
 20
200.4640279069
 10
103.3655642589
 20
200.7579941394
 10
103.2837070692
 20
201.0251691786
 10
103.1877768995
 20
201.2653522096
  0
LWPOLYLINE
  5
23D
100
AcDbEntity
  8
RUNDUNGEN
100
AcDbPolyline
 62
7
  6
CONTINUOUS
 90
9
 70
0
 10
103.1877768995
 20
201.2653522096
 10
103.0772507238
 20
201.478572704
 10
102.9508255213
 20
201.6659947018
 10
102.8074672505
 20
201.827744779
 10
102.648841095
 20
201.9616383473
 10
102.4745517121
 20
202.0677579588
 10
102.287464159
 20
202.1437350625
 10
102.0897273332
 20
202.1878938818
 10
101.9330186203
 20
202.1988144819
  0
LWPOLYLINE
  5
23E
100
AcDbEntity
  8
RUNDUNGEN
100
AcDbPolyline
 62
7
  6
CONTINUOUS
 90
14
 70
0
 10
92.9405711151
 20
202.1909670657
 10
92.6320380413
 20
202.1257406957
 10
92.3424684741
 20
201.9991424329
 10
92.0784243751
 20
201.8184537772
 10
91.8416889702
 20
201.5904942827
 10
91.6268960396
 20
201.3145396136
 10
91.4285834921
 20
200.9842407841
 10
91.2468417491
 20
200.5980504335
 10
91.0814951542
 20
200.1537989958
 10
90.9347598672
 20
199.6556015807
 10
90.8088422867
 20
199.1114919602
 10
90.7056934751
 20
198.5331902658
 10
90.6269242446
 20
197.9396552011
 10
90.5842814893
 20
197.5026480646
  0
LINE
  5
23F
100
AcDbEntity
  8
RUNDUNGEN
100
AcDbLine
 62
7
  6
CONTINUOUS
 10
93.0858430084
 20
202.1988201475
 11
92.9405711151
 21
202.1909670657
  0
LINE
  5
240
100
AcDbEntity
  8
RUNDUNGEN
100
AcDbLine
 62
7
  6
CONTINUOUS
 10
93.0858430084
 20
202.1988201475
 11
101.9330186203
 21
202.1988144819
  0
LWPOLYLINE
  5
241
100
AcDbEntity
  8
RUNDUNGEN
100
AcDbPolyline
 62
7
  6
CONTINUOUS
 90
8
 70
0
 10
188.6311388107
 20
200.1676660086
 10
188.6161069849
 20
200.119657744
 10
188.6015795212
 20
200.0660509932
 10
188.5882955935
 20
200.0078368729
 10
188.5789508484
 20
199.9561644754
 10
188.571158497
 20
199.8948532592
 10
188.5667220807
 20
199.826042189
 10
188.5662057197
 20
199.7966331169
  0
LINE
  5
242
100
AcDbEntity
  8
RUNDUNGEN
100
AcDbLine
 62
7
  6
CONTINUOUS
 10
188.6311873068
 20
200.1676508634
 11
188.6311725333
 21
200.1676066843
  0
LINE
  5
243
100
AcDbEntity
  8
RUNDUNGEN
100
AcDbLine
 62
7
  6
CONTINUOUS
 10
185.8369773293
 20
150.1988568041
 11
185.8369773293
 21
142.1988568041
  0
LINE
  5
244
100
AcDbEntity
  8
RUNDUNGEN
100
AcDbLine
 62
7
  6
CONTINUOUS
 10
188.5662252482
 20
199.7970403027
 11
188.5662244233
 21
199.7970722188
  0
LINE
  5
245
100
AcDbEntity
  8
RUNDUNGEN
100
AcDbLine
 62
7
  6
CONTINUOUS
 10
186.8369773293
 20
150.1988568041
 11
186.8369773293
 21
142.1988568041
  0
LINE
  5
246
100
AcDbEntity
  8
0
100
AcDbLine
 62
7
  6
CONTINUOUS
 10
187.8369773293
 20
140.1988568041
 11
187.8369773293
 21
141.7988568041
  0
LINE
  5
247
100
AcDbEntity
  8
RUNDUNGEN
100
AcDbLine
 62
7
  6
CONTINUOUS
 10
187.8369773293
 20
151.1988568041
 11
187.8369773334
 21
152.1988568041
  0
LWPOLYLINE
  5
248
100
AcDbEntity
  8
0
100
AcDbPolyline
 62
7
  6
CONTINUOUS
 90
7
 70
0
 10
188.5662230789
 20
199.796655012
 10
188.4904704406
 20
190.7173462
 10
188.3441580267
 20
181.5107292237
 10
188.1692969835
 20
172.4375551761
 10
188.0038532796
 20
163.497397413
 10
187.8825886024
 20
154.6898838183
 10
187.8692462683
 20
152.1986839785
  0
LINE
  5
249
100
AcDbEntity
  8
0
100
AcDbLine
 62
7
  6
CONTINUOUS
 10
199.8369773293
 20
140.1988568041
 11
199.8369773293
 21
141.7988568041
  0
LINE
  5
24A
100
AcDbEntity
  8
RUNDUNGEN
100
AcDbLine
 62
7
  6
CONTINUOUS
 10
199.8369889865
 20
151.1988568041
 11
199.8369889865
 21
152.1988568041
  0
LINE
  5
24B
100
AcDbEntity
  8
RUNDUNGEN
100
AcDbLine
 62
7
  6
CONTINUOUS
 10
200.8369773293
 20
142.1988452824
 11
200.8369773293
 21
150.1988684614
  0
LINE
  5
24C
100
AcDbEntity
  8
RUNDUNGEN
100
AcDbLine
 62
7
  6
CONTINUOUS
 10
201.8369773293
 20
142.1990534456
 11
201.8369773293
 21
150.198660298
  0
LINE
  5
24D
100
AcDbEntity
  8
0
100
AcDbLine
 62
7
  6
CONTINUOUS
 10
187.8369773293
 20
140.1988568041
 11
206.3546154195
 21
140.1988568041
  0
LINE
  5
24E
100
AcDbEntity
  8
RUNDUNGEN
100
AcDbLine
 62
7
  6
CONTINUOUS
 10
199.8370120037
 20
140.1988568041
 11
222.8369773293
 21
140.1988568041
  0
LINE
  5
24F
100
AcDbEntity
  8
0
100
AcDbLine
 62
7
  6
CONTINUOUS
 10
187.8369773293
 20
141.7988568041
 11
199.8369773293
 21
141.7988568041
  0
LINE
  5
250
100
AcDbEntity
  8
RUNDUNGEN
100
AcDbLine
 62
7
  6
CONTINUOUS
 10
200.8369773293
 20
142.1988452824
 11
201.8369773293
 21
142.1988452824
  0
LINE
  5
251
100
AcDbEntity
  8
RUNDUNGEN
100
AcDbLine
 62
7
  6
CONTINUOUS
 10
186.8369773293
 20
142.1988568041
 11
185.8369773293
 21
142.1988568082
  0
LINE
  5
252
100
AcDbEntity
  8
RUNDUNGEN
100
AcDbLine
 62
7
  6
CONTINUOUS
 10
203.2857035944
 20
140.298946723
 11
203.2857035675
 21
152.0987667262
  0
LINE
  5
253
100
AcDbEntity
  8
0
100
AcDbLine
 62
7
  6
CONTINUOUS
 10
211.0819773293
 20
143.4538568041
 11
218.5919773293
 21
143.4538568041
  0
LINE
  5
254
100
AcDbEntity
  8
0
100
AcDbLine
 62
7
  6
CONTINUOUS
 10
218.5919773293
 20
148.9438568041
 11
211.0819773293
 21
148.9438568041
  0
LINE
  5
255
100
AcDbEntity
  8
RUNDUNGEN
100
AcDbLine
 62
7
  6
CONTINUOUS
 10
186.8369773293
 20
150.1988568041
 11
185.8369773293
 21
150.1988568041
  0
LINE
  5
256
100
AcDbEntity
  8
RUNDUNGEN
100
AcDbLine
 62
7
  6
CONTINUOUS
 10
200.8369773293
 20
150.1988684614
 11
201.8369773293
 21
150.1988684588
  0
LINE
  5
257
100
AcDbEntity
  8
RUNDUNGEN
100
AcDbLine
 62
7
  6
CONTINUOUS
 10
199.8369889865
 20
151.1988568041
 11
187.8369773293
 21
151.1988568041
  0
LINE
  5
258
100
AcDbEntity
  8
0
100
AcDbLine
 62
7
  6
CONTINUOUS
 10
206.3546154195
 20
152.1988568041
 11
199.8370119385
 21
152.1988568041
  0
LINE
  5
259
100
AcDbEntity
  8
RUNDUNGEN
100
AcDbLine
 62
7
  6
CONTINUOUS
 10
222.8369773293
 20
152.1988568041
 11
187.8369773293
 21
152.1988568041
  0
LWPOLYLINE
  5
25A
100
AcDbEntity
  8
RUNDUNGEN
100
AcDbPolyline
 62
7
  6
CONTINUOUS
 90
7
 70
0
 10
224.1196220371
 20
197.2955355459
 10
224.1189214339
 20
197.3284565053
 10
224.1150527724
 20
197.3892741864
 10
224.1081639013
 20
197.4497100072
 10
224.0974871261
 20
197.517397269
 10
224.0837553941
 20
197.5888096771
 10
224.0689628379
 20
197.654034107
  0
LWPOLYLINE
  5
25B
100
AcDbEntity
  8
0
100
AcDbPolyline
 62
7
  6
CONTINUOUS
 90
3
 70
0
 10
224.3262774202
 20
181.7039524497
 10
224.1976125217
 20
189.6493559759
 10
224.1196556503
 20
197.2955523677
  0
LWPOLYLINE
  5
25C
100
AcDbEntity
  8
0
100
AcDbPolyline
 62
7
  6
CONTINUOUS
 90
4
 70
0
 10
224.8249245775
 20
150.4278580942
 10
224.7520353354
 20
158.0612208672
 10
224.6281653195
 20
165.9103570884
 10
224.3262774202
 20
181.7039524497
  0
LINE
  5
25D
100
AcDbEntity
  8
RUNDUNGEN
100
AcDbLine
 62
7
  6
CONTINUOUS
 10
223.3882520409
 20
152.0252540264
 11
223.3882520409
 21
140.3724595818
  0
LINE
  5
25E
100
AcDbEntity
  8
RUNDUNGEN
100
AcDbLine
 62
7
  6
CONTINUOUS
 10
224.8369773293
 20
150.1988568041
 11
224.8369773293
 21
142.1988568041
  0
LWPOLYLINE
  5
25F
100
AcDbEntity
  8
RUNDUNGEN
100
AcDbPolyline
 62
7
  6
CONTINUOUS
 90
15
 70
0
 10
224.0689087436
 20
197.6539987097
 10
223.9659153403
 20
198.028991655
 10
223.7629045843
 20
198.5895958909
 10
223.5075826137
 20
199.1258757909
 10
223.2025997861
 20
199.6327778425
 10
222.8508264127
 20
200.1054580541
 10
222.4559310867
 20
200.5392731042
 10
222.0218422122
 20
200.9297610018
 10
221.5529787362
 20
201.2731893703
 10
221.054069651
 20
201.5661336897
 10
220.5301934519
 20
201.8058214381
 10
219.9867675322
 20
201.9899507515
 10
219.4291530914
 20
202.11690554
 10
218.8628699179
 20
202.1856218821
 10
218.4810469193
 20
202.1988466043
  0
LWPOLYLINE
  5
260
100
AcDbEntity
  8
RUNDUNGEN
100
AcDbPolyline
 62
7
  6
CONTINUOUS
 90
13
 70
0
 10
191.3787051086
 20
202.1988230733
 10
191.2485807919
 20
202.1957823002
 10
190.9182409955
 20
202.1608508699
 10
190.5934051156
 20
202.0869790139
 10
190.2783550725
 20
201.9749642132
 10
189.9770808631
 20
201.825938047
 10
189.693834609
 20
201.6417853313
 10
189.4326081247
 20
201.424806313
 10
189.1970028082
 20
201.1777878197
 10
188.9902387222
 20
200.9039096113
 10
188.8152286493
 20
200.6066679061
 10
188.6744281879
 20
200.2898187768
 10
188.6311725333
 20
200.1676066843
  0
LINE
  5
261
100
AcDbEntity
  8
RUNDUNGEN
100
AcDbLine
 62
7
  6
CONTINUOUS
 10
191.3787050987
 20
202.1988567724
 11
218.4810041941
 21
202.1988568041
  0
LINE
  5
262
100
AcDbEntity
  8
0
100
AcDbLine
 62
7
  6
CONTINUOUS
 10
218.4701196346
 20
202.1988568041
 11
218.4810041941
 21
202.1988568041
  0
LINE
  5
263
100
AcDbEntity
  8
RUNDUNGEN
100
AcDbLine
 62
7
  6
CONTINUOUS
 10
67.767578125
 20
74.9284348858
 11
67.767578125
 21
88.9284348858
  0
LINE
  5
264
100
AcDbEntity
  8
RUNDUNGEN
100
AcDbLine
 62
7
  6
CONTINUOUS
 10
82.3724643084
 20
50.9284348858
 11
91.6924643084
 21
50.9284348858
  0
LINE
  5
265
100
AcDbEntity
  8
RUNDUNGEN
100
AcDbLine
 62
7
  6
CONTINUOUS
 10
68.7675781258
 20
73.9284348966
 11
68.767578125
 21
89.9284348858
  0
LINE
  5
266
100
AcDbEntity
  8
RUNDUNGEN
100
AcDbLine
 62
7
  6
CONTINUOUS
 10
80.3958953802
 20
52.9284348858
 11
89.702622717
 21
52.9285088983
  0
LINE
  5
267
100
AcDbEntity
  8
RUNDUNGEN
100
AcDbLine
 62
7
  6
CONTINUOUS
 10
93.7165669279
 20
52.9284359927
 11
93.7953887568
 21
52.9284348858
  0
LINE
  5
268
100
AcDbEntity
  8
RUNDUNGEN
100
AcDbLine
 62
7
  6
CONTINUOUS
 10
89.7026095158
 20
52.9284348948
 11
89.9009863765
 21
52.9024426981
  0
LINE
  5
269
100
AcDbEntity
  8
RUNDUNGEN
100
AcDbLine
 62
7
  6
CONTINUOUS
 10
92.5927172437
 20
52.3595317733
 11
93.2530735482
 21
52.1449715167
  0
LINE
  5
26A
100
AcDbEntity
  8
RUNDUNGEN
100
AcDbLine
 62
7
  6
CONTINUOUS
 10
89.7804061815
 20
53.2733070393
 11
89.9706119926
 21
53.211505415
  0
LINE
  5
26B
100
AcDbEntity
  8
RUNDUNGEN
100
AcDbLine
 62
7
  6
CONTINUOUS
 10
93.7165665683
 20
52.9284348858
 11
93.5263609798
 21
52.9902365269
  0
LINE
  5
26C
100
AcDbEntity
  8
RUNDUNGEN
100
AcDbLine
 62
7
  6
CONTINUOUS
 10
72.7631042355
 20
73.9284348858
 11
72.7631042355
 21
75.9284002765
  0
LINE
  5
26D
100
AcDbEntity
  8
0
100
AcDbLine
 62
7
  6
CONTINUOUS
 10
76.9211734271
 20
64.6834348858
 11
79.0746312741
 21
57.1734348858
  0
LINE
  5
26E
100
AcDbEntity
  8
RUNDUNGEN
100
AcDbLine
 62
7
  6
CONTINUOUS
 10
80.4499409165
 20
52.3771601742
 11
74.6856278997
 21
72.4797086476
  0
LINE
  5
26F
100
AcDbEntity
  8
RUNDUNGEN
100
AcDbLine
 62
7
  6
CONTINUOUS
 10
94.0773795523
 20
56.9753913392
 11
92.1417691629
 21
57.6043092767
  0
LINE
  5
270
100
AcDbEntity
  8
RUNDUNGEN
100
AcDbLine
 62
7
  6
CONTINUOUS
 10
74.6856276274
 20
72.4797095974
 11
74.7818403854
 21
72.5072981618
  0
LINE
  5
271
100
AcDbEntity
  8
RUNDUNGEN
100
AcDbLine
 62
7
  6
CONTINUOUS
 10
72.8546959813
 20
89.9284348858
 11
75.7664578555
 21
81.9284348858
  0
LINE
  5
272
100
AcDbEntity
  8
0
100
AcDbLine
 62
7
  6
CONTINUOUS
 10
75.7664578555
 20
81.9284348858
 11
80.2522951428
 21
69.2608211673
  0
LINE
  5
273
100
AcDbEntity
  8
0
100
AcDbLine
 62
7
  6
CONTINUOUS
 10
82.137578125
 20
67.9284348858
 11
92.797578125
 21
67.9284348858
  0
LINE
  5
274
100
AcDbEntity
  8
RUNDUNGEN
100
AcDbLine
 62
7
  6
CONTINUOUS
 10
72.7631031259
 20
73.9284348858
 11
68.767578125
 21
73.9284348858
  0
LINE
  5
275
100
AcDbEntity
  8
RUNDUNGEN
100
AcDbLine
 62
7
  6
CONTINUOUS
 10
67.767578125
 20
75.9284232285
 11
68.767578125
 21
75.9284232285
  0
LINE
  5
276
100
AcDbEntity
  8
02___PRT_ALL_AXES
100
AcDbLine
 62
7
  6
CONTINUOUS
 10
105.267578125
 20
75.9284348858
 11
101.9950857543
 21
75.9284348858
  0
LINE
  5
277
100
AcDbEntity
  8
0
100
AcDbLine
 62
7
  6
CONTINUOUS
 10
94.7294297776
 20
69.4107967956
 11
99.691189446
 21
87.9283359731
  0
LINE
  5
278
100
AcDbEntity
  8
RUNDUNGEN
100
AcDbLine
 62
7
  6
CONTINUOUS
 10
99.2812238251
 20
81.8666332186
 11
89.9706134742
 21
53.2115106303
  0
LINE
  5
279
100
AcDbEntity
  8
RUNDUNGEN
100
AcDbLine
 62
7
  6
CONTINUOUS
 10
100.944277873
 20
84.6956459733
 11
92.1417690879
 21
57.604309301
  0
LINE
  5
27A
100
AcDbEntity
  8
RUNDUNGEN
100
AcDbLine
 62
7
  6
CONTINUOUS
 10
94.0773795523
 20
56.9753913392
 11
102.8798885121
 21
84.0667279533
  0
LINE
  5
27B
100
AcDbEntity
  8
RUNDUNGEN
100
AcDbLine
 62
7
  6
CONTINUOUS
 10
93.5263609798
 20
52.9902365269
 11
102.9490342248
 21
81.9902362871
  0
LINE
  5
27C
100
AcDbEntity
  8
RUNDUNGEN
100
AcDbLine
 62
7
  6
CONTINUOUS
 10
93.594577341
 20
52.3104008971
 11
102.147330338
 21
78.6330679936
  0
LINE
  5
27D
100
AcDbEntity
  8
RUNDUNGEN
100
AcDbLine
 62
7
  6
CONTINUOUS
 10
103.1391718356
 20
81.9282254296
 11
104.2695221421
 21
81.9284348858
  0
LINE
  5
27E
100
AcDbEntity
  8
RUNDUNGEN
100
AcDbLine
 62
7
  6
CONTINUOUS
 10
98.083520795
 20
81.9284348858
 11
99.0909191484
 21
81.9281299143
  0
LINE
  5
27F
100
AcDbEntity
  8
RUNDUNGEN
100
AcDbLine
 62
7
  6
CONTINUOUS
 10
80.2997692106
 20
52.9008711502
 11
80.3958953802
 21
52.9284348858
  0
LINE
  5
280
100
AcDbEntity
  8
RUNDUNGEN
100
AcDbLine
 62
7
  6
CONTINUOUS
 10
99.0910182397
 20
81.9284348858
 11
99.2812240206
 21
81.8666331551
  0
LINE
  5
281
100
AcDbEntity
  8
RUNDUNGEN
100
AcDbLine
 62
7
  6
CONTINUOUS
 10
103.1392398917
 20
81.928434885
 11
102.9490347619
 21
81.9902361126
  0
LINE
  5
282
100
AcDbEntity
  8
02___PRT_ALL_AXES
100
AcDbLine
 62
7
  6
CONTINUOUS
 10
105.267578125
 20
87.9284348858
 11
99.6846415227
 21
87.9284348858
  0
LINE
  5
283
100
AcDbEntity
  8
RUNDUNGEN
100
AcDbLine
 62
7
  6
CONTINUOUS
 10
67.767578125
 20
87.9284348858
 11
73.5826364499
 21
87.9284348858
  0
LINE
  5
284
100
AcDbEntity
  8
RUNDUNGEN
100
AcDbLine
 62
7
  6
CONTINUOUS
 10
100.9442778729
 20
84.6956459733
 11
102.8798884345
 21
84.0667279785
  0
LINE
  5
285
100
AcDbEntity
  8
02___PRT_ALL_AXES
100
AcDbLine
 62
7
  6
CONTINUOUS
 10
105.267578125
 20
75.9284348858
 11
105.267578125
 21
87.9284348858
  0
LINE
  5
286
100
AcDbEntity
  8
RUNDUNGEN
100
AcDbLine
 62
7
  6
CONTINUOUS
 10
68.767578125
 20
89.9284348858
 11
72.8546959813
 21
89.9284348858
  0
LINE
  5
287
100
AcDbEntity
  8
RUNDUNGEN
100
AcDbLine
 62
7
  6
CONTINUOUS
 10
101.5253348916
 20
86.4938153312
 11
100.8412016731
 21
86.7161955355
  0
ARC
  5
288
100
AcDbEntity
  8
RUNDUNGEN
100
AcDbCircle
 62
7
  6
CONTINUOUS
 10
102.6991080302
 20
151.2443683803
 40
1.2183457586
100
AcDbArc
 50
51.7724988956
 51
53.2305112659
  0
ARC
  5
289
100
AcDbEntity
  8
RUNDUNGEN
100
AcDbCircle
 62
7
  6
CONTINUOUS
 10
68.767578125
 20
141.1988568041
 40
1.0
100
AcDbArc
 50
180.0
 51
270.0
  0
ARC
  5
28A
100
AcDbEntity
  8
0
100
AcDbCircle
 62
7
  6
CONTINUOUS
 10
68.767578125
 20
141.1988689059
 40
1.0
100
AcDbArc
 50
180.0000000523
 51
270.0000000011
  0
ARC
  5
28B
100
AcDbEntity
  8
RUNDUNGEN
100
AcDbCircle
 62
7
  6
CONTINUOUS
 10
68.767578125
 20
151.1988568041
 40
1.0
100
AcDbArc
 50
90.0000000003
 51
179.999999999
  0
ARC
  5
28C
100
AcDbEntity
  8
RUNDUNGEN
100
AcDbCircle
 62
7
  6
CONTINUOUS
 10
93.1253900445
 20
201.2907705985
 40
0.9080866858
100
AcDbArc
 50
78.161949221
 51
89.9410764772
  0
ARC
  5
28D
100
AcDbEntity
  8
RUNDUNGEN
100
AcDbCircle
 62
7
  6
CONTINUOUS
 10
93.126400142
 20
201.6259987017
 40
0.5728581075
100
AcDbArc
 50
90.0076225984
 51
94.0007492104
  0
ARC
  5
28E
100
AcDbEntity
  8
RUNDUNGEN
100
AcDbCircle
 62
7
  6
CONTINUOUS
 10
103.2812672632
 20
200.0219315248
 40
0.2482701537
100
AcDbArc
 50
318.3390785426
 51
321.2995926151
  0
ARC
  5
28F
100
AcDbEntity
  8
RUNDUNGEN
100
AcDbCircle
 62
7
  6
CONTINUOUS
 10
80.2997276466
 20
151.9414395984
 40
0.1574172112
100
AcDbArc
 50
83.045333853
 51
89.9848717769
  0
ARC
  5
290
100
AcDbEntity
  8
RUNDUNGEN
100
AcDbCircle
 62
7
  6
CONTINUOUS
 10
193.8988238235
 20
146.1950680296
 40
6.2022430733
100
AcDbArc
 50
90.0004141081
 51
104.3393490699
  0
CIRCLE
  5
291
100
AcDbEntity
  8
0
100
AcDbCircle
 62
7
  6
CONTINUOUS
 10
193.8369773293
 20
146.1988568041
 40
2.695
  0
ARC
  5
292
100
AcDbEntity
  8
RUNDUNGEN
100
AcDbCircle
 62
7
  6
CONTINUOUS
 10
187.8369773293
 20
150.1988568041
 40
2.0
100
AcDbArc
 50
90.0
 51
180.0
  0
ARC
  5
293
100
AcDbEntity
  8
0
100
AcDbCircle
 62
7
  6
CONTINUOUS
 10
187.8369773293
 20
142.1988568041
 40
2.0
100
AcDbArc
 50
180.0
 51
270.0
  0
ARC
  5
294
100
AcDbEntity
  8
0
100
AcDbCircle
 62
7
  6
CONTINUOUS
 10
199.8369888511
 20
142.1988452823
 40
1.9999884782
100
AcDbArc
 50
269.9996699224
 51
0.0059634755
  0
ARC
  5
295
100
AcDbEntity
  8
RUNDUNGEN
100
AcDbCircle
 62
7
  6
CONTINUOUS
 10
199.8370119385
 20
150.1988914134
 40
1.9999653907
100
AcDbArc
 50
0.0
 51
90.0000000001
  0
ARC
  5
296
100
AcDbEntity
  8
RUNDUNGEN
100
AcDbCircle
 62
7
  6
CONTINUOUS
 10
199.8370120037
 20
142.1988221296
 40
1.9999653255
100
AcDbArc
 50
269.9999999997
 51
360.0
  0
ARC
  5
297
100
AcDbEntity
  8
0
100
AcDbCircle
 62
7
  6
CONTINUOUS
 10
199.8369771225
 20
142.1988557172
 40
1.0000002068
100
AcDbArc
 50
270.0000118451
 51
359.9994021257
  0
ARC
  5
298
100
AcDbEntity
  8
0
100
AcDbCircle
 62
7
  6
CONTINUOUS
 10
187.8369773293
 20
142.1988568041
 40
1.0
100
AcDbArc
 50
180.0
 51
270.0
  0
ARC
  5
299
100
AcDbEntity
  8
RUNDUNGEN
100
AcDbCircle
 62
7
  6
CONTINUOUS
 10
187.8369773293
 20
150.1988568041
 40
1.0
100
AcDbArc
 50
90.0
 51
180.0
  0
ARC
  5
29A
100
AcDbEntity
  8
RUNDUNGEN
100
AcDbCircle
 62
7
  6
CONTINUOUS
 10
199.836979488
 20
150.1988589629
 40
0.9999978413
100
AcDbArc
 50
0.000544224
 51
89.999455775
  0
ARC
  5
29B
100
AcDbEntity
  8
RUNDUNGEN
100
AcDbCircle
 62
7
  6
CONTINUOUS
 10
203.2857053243
 20
141.2869306174
 40
0.9879839331
100
AcDbArc
 50
268.5128354901
 51
269.9998996775
  0
ARC
  5
29C
100
AcDbEntity
  8
RUNDUNGEN
100
AcDbCircle
 62
7
  6
CONTINUOUS
 10
203.2855356272
 20
151.1171474907
 40
0.9816192875
100
AcDbArc
 50
89.990197556
 51
96.8663954996
  0
ARC
  5
29D
100
AcDbEntity
  8
RUNDUNGEN
100
AcDbCircle
 62
7
  6
CONTINUOUS
 10
203.2821321966
 20
151.1461112755
 40
0.9524563496
100
AcDbArc
 50
96.8714324971
 51
101.5937240559
  0
ARC
  5
29E
100
AcDbEntity
  8
0
100
AcDbCircle
 62
7
  6
CONTINUOUS
 10
211.0819773293
 20
146.1988568041
 40
2.745
100
AcDbArc
 50
90.0
 51
270.0
  0
ARC
  5
29F
100
AcDbEntity
  8
0
100
AcDbCircle
 62
7
  6
CONTINUOUS
 10
218.5919773293
 20
146.1988568041
 40
2.745
100
AcDbArc
 50
270.0
 51
90.0
  0
ARC
  5
2A0
100
AcDbEntity
  8
RUNDUNGEN
100
AcDbCircle
 62
7
  6
CONTINUOUS
 10
222.8360400396
 20
150.185193612
 40
2.0135727904
100
AcDbArc
 50
78.432231796
 51
84.0573702594
  0
ARC
  5
2A1
100
AcDbEntity
  8
RUNDUNGEN
100
AcDbCircle
 62
7
  6
CONTINUOUS
 10
222.8348955472
 20
150.192996856
 40
2.0062134133
100
AcDbArc
 50
68.0727110268
 51
73.3638706841
  0
ARC
  5
2A2
100
AcDbEntity
  8
RUNDUNGEN
100
AcDbCircle
 62
7
  6
CONTINUOUS
 10
222.8369773452
 20
150.1995323545
 40
1.9993244496
100
AcDbArc
 50
74.0002046797
 51
90.0000004576
  0
ARC
  5
2A3
100
AcDbEntity
  8
RUNDUNGEN
100
AcDbCircle
 62
7
  6
CONTINUOUS
 10
222.8369930893
 20
150.1988670112
 40
1.99998424
100
AcDbArc
 50
359.9997075854
 51
73.6897909439
  0
ARC
  5
2A4
100
AcDbEntity
  8
RUNDUNGEN
100
AcDbCircle
 62
7
  6
CONTINUOUS
 10
222.8370093295
 20
142.1988406404
 40
1.9999679998
100
AcDbArc
 50
270.0005874647
 51
0.0004630639
  0
ARC
  5
2A5
100
AcDbEntity
  8
RUNDUNGEN
100
AcDbCircle
 62
7
  6
CONTINUOUS
 10
222.8383914828
 20
150.2039982202
 40
1.9946679609
100
AcDbArc
 50
73.1557598095
 51
73.9983398765
  0
ARC
  5
2A6
100
AcDbEntity
  8
RUNDUNGEN
100
AcDbCircle
 62
7
  6
CONTINUOUS
 10
222.8055198237
 20
150.4834156335
 40
1.9261444984
100
AcDbArc
 50
56.6076989849
 51
60.9496764378
  0
ARC
  5
2A7
100
AcDbEntity
  8
RUNDUNGEN
100
AcDbCircle
 62
7
  6
CONTINUOUS
 10
222.8645530896
 20
150.1988788473
 40
1.8999754962
100
AcDbArc
 50
74.0001653448
 51
89.9951583327
  0
ARC
  5
2A8
100
AcDbEntity
  8
RUNDUNGEN
100
AcDbCircle
 62
7
  6
CONTINUOUS
 10
222.8646978968
 20
142.1983248529
 40
1.8994454269
100
AcDbArc
 50
269.9999288811
 51
285.999875394
  0
ARC
  5
2A9
100
AcDbEntity
  8
RUNDUNGEN
100
AcDbCircle
 62
7
  6
CONTINUOUS
 10
222.8333063068
 20
150.5335855167
 40
1.8687938167
100
AcDbArc
 50
60.9475116484
 51
65.7961882565
  0
ARC
  5
2AA
100
AcDbEntity
  8
RUNDUNGEN
100
AcDbCircle
 62
7
  6
CONTINUOUS
 10
222.8466200169
 20
150.5621007035
 40
1.8373269703
100
AcDbArc
 50
65.8103015753
 51
70.6059935314
  0
ARC
  5
2AB
100
AcDbEntity
  8
RUNDUNGEN
100
AcDbCircle
 62
7
  6
CONTINUOUS
 10
218.4649252171
 20
196.6956848063
 40
5.5050725065
100
AcDbArc
 50
70.071054426
 51
70.9361413942
  0
ARC
  5
2AC
100
AcDbEntity
  8
RUNDUNGEN
100
AcDbCircle
 62
7
  6
CONTINUOUS
 10
218.4675352115
 20
196.7033675878
 40
5.4969586053
100
AcDbArc
 50
70.9356982616
 51
75.2306401427
  0
ARC
  5
2AD
100
AcDbEntity
  8
RUNDUNGEN
100
AcDbCircle
 62
7
  6
CONTINUOUS
 10
218.46163385
 20
196.7232412709
 40
5.4764362141
100
AcDbArc
 50
75.5696964769
 51
76.0604204565
  0
ARC
  5
2AE
100
AcDbEntity
  8
RUNDUNGEN
100
AcDbCircle
 62
7
  6
CONTINUOUS
 10
218.472976339
 20
196.7234263303
 40
5.4761755091
100
AcDbArc
 50
75.232186565
 51
77.4870321847
  0
ARC
  5
2AF
100
AcDbEntity
  8
RUNDUNGEN
100
AcDbCircle
 62
7
  6
CONTINUOUS
 10
218.4659976817
 20
196.741608273
 40
5.4575588772
100
AcDbArc
 50
76.0584334615
 51
80.6510386923
  0
ARC
  5
2B0
100
AcDbEntity
  8
RUNDUNGEN
100
AcDbCircle
 62
7
  6
CONTINUOUS
 10
218.47788466
 20
196.7457259543
 40
5.4533421287
100
AcDbArc
 50
77.4866149097
 51
80.496999029
  0
ARC
  5
2B1
100
AcDbEntity
  8
RUNDUNGEN
100
AcDbCircle
 62
7
  6
CONTINUOUS
 10
218.4797038905
 20
196.7543952965
 40
5.4444914147
100
AcDbArc
 50
80.5008187166
 51
85.7573752555
  0
ARC
  5
2B2
100
AcDbEntity
  8
RUNDUNGEN
100
AcDbCircle
 62
7
  6
CONTINUOUS
 10
218.4689261913
 20
196.7559867699
 40
5.4428956666
100
AcDbArc
 50
80.6568690822
 51
85.5852231744
  0
ARC
  5
2B3
100
AcDbEntity
  8
RUNDUNGEN
100
AcDbCircle
 62
7
  6
CONTINUOUS
 10
218.469678736
 20
196.7668772637
 40
5.4319795582
100
AcDbArc
 50
85.5842949977
 51
89.9953494618
  0
ARC
  5
2B4
100
AcDbEntity
  8
RUNDUNGEN
100
AcDbCircle
 62
7
  6
CONTINUOUS
 10
218.4805758474
 20
196.7670278886
 40
5.4318289324
100
AcDbArc
 50
85.756689697
 51
89.9954817324
  0
ARC
  5
2B5
100
AcDbEntity
  8
RUNDUNGEN
100
AcDbCircle
 62
7
  6
CONTINUOUS
 10
77.7206778152
 20
73.339804011
 40
3.0546228247
100
AcDbArc
 50
190.8791973236
 51
194.1974887905
  0
ARC
  5
2B6
100
AcDbEntity
  8
RUNDUNGEN
100
AcDbCircle
 62
7
  6
CONTINUOUS
 10
77.464308621
 20
73.2759498458
 40
2.7904231304
100
AcDbArc
 50
194.21749931
 51
195.9894659459
  0
ARC
  5
2B7
100
AcDbEntity
  8
RUNDUNGEN
100
AcDbCircle
 62
7
  6
CONTINUOUS
 10
91.6122325766
 20
52.9836444626
 40
2.0442288485
100
AcDbArc
 50
264.1307241162
 51
279.84482399
  0
ARC
  5
2B8
100
AcDbEntity
  8
0
100
AcDbCircle
 62
7
  6
CONTINUOUS
 10
82.137578125
 20
69.9284348858
 40
2.0
100
AcDbArc
 50
199.5
 51
270.0
  0
ARC
  5
2B9
100
AcDbEntity
  8
0
100
AcDbCircle
 62
7
  6
CONTINUOUS
 10
92.797578125
 20
69.9284348858
 40
2.0
100
AcDbArc
 50
270.0
 51
345.0
  0
ARC
  5
2BA
100
AcDbEntity
  8
RUNDUNGEN
100
AcDbCircle
 62
7
  6
CONTINUOUS
 10
82.3724643084
 20
52.9284348858
 40
2.0
100
AcDbArc
 50
196.0
 51
270.0
  0
ARC
  5
2BB
100
AcDbEntity
  8
RUNDUNGEN
100
AcDbCircle
 62
7
  6
CONTINUOUS
 10
91.6924643084
 20
52.9284348858
 40
2.0
100
AcDbArc
 50
270.0
 51
342.0
  0
ARC
  5
2BC
100
AcDbEntity
  8
RUNDUNGEN
100
AcDbCircle
 62
7
  6
CONTINUOUS
 10
72.763104365
 20
71.9284350909
 40
1.9999997949
100
AcDbArc
 50
16.0002327652
 51
90.0000354973
  0
ARC
  5
2BD
100
AcDbEntity
  8
RUNDUNGEN
100
AcDbCircle
 62
7
  6
CONTINUOUS
 10
91.6152719823
 20
52.6782045512
 40
1.9289581328
100
AcDbArc
 50
162.0305529376
 51
172.5441940664
  0
ARC
  5
2BE
100
AcDbEntity
  8
RUNDUNGEN
100
AcDbCircle
 62
7
  6
CONTINUOUS
 10
91.5996607678
 20
52.6760126921
 40
1.7365881938
100
AcDbArc
 50
283.0152345249
 51
342.1940814458
  0
ARC
  5
2BF
100
AcDbEntity
  8
RUNDUNGEN
100
AcDbCircle
 62
7
  6
CONTINUOUS
 10
91.6102289542
 20
52.6793226931
 40
1.723822191
100
AcDbArc
 50
162.0175575186
 51
172.5628121367
  0
ARC
  5
2C0
100
AcDbEntity
  8
RUNDUNGEN
100
AcDbCircle
 62
7
  6
CONTINUOUS
 10
91.8971875194
 20
52.7071555249
 40
1.6400506356
100
AcDbArc
 50
337.6837790682
 51
340.5116617042
  0
ARC
  5
2C1
100
AcDbEntity
  8
RUNDUNGEN
100
AcDbCircle
 62
7
  6
CONTINUOUS
 10
91.6111121783
 20
52.6777534395
 40
1.0320713269
100
AcDbArc
 50
161.9619246698
 51
342.0282670519
  0
ARC
  5
2C2
100
AcDbEntity
  8
RUNDUNGEN
100
AcDbCircle
 62
7
  6
CONTINUOUS
 10
68.767578125
 20
74.9284428157
 40
1.0
100
AcDbArc
 50
180.0004543521
 51
270.0
  0
ARC
  5
2C3
100
AcDbEntity
  8
RUNDUNGEN
100
AcDbCircle
 62
7
  6
CONTINUOUS
 10
101.9950843385
 20
74.9284350098
 40
0.9999999787
100
AcDbArc
 50
90.0000008148
 51
162.0000022851
  0
ARC
  5
2C4
100
AcDbEntity
  8
RUNDUNGEN
100
AcDbCircle
 62
7
  6
CONTINUOUS
 10
-704.7973067566
 20
343.1971032044
 40
845.4796850815
100
AcDbArc
 50
341.9955195301
 51
342.3153474937
  0
ARC
  5
2C5
100
AcDbEntity
  8
RUNDUNGEN
100
AcDbCircle
 62
7
  6
CONTINUOUS
 10
-650.9867141346
 20
333.8567096554
 40
791.2549914563
100
AcDbArc
 50
341.434344203
 51
341.7924805131
  0
ARC
  5
2C6
100
AcDbEntity
  8
RUNDUNGEN
100
AcDbCircle
 62
7
  6
CONTINUOUS
 10
102.4243851525
 20
86.0342614927
 40
1.8682650917
100
AcDbArc
 50
150.3182244448
 51
157.5832085803
  0
ARC
  5
2C7
100
AcDbEntity
  8
RUNDUNGEN
100
AcDbCircle
 62
7
  6
CONTINUOUS
 10
102.6029854206
 20
86.0529563554
 40
1.8295589826
100
AcDbArc
 50
341.1930558935
 51
353.4208141081
  0
ARC
  5
2C8
100
AcDbEntity
  8
RUNDUNGEN
100
AcDbCircle
 62
7
  6
CONTINUOUS
 10
102.382808448
 20
86.0519378726
 40
1.8230894901
100
AcDbArc
 50
157.5984742525
 51
161.7951339652
  0
ARC
  5
2C9
100
AcDbEntity
  8
RUNDUNGEN
100
AcDbCircle
 62
7
  6
CONTINUOUS
 10
102.4936216146
 20
86.1895440144
 40
1.7390053252
100
AcDbArc
 50
341.6765644373
 51
89.9747161043
  0
ARC
  5
2CA
100
AcDbEntity
  8
RUNDUNGEN
100
AcDbCircle
 62
7
  6
CONTINUOUS
 10
102.4961161489
 20
86.1785680808
 40
1.0206486936
100
AcDbArc
 50
341.9916407308
 51
162.0058462903
  0
ARC
  5
2CB
100
AcDbEntity
  8
RUNDUNGEN
100
AcDbCircle
 62
7
  6
CONTINUOUS
 10
68.767578125
 20
88.9284348858
 40
1.0
100
AcDbArc
 50
90.0
 51
180.0
  0
ARC
  5
2CC
100
AcDbEntity
  8
RUNDUNGEN
100
AcDbCircle
 62
7
  6
CONTINUOUS
 10
934.8387363023
 20
-188.2993175512
 40
874.6981875691
100
AcDbArc
 50
161.7487398168
 51
162.0004856378
  0
ARC
  5
2CD
100
AcDbEntity
  8
RUNDUNGEN
100
AcDbCircle
 62
7
  6
CONTINUOUS
 10
887.2132524728
 20
-181.3171982929
 40
827.0854371489
100
AcDbArc
 50
161.1825037912
 51
161.4410125602
  0
LINE
  5
2CE
100
AcDbEntity
  8
RUNDUNGEN
100
AcDbLine
 62
7
  6
CONTINUOUS
 10
80.4499409165
 20
140.3724595818
 11
82.3724643084
 21
142.1988568041
  0
SPLINE
  5
2CF
100
AcDbEntity
  8
RUNDUNGEN
100
AcDbSpline
 62
7
  6
CONTINUOUS
 70
0
 71
3
 72
14
 73
10
 74
0
 42
0.0000001
 43
0.0000001
 44
0.0000000001
 40
0.0
 40
0.0
 40
0.0
 40
0.0
 40
0.0768246113
 40
0.1779578928
 40
0.2960695582
 40
0.425843903
 40
0.7064103367
 40
0.8524587179
 40
1.0
 40
1.0
 40
1.0
 40
1.0
 10
93.594577341
 20
152.1009698367
 30
0.0
 10
93.5465930688
 20
152.0515453588
 30
0.0
 10
93.4325587156
 20
151.9398985068
 30
0.0
 10
93.2454934557
 20
151.7515341076
 30
0.0
 10
93.0239649625
 20
151.5304768096
 30
0.0
 10
92.6890184062
 20
151.1953070848
 30
0.0
 10
92.3361066166
 20
150.8426745665
 30
0.0
 10
91.9723130751
 20
150.4783959194
 30
0.0
 10
91.7856613991
 20
150.2927518753
 30
0.0
 10
91.6924643084
 20
150.1988568041
 30
0.0
  0
SPLINE
  5
2D0
100
AcDbEntity
  8
RUNDUNGEN
100
AcDbSpline
 62
7
  6
CONTINUOUS
 70
0
 71
3
 72
14
 73
10
 74
0
 42
0.0000001
 43
0.0000001
 44
0.0000000001
 40
0.0
 40
0.0
 40
0.0
 40
0.0
 40
0.1475410245
 40
0.2935890242
 40
0.5741547998
 40
0.70392904
 40
0.8220413343
 40
0.9231747886
 40
1.0
 40
1.0
 40
1.0
 40
1.0
 10
91.6924643084
 20
142.1988568041
 30
0.0
 10
91.7856626045
 20
142.1049632548
 30
0.0
 10
91.9723124559
 20
141.9193182114
 30
0.0
 10
92.3361049568
 20
141.555040161
 30
0.0
 10
92.6890157736
 20
141.2024081263
 30
0.0
 10
93.0239634197
 20
140.8672396558
 30
0.0
 10
93.2454903561
 20
140.6461799291
 30
0.0
 10
93.4325599448
 20
140.4578180459
 30
0.0
 10
93.5465912442
 20
140.3461672279
 30
0.0
 10
93.594577341
 20
140.2967437715
 30
0.0
  0
SPLINE
  5
2D1
100
AcDbEntity
  8
RUNDUNGEN
100
AcDbSpline
 62
7
  6
CONTINUOUS
 70
0
 71
3
 72
9
 73
5
 74
0
 42
0.0000001
 43
0.0000001
 44
0.0000000001
 40
0.0
 40
0.0
 40
0.0
 40
0.0
 40
0.4596201843
 40
1.0
 40
1.0
 40
1.0
 40
1.0
 10
103.5096706447
 20
199.9628655402
 30
0.0
 10
103.5113157032
 20
199.9469840675
 30
0.0
 10
103.5056771472
 20
199.9112870124
 30
0.0
 10
103.4867530031
 20
199.8813574073
 30
0.0
 10
103.4750237366
 20
199.8667010568
 30
0.0
  0
SPLINE
  5
2D2
100
AcDbEntity
  8
RUNDUNGEN
100
AcDbSpline
 62
7
  6
CONTINUOUS
 70
0
 71
3
 72
17
 73
13
 74
0
 42
0.0000001
 43
0.0000001
 44
0.0000000001
 40
0.0
 40
0.0
 40
0.0
 40
0.0
 40
0.0318640552
 40
0.0654033095
 40
0.1020370623
 40
0.1428118369
 40
0.2391037246
 40
0.3569186781
 40
0.495643752
 40
0.6524611324
 40
0.8226615715
 40
1.0
 40
1.0
 40
1.0
 40
1.0
 10
104.2695221424
 20
140.1988568041
 30
0.0
 10
104.197007482
 20
140.1988567448
 30
0.0
 10
104.0475682059
 20
140.2180916412
 30
0.0
 10
103.8293678168
 20
140.3028548997
 30
0.0
 10
103.616642596
 20
140.4416709129
 30
0.0
 10
103.3260614597
 20
140.7118822606
 30
0.0
 10
102.9909354374
 20
141.1922759994
 30
0.0
 10
102.6534771063
 20
141.9234334615
 30
0.0
 10
102.3714629518
 20
142.8231496461
 30
0.0
 10
102.1582568952
 20
143.8628911778
 30
0.0
 10
102.0250788821
 20
145.004168925
 30
0.0
 10
101.9950801811
 20
145.7954328392
 30
0.0
 10
101.9950843243
 20
146.1990109727
 30
0.0
  0
LINE
  5
2D3
100
AcDbEntity
  8
RUNDUNGEN
100
AcDbLine
 62
7
  6
CONTINUOUS
 10
72.7631031259
 20
150.1988914133
 11
68.767578125
 21
150.198660298
  0
SPLINE
  5
2D4
100
AcDbEntity
  8
RUNDUNGEN
100
AcDbSpline
 62
7
  6
CONTINUOUS
 70
0
 71
3
 72
9
 73
5
 74
0
 42
0.0000001
 43
0.0000001
 44
0.0000000001
 40
0.0
 40
0.0
 40
0.0
 40
0.0
 40
0.4738492237
 40
1.0
 40
1.0
 40
1.0
 40
1.0
 10
93.7953887568
 20
152.1988568041
 30
0.0
 10
93.7693698224
 20
152.1988568041
 30
0.0
 10
93.7141291026
 20
152.1881845054
 30
0.0
 10
93.6659344128
 20
152.1601414377
 30
0.0
 10
93.6427519366
 20
152.1429004677
 30
0.0
  0
SPLINE
  5
2D5
100
AcDbEntity
  8
RUNDUNGEN
100
AcDbSpline
 62
7
  6
CONTINUOUS
 70
0
 71
3
 72
9
 73
5
 74
0
 42
0.0000001
 43
0.0000001
 44
0.0000000001
 40
0.0
 40
0.0
 40
0.0
 40
0.0
 40
0.2402884399
 40
1.0
 40
1.0
 40
1.0
 40
1.0
 10
93.6427519366
 20
152.1429004677
 30
0.0
 10
93.638645086
 20
152.1398461741
 30
0.0
 10
93.6218140977
 20
152.1267862531
 30
0.0
 10
93.6060195398
 20
152.1124120355
 30
0.0
 10
93.594577341
 20
152.1009698367
 30
0.0
  0
SPLINE
  5
2D6
100
AcDbEntity
  8
RUNDUNGEN
100
AcDbSpline
 62
7
  6
CONTINUOUS
 70
0
 71
3
 72
9
 73
5
 74
0
 42
0.0000001
 43
0.0000001
 44
0.0000000001
 40
0.0
 40
0.0
 40
0.0
 40
0.0
 40
0.5415508361
 40
1.0
 40
1.0
 40
1.0
 40
1.0
 10
93.594577341
 20
140.2967437715
 30
0.0
 10
93.6236653295
 20
140.2676557829
 30
0.0
 10
93.684145422
 20
140.2192127729
 30
0.0
 10
93.7605645974
 20
140.1988568041
 30
0.0
 10
93.7953887568
 20
140.1988568041
 30
0.0
  0
SPLINE
  5
2D7
100
AcDbEntity
  8
RUNDUNGEN
100
AcDbSpline
 62
7
  6
CONTINUOUS
 70
0
 71
3
 72
13
 73
9
 74
0
 42
0.0000001
 43
0.0000001
 44
0.0000000001
 40
0.0
 40
0.0
 40
0.0
 40
0.0
 40
0.0901067855
 40
0.1926177534
 40
0.3068240647
 40
0.4315714755
 40
0.7060675369
 40
1.0
 40
1.0
 40
1.0
 40
1.0
 10
102.147330338
 20
140.1988568041
 30
0.0
 10
102.059422033
 20
140.3613389663
 30
0.0
 10
101.8932638099
 20
140.7205421406
 30
0.0
 10
101.6812692364
 20
141.3134153134
 30
0.0
 10
101.4938276285
 20
141.9884969109
 30
0.0
 10
101.2746768181
 20
143.0186474261
 30
0.0
 10
101.0923339696
 20
144.4304841606
 30
0.0
 10
101.0440222957
 20
145.5964121818
 30
0.0
 10
101.0440278099
 20
146.1990377197
 30
0.0
  0
SPLINE
  5
2D8
100
AcDbEntity
  8
RUNDUNGEN
100
AcDbSpline
 62
7
  6
CONTINUOUS
 70
0
 71
3
 72
13
 73
9
 74
0
 42
0.0000001
 43
0.0000001
 44
0.0000000001
 40
0.0
 40
0.0
 40
0.0
 40
0.0
 40
0.2939335642
 40
0.5684287659
 40
0.6931756479
 40
0.8073816491
 40
0.9098926801
 40
1.0
 40
1.0
 40
1.0
 40
1.0
 10
101.0440278099
 20
146.1990377197
 30
0.0
 10
101.0440323992
 20
146.801630087
 30
0.0
 10
101.0923582497
 20
147.9674892281
 30
0.0
 10
101.2747071324
 20
149.3792400791
 30
0.0
 10
101.4938546467
 20
150.4093244062
 30
0.0
 10
101.6812905164
 20
151.0843631659
 30
0.0
 10
101.8932765977
 20
151.6772006565
 30
0.0
 10
102.0594266788
 20
152.0363832312
 30
0.0
 10
102.147330338
 20
152.1988568041
 30
0.0
  0
SPLINE
  5
2D9
100
AcDbEntity
  8
RUNDUNGEN
100
AcDbSpline
 62
7
  6
CONTINUOUS
 70
0
 71
3
 72
9
 73
5
 74
0
 42
0.0000001
 43
0.0000001
 44
0.0000000001
 40
0.0
 40
0.0
 40
0.0
 40
0.0
 40
0.5496547909
 40
1.0
 40
1.0
 40
1.0
 40
1.0
 10
93.4432786914
 20
152.0453462477
 30
0.0
 10
93.4813854273
 20
152.0901655716
 30
0.0
 10
93.5608244727
 20
152.1654814366
 30
0.0
 10
93.6683666613
 20
152.1988567669
 30
0.0
 10
93.7165669621
 20
152.1988568041
 30
0.0
  0
LINE
  5
2DA
100
AcDbEntity
  8
RUNDUNGEN
100
AcDbLine
 62
7
  6
CONTINUOUS
 10
82.3724643084
 20
150.1988568041
 11
80.5460670861
 21
152.121380196
  0
SPLINE
  5
2DB
100
AcDbEntity
  8
RUNDUNGEN
100
AcDbSpline
 62
7
  6
CONTINUOUS
 70
0
 71
3
 72
9
 73
5
 74
0
 42
0.0000001
 43
0.0000001
 44
0.0000000001
 40
0.0
 40
0.0
 40
0.0
 40
0.0
 40
0.5467330299
 40
1.0
 40
1.0
 40
1.0
 40
1.0
 10
80.5460670861
 20
152.121380196
 30
0.0
 10
80.5244040322
 20
152.1441834655
 30
0.0
 10
80.4797825916
 20
152.1823011915
 30
0.0
 10
80.4219711848
 20
152.1988568872
 30
0.0
 10
80.3958953802
 20
152.1988568041
 30
0.0
  0
SPLINE
  5
2DC
100
AcDbEntity
  8
RUNDUNGEN
100
AcDbSpline
 62
7
  6
CONTINUOUS
 70
0
 71
3
 72
11
 73
7
 74
0
 42
0.0000001
 43
0.0000001
 44
0.0000000001
 40
0.0
 40
0.0
 40
0.0
 40
0.0
 40
0.1423904536
 40
0.2964896814
 40
0.5770886988
 40
1.0
 40
1.0
 40
1.0
 40
1.0
 10
89.7026107904
 20
152.1988568027
 30
0.0
 10
89.6975126606
 20
152.1988561632
 30
0.0
 10
89.684400781
 20
152.195226629
 30
0.0
 10
89.687949842
 20
152.170655794
 30
0.0
 10
89.702539028
 20
152.1453263077
 30
0.0
 10
89.7169678438
 20
152.1239963542
 30
0.0
 10
89.7259824737
 20
152.1118303169
 30
0.0
  0
SPLINE
  5
2DD
100
AcDbEntity
  8
RUNDUNGEN
100
AcDbSpline
 62
7
  6
CONTINUOUS
 70
0
 71
3
 72
24
 73
20
 74
0
 42
0.0000001
 43
0.0000001
 44
0.0000000001
 40
0.0
 40
0.0
 40
0.0
 40
0.0
 40
0.0311852081
 40
0.0711797108
 40
0.1716122745
 40
0.2910441939
 40
0.4226700796
 40
0.4915837244
 40
0.5620035756
 40
0.633606392
 40
0.7061142424
 40
0.7426286395
 40
0.7792773519
 40
0.8160329664
 40
0.8528796184
 40
0.8896599777
 40
0.926415853
 40
0.9632462474
 40
1.0
 40
1.0
 40
1.0
 40
1.0
 10
89.7259824737
 20
152.1118303169
 30
0.0
 10
89.7438008137
 20
152.0877828975
 30
0.0
 10
89.7872946489
 20
152.0350196842
 30
0.0
 10
89.8971084857
 20
151.9122665161
 30
0.0
 10
90.0704912232
 20
151.7329010854
 30
0.0
 10
90.3087366888
 20
151.4940944098
 30
0.0
 10
90.5289432719
 20
151.2800365504
 30
0.0
 10
90.7165771406
 20
151.0999860801
 30
0.0
 10
90.8633584489
 20
150.9605623466
 30
0.0
 10
91.0137694309
 20
150.8199613739
 30
0.0
 10
91.1423111586
 20
150.7036224283
 30
0.0
 10
91.2482188419
 20
150.6123475167
 30
0.0
 10
91.3298568061
 20
150.5455015608
 30
0.0
 10
91.4151221656
 20
150.4827151148
 30
0.0
 10
91.5057319087
 20
150.4274407176
 30
0.0
 10
91.6114352651
 20
150.3989099171
 30
0.0
 10
91.7175518745
 20
150.4262865167
 30
0.0
 10
91.8080716407
 20
150.4817614589
 30
0.0
 10
91.8648152736
 20
150.5238866596
 30
0.0
 10
91.8925314739
 20
150.5457052301
 30
0.0
  0
SPLINE
  5
2DE
100
AcDbEntity
  8
RUNDUNGEN
100
AcDbSpline
 62
7
  6
CONTINUOUS
 70
0
 71
3
 72
9
 73
5
 74
0
 42
0.0000001
 43
0.0000001
 44
0.0000000001
 40
0.0
 40
0.0
 40
0.0
 40
0.0
 40
0.4532669957
 40
1.0
 40
1.0
 40
1.0
 40
1.0
 10
80.3958953802
 20
140.1988568041
 30
0.0
 10
80.4219711864
 20
140.198856536
 30
0.0
 10
80.4797826221
 20
140.2154124989
 30
0.0
 10
80.5244039684
 20
140.2535302051
 30
0.0
 10
80.5460670861
 20
140.2763334122
 30
0.0
  0
LINE
  5
2DF
100
AcDbEntity
  8
RUNDUNGEN
100
AcDbLine
 62
7
  6
CONTINUOUS
 10
80.5460670861
 20
140.2763334122
 11
82.3724643084
 21
142.1988568041
  0
SPLINE
  5
2E0
100
AcDbEntity
  8
RUNDUNGEN
100
AcDbSpline
 62
7
  6
CONTINUOUS
 70
0
 71
3
 72
19
 73
15
 74
0
 42
0.0000001
 43
0.0000001
 44
0.0000000001
 40
0.0
 40
0.0
 40
0.0
 40
0.0
 40
0.0740302233
 40
0.1477652661
 40
0.2209693495
 40
0.2936063148
 40
0.4370056733
 40
0.5772962137
 40
0.7123830373
 40
0.8370063054
 40
0.8918762751
 40
0.9386582574
 40
0.9749399323
 40
1.0
 40
1.0
 40
1.0
 40
1.0
 10
72.7631031639
 20
142.1988221828
 30
0.0
 10
72.8316365587
 20
142.1988248898
 30
0.0
 10
72.9689414346
 20
142.1693871455
 30
0.0
 10
73.1491206944
 20
142.0694787341
 30
0.0
 10
73.3075904823
 20
141.941135422
 30
0.0
 10
73.4958132488
 20
141.7502214037
 30
0.0
 10
73.7015722471
 20
141.4915559282
 30
0.0
 10
73.9236654047
 20
141.1737750204
 30
0.0
 10
74.1305266929
 20
140.8667446564
 30
0.0
 10
74.2998150868
 20
140.6293617626
 30
0.0
 10
74.4350787751
 20
140.4693501839
 30
0.0
 10
74.526550935
 20
140.3794505875
 30
0.0
 10
74.6071036902
 20
140.3204117258
 30
0.0
 10
74.6624285784
 20
140.2989470647
 30
0.0
 10
74.6856279075
 20
140.2989466843
 30
0.0
  0
SPLINE
  5
2E1
100
AcDbEntity
  8
RUNDUNGEN
100
AcDbSpline
 62
7
  6
CONTINUOUS
 70
0
 71
3
 72
9
 73
5
 74
0
 42
0.0000001
 43
0.0000001
 44
0.0000000001
 40
0.0
 40
0.0
 40
0.0
 40
0.0
 40
0.7344476217
 40
1.0
 40
1.0
 40
1.0
 40
1.0
 10
74.6856278997
 20
152.0987667638
 30
0.0
 10
74.679638367
 20
152.0987666542
 30
0.0
 10
74.6714691044
 20
152.0978696534
 30
0.0
 10
74.6634984339
 20
152.0961527972
 30
0.0
 10
74.6613929852
 20
152.0956458485
 30
0.0
  0
SPLINE
  5
2E2
100
AcDbEntity
  8
RUNDUNGEN
100
AcDbSpline
 62
7
  6
CONTINUOUS
 70
0
 71
3
 72
9
 73
5
 74
0
 42
0.0000001
 43
0.0000001
 44
0.0000000001
 40
0.0
 40
0.0
 40
0.0
 40
0.0
 40
0.2276458686
 40
1.0
 40
1.0
 40
1.0
 40
1.0
 10
74.6613929852
 20
152.0956458485
 30
0.0
 10
74.6580088143
 20
152.0948310099
 30
0.0
 10
74.6432820951
 20
152.0906716425
 30
0.0
 10
74.6291793932
 20
152.0845064412
 30
0.0
 10
74.6186617555
 20
152.0791349144
 30
0.0
  0
SPLINE
  5
2E3
100
AcDbEntity
  8
RUNDUNGEN
100
AcDbSpline
 62
7
  6
CONTINUOUS
 70
0
 71
3
 72
18
 73
14
 74
0
 42
0.0000001
 43
0.0000001
 44
0.0000000001
 40
0.0
 40
0.0
 40
0.0
 40
0.0
 40
0.0345794576
 40
0.0787341791
 40
0.1875746559
 40
0.3118145598
 40
0.4434491871
 40
0.5791139224
 40
0.7173742981
 40
0.7873365124
 40
0.8578127147
 40
0.9287700491
 40
1.0
 40
1.0
 40
1.0
 40
1.0
 10
74.6186617555
 20
152.0791349144
 30
0.0
 10
74.5908675343
 20
152.0649399584
 30
0.0
 10
74.5326260081
 20
152.0231157392
 30
0.0
 10
74.4105135509
 20
151.9056130588
 30
0.0
 10
74.2551379881
 20
151.7083842322
 30
0.0
 10
74.0676136817
 20
151.4380620089
 30
0.0
 10
73.8698662832
 20
151.145106326
 30
0.0
 10
73.657143247
 20
150.8472219831
 30
0.0
 10
73.459513662
 20
150.6070011577
 30
0.0
 10
73.2789579608
 20
150.4313963719
 30
0.0
 10
73.1274407473
 20
150.3144187682
 30
0.0
 10
72.9562206666
 20
150.2247100786
 30
0.0
 10
72.8273907542
 20
150.1988893701
 30
0.0
 10
72.7631031259
 20
150.1988913583
 30
0.0
  0
LINE
  5
2E4
100
AcDbEntity
  8
RUNDUNGEN
100
AcDbLine
 62
7
  6
CONTINUOUS
 10
68.767578125
 20
142.1990534456
 11
72.7631031639
 21
142.1988221296
  0
SPLINE
  5
2E5
100
AcDbEntity
  8
RUNDUNGEN
100
AcDbSpline
 62
7
  6
CONTINUOUS
 70
0
 71
3
 72
8
 73
4
 74
0
 42
0.0000001
 43
0.0000001
 44
0.0000000001
 40
0.0
 40
0.0
 40
0.0
 40
0.0
 40
1.0
 40
1.0
 40
1.0
 40
1.0
 10
90.5789254398
 20
197.3883830103
 30
0.0
 10
90.5789565186
 20
197.3866245869
 30
0.0
 10
90.5795261273
 20
197.3848622758
 30
0.0
 10
90.5803268691
 20
197.3832964434
 30
0.0
  0
SPLINE
  5
2E6
100
AcDbEntity
  8
RUNDUNGEN
100
AcDbSpline
 62
7
  6
CONTINUOUS
 70
0
 71
3
 72
13
 73
9
 74
0
 42
0.0000001
 43
0.0000001
 44
0.0000000001
 40
0.0
 40
0.0
 40
0.0
 40
0.0
 40
0.0452019763
 40
0.114223197
 40
0.2078017893
 40
0.3230701351
 40
0.6170995821
 40
1.0
 40
1.0
 40
1.0
 40
1.0
 10
90.5803268691
 20
197.3832964434
 30
0.0
 10
90.5823411801
 20
197.379357504
 30
0.0
 10
90.590566911
 20
197.37128771
 30
0.0
 10
90.6072765848
 20
197.3598711882
 30
0.0
 10
90.6310434434
 20
197.346448566
 30
0.0
 10
90.6769704609
 20
197.3281935486
 30
0.0
 10
90.7544069155
 20
197.3174803135
 30
0.0
 10
90.8200936471
 20
197.3105231573
 30
0.0
 10
90.8573993412
 20
197.3069540133
 30
0.0
  0
SPLINE
  5
2E7
100
AcDbEntity
  8
RUNDUNGEN
100
AcDbSpline
 62
7
  6
CONTINUOUS
 70
0
 71
3
 72
27
 73
23
 74
0
 42
0.0000001
 43
0.0000001
 44
0.0000000001
 40
0.0
 40
0.0
 40
0.0
 40
0.0
 40
0.0561410604
 40
0.1185376975
 40
0.1861845911
 40
0.2579825265
 40
0.332747094
 40
0.3708345019
 40
0.4091731392
 40
0.4476112578
 40
0.4859832881
 40
0.5241276387
 40
0.5618891069
 40
0.5991104553
 40
0.6356257652
 40
0.7059152808
 40
0.7717390347
 40
0.8321144575
 40
0.8858889896
 40
0.9320073601
 40
0.9698511186
 40
1.0
 40
1.0
 40
1.0
 40
1.0
 10
90.8573993412
 20
197.3069540133
 30
0.0
 10
90.8899583731
 20
197.3038389962
 30
0.0
 10
90.9587617353
 20
197.2976729408
 30
0.0
 10
91.0670936792
 20
197.292389873
 30
0.0
 10
91.184541369
 20
197.2848528891
 30
0.0
 10
91.3093754811
 20
197.2898483842
 30
0.0
 10
91.416933248
 20
197.2860362887
 30
0.0
 10
91.5050232627
 20
197.2882702971
 30
0.0
 10
91.5717995566
 20
197.2927286643
 30
0.0
 10
91.6387104832
 20
197.2976230486
 30
0.0
 10
91.7056297537
 20
197.3004032837
 30
0.0
 10
91.7721365227
 20
197.3035636909
 30
0.0
 10
91.8378637919
 20
197.308494135
 30
0.0
 10
91.9026220899
 20
197.3136135248
 30
0.0
 10
91.9863588529
 20
197.3189071097
 30
0.0
 10
92.0866838505
 20
197.3267696419
 30
0.0
 10
92.1998929165
 20
197.3442687979
 30
0.0
 10
92.3028443986
 20
197.3641589081
 30
0.0
 10
92.3947516484
 20
197.3805299886
 30
0.0
 10
92.4742125094
 20
197.3923755296
 30
0.0
 10
92.539527391
 20
197.403368849
 30
0.0
 10
92.5780102854
 20
197.415961508
 30
0.0
 10
92.5927172437
 20
197.4255648375
 30
0.0
  0
SPLINE
  5
2E8
100
AcDbEntity
  8
RUNDUNGEN
100
AcDbSpline
 62
7
  6
CONTINUOUS
 70
0
 71
3
 72
9
 73
5
 74
0
 42
0.0000001
 43
0.0000001
 44
0.0000000001
 40
0.0
 40
0.0
 40
0.0
 40
0.0
 40
0.4999999897
 40
1.0
 40
1.0
 40
1.0
 40
1.0
 10
80.4499465293
 20
140.372459582
 30
0.0
 10
80.4517738126
 20
140.3484227011
 30
0.0
 10
80.4741718924
 20
140.3005642988
 30
0.0
 10
80.5220302068
 20
140.2781657841
 30
0.0
 10
80.5460670863
 20
140.2763384694
 30
0.0
  0
SPLINE
  5
2E9
100
AcDbEntity
  8
RUNDUNGEN
100
AcDbSpline
 62
7
  6
CONTINUOUS
 70
0
 71
3
 72
9
 73
5
 74
0
 42
0.0000001
 43
0.0000001
 44
0.0000000001
 40
0.0
 40
0.0
 40
0.0
 40
0.0
 40
0.5069819248
 40
1.0
 40
1.0
 40
1.0
 40
1.0
 10
80.2997692106
 20
140.2988568041
 30
0.0
 10
80.2997692407
 20
140.273486922
 30
0.0
 10
80.3193502255
 20
140.2211596826
 30
0.0
 10
80.3712242632
 20
140.1988569305
 30
0.0
 10
80.3958953802
 20
140.1988569305
 30
0.0
  0
SPLINE
  5
2EA
100
AcDbEntity
  8
RUNDUNGEN
100
AcDbSpline
 62
7
  6
CONTINUOUS
 70
0
 71
3
 72
9
 73
5
 74
0
 42
0.0000001
 43
0.0000001
 44
0.0000000001
 40
0.0
 40
0.0
 40
0.0
 40
0.0
 40
0.5069819276
 40
1.0
 40
1.0
 40
1.0
 40
1.0
 10
74.6856276274
 20
140.298946723
 30
0.0
 10
74.6856276274
 20
140.2735540087
 30
0.0
 10
74.7052261879
 20
140.2211796499
 30
0.0
 10
74.7571469124
 20
140.1988568041
 30
0.0
 10
74.7818402325
 20
140.1988568041
 30
0.0
  0
SPLINE
  5
2EB
100
AcDbEntity
  8
RUNDUNGEN
100
AcDbSpline
 62
7
  6
CONTINUOUS
 70
0
 71
3
 72
9
 73
5
 74
0
 42
0.0000001
 43
0.0000001
 44
0.0000000001
 40
0.0
 40
0.0
 40
0.0
 40
0.0
 40
0.506981842
 40
1.0
 40
1.0
 40
1.0
 40
1.0
 10
74.6856276274
 20
152.0987667262
 30
0.0
 10
74.6856276152
 20
152.1241594784
 30
0.0
 10
74.7052262007
 20
152.1765339367
 30
0.0
 10
74.7571470199
 20
152.1988568041
 30
0.0
 10
74.7818403854
 20
152.1988568041
 30
0.0
  0
SPLINE
  5
2EC
100
AcDbEntity
  8
RUNDUNGEN
100
AcDbSpline
 62
7
  6
CONTINUOUS
 70
0
 71
3
 72
9
 73
5
 74
0
 42
0.0000001
 43
0.0000001
 44
0.0000000001
 40
0.0
 40
0.0
 40
0.0
 40
0.0
 40
0.5069819274
 40
1.0
 40
1.0
 40
1.0
 40
1.0
 10
80.2997692106
 20
152.0988568041
 30
0.0
 10
80.2997692106
 20
152.124226706
 30
0.0
 10
80.3193501642
 20
152.1765540127
 30
0.0
 10
80.3712242441
 20
152.1988568041
 30
0.0
 10
80.3958953802
 20
152.1988568041
 30
0.0
  0
SPLINE
  5
2ED
100
AcDbEntity
  8
RUNDUNGEN
100
AcDbSpline
 62
7
  6
CONTINUOUS
 70
0
 71
3
 72
9
 73
5
 74
0
 42
0.0000001
 43
0.0000001
 44
0.0000000001
 40
0.0
 40
0.0
 40
0.0
 40
0.0
 40
0.5000000131
 40
1.0
 40
1.0
 40
1.0
 40
1.0
 10
80.4499409165
 20
152.0252540264
 30
0.0
 10
80.4517672857
 20
152.0492924895
 30
0.0
 10
80.4741662785
 20
152.0971548102
 30
0.0
 10
80.5220286222
 20
152.1195537553
 30
0.0
 10
80.5460670861
 20
152.1213800987
 30
0.0
  0
SPLINE
  5
2EE
100
AcDbEntity
  8
RUNDUNGEN
100
AcDbSpline
 62
7
  6
CONTINUOUS
 70
0
 71
3
 72
39
 73
35
 74
0
 42
0.0000001
 43
0.0000001
 44
0.0000000001
 40
0.0
 40
0.0
 40
0.0
 40
0.0
 40
0.0072947511
 40
0.0197963532
 40
0.0370815336
 40
0.0584840733
 40
0.0833144695
 40
0.1109444697
 40
0.1725878115
 40
0.2403404054
 40
0.2758110869
 40
0.3120815249
 40
0.3489976364
 40
0.3864281697
 40
0.4242538421
 40
0.4432821041
 40
0.4623711814
 40
0.4815075163
 40
0.4910991933
 40
0.5007136086
 40
0.5198099336
 40
0.538932147
 40
0.5580957846
 40
0.5772220736
 40
0.5962953903
 40
0.6153044419
 40
0.6530814342
 40
0.6904514575
 40
0.7272973513
 40
0.7634814668
 40
0.8331614048
 40
0.8977800985
 40
0.9547028007
 40
1.0
 40
1.0
 40
1.0
 40
1.0
 10
89.8862969545
 20
152.3826886299
 30
0.0
 10
89.886280245
 20
152.3703083883
 30
0.0
 10
89.9002580877
 20
152.3382046299
 30
0.0
 10
89.9313328266
 20
152.284356745
 30
0.0
 10
89.9803952063
 20
152.2121710431
 30
0.0
 10
90.0436609182
 20
152.1250487005
 30
0.0
 10
90.1198464938
 20
152.0254288814
 30
0.0
 10
90.2398248133
 20
151.8734432318
 30
0.0
 10
90.4076508356
 20
151.6664030112
 30
0.0
 10
90.5865669839
 20
151.4512740835
 30
0.0
 10
90.7395645052
 20
151.2706121502
 30
0.0
 10
90.8592907563
 20
151.1303561708
 30
0.0
 10
90.9818864171
 20
150.9881782737
 30
0.0
 10
91.1073435119
 20
150.8449884252
 30
0.0
 10
91.2149790892
 20
150.726558831
 30
0.0
 10
91.3041616704
 20
150.6334912801
 30
0.0
 10
91.373453205
 20
150.5653532882
 30
0.0
 10
91.43420972
 20
150.5114227303
 30
0.0
 10
91.4867271516
 20
150.4727976412
 30
0.0
 10
91.5421513965
 20
150.4390880051
 30
0.0
 10
91.6254492899
 20
150.4175334357
 30
0.0
 10
91.7194703897
 20
150.4564849513
 30
0.0
 10
91.7961793898
 20
150.5162215931
 30
0.0
 10
91.8677607988
 20
150.5824514322
 30
0.0
 10
91.9358715353
 20
150.6516266454
 30
0.0
 10
92.0240633475
 20
150.745441077
 30
0.0
 10
92.1310928153
 20
150.8641088681
 30
0.0
 10
92.2566550997
 20
151.0068005889
 30
0.0
 10
92.3792680979
 20
151.1484779971
 30
0.0
 10
92.5361924715
 20
151.3329683016
 30
0.0
 10
92.7219473344
 20
151.554797374
 30
0.0
 10
92.9285191577
 20
151.805124048
 30
0.0
 10
93.1045078772
 20
152.0269114858
 30
0.0
 10
93.2093883428
 20
152.1652294941
 30
0.0
 10
93.2530735482
 20
152.2284869962
 30
0.0
  0
SPLINE
  5
2EF
100
AcDbEntity
  8
RUNDUNGEN
100
AcDbSpline
 62
7
  6
CONTINUOUS
 70
0
 71
3
 72
9
 73
5
 74
0
 42
0.0000001
 43
0.0000001
 44
0.0000000001
 40
0.0
 40
0.0
 40
0.0
 40
0.0
 40
0.2850976981
 40
1.0
 40
1.0
 40
1.0
 40
1.0
 10
80.4499409165
 20
152.0252540264
 30
0.0
 10
80.4397750675
 20
152.0354199295
 30
0.0
 10
80.4024910171
 20
152.0690783989
 30
0.0
 10
80.3545744167
 20
152.0933391182
 30
0.0
 10
80.3187883488
 20
152.0976985758
 30
0.0
  0
LINE
  5
2F0
100
AcDbEntity
  8
RUNDUNGEN
100
AcDbLine
 62
7
  6
CONTINUOUS
 10
80.2997692106
 20
152.0988568041
 11
74.7818413643
 21
152.0987668047
  0
LINE
  5
2F1
100
AcDbEntity
  8
RUNDUNGEN
100
AcDbLine
 62
7
  6
CONTINUOUS
 10
74.7818413643
 20
152.0987668047
 11
74.6856278997
 21
152.0987667262
  0
SPLINE
  5
2F2
100
AcDbEntity
  8
RUNDUNGEN
100
AcDbSpline
 62
7
  6
CONTINUOUS
 70
0
 71
3
 72
17
 73
13
 74
0
 42
0.0000001
 43
0.0000001
 44
0.0000000001
 40
0.0
 40
0.0
 40
0.0
 40
0.0
 40
0.1773399805
 40
0.3475405859
 40
0.5043573136
 40
0.6430814521
 40
0.760895614
 40
0.8571871541
 40
0.8979619778
 40
0.9345959352
 40
0.9681355274
 40
1.0
 40
1.0
 40
1.0
 40
1.0
 10
101.9950843243
 20
146.1990109727
 30
0.0
 10
101.9950880318
 20
146.6025744309
 30
0.0
 10
102.0250998672
 20
147.3938059707
 30
0.0
 10
102.1582913387
 20
148.535032376
 30
0.0
 10
102.3715040794
 20
149.5747203449
 30
0.0
 10
102.6535187116
 20
150.4743861205
 30
0.0
 10
102.990972415
 20
151.2055005536
 30
0.0
 10
103.3260906646
 20
151.6858644373
 30
0.0
 10
103.6166632325
 20
151.9560583651
 30
0.0
 10
103.8293821048
 20
152.0948655313
 30
0.0
 10
104.0475755752
 20
152.1796232579
 30
0.0
 10
104.1970098033
 20
152.198856864
 30
0.0
 10
104.2695221421
 20
152.1988568041
 30
0.0
  0
LINE
  5
2F3
100
AcDbEntity
  8
RUNDUNGEN
100
AcDbLine
 62
7
  6
CONTINUOUS
 10
74.6856279075
 20
140.298946723
 11
74.7818412095
 21
140.2989466446
  0
LINE
  5
2F4
100
AcDbEntity
  8
RUNDUNGEN
100
AcDbLine
 62
7
  6
CONTINUOUS
 10
74.7818412095
 20
140.2989466446
 11
80.2997692106
 21
140.2988568041
  0
SPLINE
  5
2F5
100
AcDbEntity
  8
RUNDUNGEN
100
AcDbSpline
 62
7
  6
CONTINUOUS
 70
0
 71
3
 72
9
 73
5
 74
0
 42
0.0000001
 43
0.0000001
 44
0.0000000001
 40
0.0
 40
0.0
 40
0.0
 40
0.0
 40
0.2427547661
 40
1.0
 40
1.0
 40
1.0
 40
1.0
 10
80.2997692106
 20
140.2988568041
 30
0.0
 10
80.3061212482
 20
140.2988566761
 30
0.0
 10
80.3322882522
 20
140.3004384806
 30
0.0
 10
80.357852949
 20
140.3086469038
 30
0.0
 10
80.3756429362
 20
140.3173720658
 30
0.0
  0
SPLINE
  5
2F6
100
AcDbEntity
  8
RUNDUNGEN
100
AcDbSpline
 62
7
  6
CONTINUOUS
 70
0
 71
3
 72
9
 73
5
 74
0
 42
0.0000001
 43
0.0000001
 44
0.0000000001
 40
0.0
 40
0.0
 40
0.0
 40
0.0
 40
0.2310597494
 40
1.0
 40
1.0
 40
1.0
 40
1.0
 10
80.3756429362
 20
140.3173720658
 30
0.0
 10
80.3820558925
 20
140.3205173229
 30
0.0
 10
80.4091150852
 20
140.3355533857
 30
0.0
 10
80.4331328012
 20
140.3556515619
 30
0.0
 10
80.4499409165
 20
140.3724595818
 30
0.0
  0
SPLINE
  5
2F7
100
AcDbEntity
  8
RUNDUNGEN
100
AcDbSpline
 62
7
  6
CONTINUOUS
 70
0
 71
3
 72
11
 73
7
 74
0
 42
0.0000001
 43
0.0000001
 44
0.0000000001
 40
0.0
 40
0.0
 40
0.0
 40
0.0
 40
0.2447424065
 40
0.4927874198
 40
0.7451684895
 40
1.0
 40
1.0
 40
1.0
 40
1.0
 10
93.3116804717
 20
202.1795435198
 30
0.0
 10
93.418522314
 20
202.1572028332
 30
0.0
 10
93.6272797841
 20
202.0724052689
 30
0.0
 10
93.8773997751
 20
201.8438818714
 30
0.0
 10
94.0396719805
 20
201.5417885999
 30
0.0
 10
94.0772308619
 20
201.3138845419
 30
0.0
 10
94.0773795523
 20
201.2002324241
 30
0.0
  0
SPLINE
  5
2F8
100
AcDbEntity
  8
RUNDUNGEN
100
AcDbSpline
 62
7
  6
CONTINUOUS
 70
0
 71
3
 72
12
 73
8
 74
0
 42
0.0000001
 43
0.0000001
 44
0.0000000001
 40
0.0
 40
0.0
 40
0.0
 40
0.0
 40
0.3006744274
 40
0.5935119098
 40
0.8369474357
 40
0.9298353321
 40
1.0
 40
1.0
 40
1.0
 40
1.0
 10
91.3420298768
 20
197.6635409613
 30
0.0
 10
91.4709901618
 20
197.6643216488
 30
0.0
 10
91.7258084419
 20
197.6530658818
 30
0.0
 10
92.0818427131
 20
197.6057650425
 30
0.0
 10
92.3457767744
 20
197.543737046
 30
0.0
 10
92.5079944582
 20
197.4795122326
 30
0.0
 10
92.569339533
 20
197.4445154038
 30
0.0
 10
92.5927179438
 20
197.425564842
 30
0.0
  0
SPLINE
  5
2F9
100
AcDbEntity
  8
RUNDUNGEN
100
AcDbSpline
 62
7
  6
CONTINUOUS
 70
0
 71
3
 72
12
 73
8
 74
0
 42
0.0000001
 43
0.0000001
 44
0.0000000001
 40
0.0
 40
0.0
 40
0.0
 40
0.0
 40
0.3739341248
 40
0.6764400907
 40
0.7929948252
 40
0.8844535927
 40
1.0
 40
1.0
 40
1.0
 40
1.0
 10
91.281129528
 20
197.6635577926
 30
0.0
 10
91.1888569217
 20
197.6641155461
 30
0.0
 10
91.0216793514
 20
197.6587935665
 30
0.0
 10
90.8274621758
 20
197.6346877319
 30
0.0
 10
90.7047512899
 20
197.6005454013
 30
0.0
 10
90.6331643146
 20
197.571128445
 30
0.0
 10
90.5866671465
 20
197.5313055477
 30
0.0
 10
90.5843480192
 20
197.502887074
 30
0.0
  0
SPLINE
  5
2FA
100
AcDbEntity
  8
RUNDUNGEN
100
AcDbSpline
 62
7
  6
CONTINUOUS
 70
0
 71
3
 72
11
 73
7
 74
0
 42
0.0000001
 43
0.0000001
 44
0.0000000001
 40
0.0
 40
0.0
 40
0.0
 40
0.0
 40
0.2442013471
 40
0.4918358901
 40
0.7442565586
 40
1.0
 40
1.0
 40
1.0
 40
1.0
 10
101.9330186193
 20
202.198814241
 30
0.0
 10
102.0565250118
 20
202.1982286345
 30
0.0
 10
102.3079074476
 20
202.144478628
 30
0.0
 10
102.6222980169
 20
201.9201793862
 30
0.0
 10
102.8310602298
 20
201.5891233562
 30
0.0
 10
102.8797161506
 20
201.3295778213
 30
0.0
 10
102.8798884345
 20
201.2002326016
 30
0.0
  0
SPLINE
  5
2FB
100
AcDbEntity
  8
RUNDUNGEN
100
AcDbSpline
 62
7
  6
CONTINUOUS
 70
0
 71
3
 72
9
 73
5
 74
0
 42
0.0000001
 43
0.0000001
 44
0.0000000001
 40
0.0
 40
0.0
 40
0.0
 40
0.0
 40
0.5044779773
 40
1.0
 40
1.0
 40
1.0
 40
1.0
 10
93.4432786911
 20
152.0453377291
 30
0.0
 10
93.3967449816
 20
152.0506468153
 30
0.0
 10
93.3063652925
 20
152.0938803746
 30
0.0
 10
93.2589847253
 20
152.182862989
 30
0.0
 10
93.2530740377
 20
152.2284858234
 30
0.0
  0
SPLINE
  5
2FC
100
AcDbEntity
  8
RUNDUNGEN
100
AcDbSpline
 62
7
  6
CONTINUOUS
 70
0
 71
3
 72
8
 73
4
 74
0
 42
0.0000001
 43
0.0000001
 44
0.0000000001
 40
0.0
 40
0.0
 40
0.0
 40
0.0
 40
1.0
 40
1.0
 40
1.0
 40
1.0
 10
93.7165665683
 20
152.1988568041
 30
0.0
 10
93.683790052
 20
152.1988568041
 30
0.0
 10
93.649984285
 20
152.2085192793
 30
0.0
 10
93.621885803
 20
152.2253945668
 30
0.0
  0
SPLINE
  5
2FD
100
AcDbEntity
  8
RUNDUNGEN
100
AcDbSpline
 62
7
  6
CONTINUOUS
 70
0
 71
3
 72
9
 73
5
 74
0
 42
0.0000001
 43
0.0000001
 44
0.0000000001
 40
0.0
 40
0.0
 40
0.0
 40
0.0
 40
0.4946776126
 40
1.0
 40
1.0
 40
1.0
 40
1.0
 10
93.621885803
 20
152.2253945668
 30
0.0
 10
93.5931612559
 20
152.2426458543
 30
0.0
 10
93.5440652369
 20
152.2943470328
 30
0.0
 10
93.5266126735
 20
152.3630835193
 30
0.0
 10
93.5263609798
 20
152.397310427
 30
0.0
  0
SPLINE
  5
2FE
100
AcDbEntity
  8
RUNDUNGEN
100
AcDbSpline
 62
7
  6
CONTINUOUS
 70
0
 71
3
 72
22
 73
18
 74
0
 42
0.0000001
 43
0.0000001
 44
0.0000000001
 40
0.0
 40
0.0
 40
0.0
 40
0.0
 40
0.1249038353
 40
0.2493515091
 40
0.3114487455
 40
0.3733953368
 40
0.4348576051
 40
0.4651641771
 40
0.4803301387
 40
0.4952197525
 40
0.5260463474
 40
0.5579786278
 40
0.6218221366
 40
0.6853192517
 40
0.7486197579
 40
0.8747131539
 40
1.0
 40
1.0
 40
1.0
 40
1.0
 10
91.2811295047
 20
197.6635578116
 30
0.0
 10
91.2799375616
 20
197.6491600195
 30
0.0
 10
91.2780752883
 20
197.6203509368
 30
0.0
 10
91.2788159211
 20
197.5843039923
 30
0.0
 10
91.2806007709
 20
197.5556045867
 30
0.0
 10
91.2827299251
 20
197.5342809878
 30
0.0
 10
91.2860397997
 20
197.5166532676
 30
0.0
 10
91.2909343425
 20
197.5052775197
 30
0.0
 10
91.2942433739
 20
197.4990705065
 30
0.0
 10
91.3014536103
 20
197.4954238845
 30
0.0
 10
91.3086205881
 20
197.5041230142
 30
0.0
 10
91.315115189
 20
197.5163100699
 30
0.0
 10
91.3212711486
 20
197.534213885
 30
0.0
 10
91.3263789383
 20
197.5555267409
 30
0.0
 10
91.3323010342
 20
197.5842188583
 30
0.0
 10
91.3383859791
 20
197.6201127166
 30
0.0
 10
91.3409554776
 20
197.6491038233
 30
0.0
 10
91.342010552
 20
197.6635567111
 30
0.0
  0
SPLINE
  5
2FF
100
AcDbEntity
  8
RUNDUNGEN
100
AcDbSpline
 62
7
  6
CONTINUOUS
 70
0
 71
3
 72
14
 73
10
 74
0
 42
0.0000001
 43
0.0000001
 44
0.0000000001
 40
0.0
 40
0.0
 40
0.0
 40
0.0
 40
0.3367227085
 40
0.4884397147
 40
0.6254581161
 40
0.7456931987
 40
0.8478781493
 40
0.9319646831
 40
1.0
 40
1.0
 40
1.0
 40
1.0
 10
91.342010552
 20
197.6635567111
 30
0.0
 10
91.3815305741
 20
198.205263196
 30
0.0
 10
91.4739928004
 20
198.9897298847
 30
0.0
 10
91.6822104934
 20
199.9774741087
 30
0.0
 10
91.8635717001
 20
200.6124618458
 30
0.0
 10
92.0712600477
 20
201.1547372606
 30
0.0
 10
92.3014556531
 20
201.5941663989
 30
0.0
 10
92.549453722
 20
201.9235324332
 30
0.0
 10
92.7453908376
 20
202.0795782742
 30
0.0
 10
92.8435608718
 20
202.1286320733
 30
0.0
  0
SPLINE
  5
300
100
AcDbEntity
  8
RUNDUNGEN
100
AcDbSpline
 62
7
  6
CONTINUOUS
 70
0
 71
3
 72
9
 73
5
 74
0
 42
0.0000001
 43
0.0000001
 44
0.0000000001
 40
0.0
 40
0.0
 40
0.0
 40
0.0
 40
0.2610827173
 40
1.0
 40
1.0
 40
1.0
 40
1.0
 10
92.8435608718
 20
202.1286320733
 30
0.0
 10
92.8632801051
 20
202.1384854193
 30
0.0
 10
92.9403368566
 20
202.1730030937
 30
0.0
 10
93.0241494339
 20
202.1931052829
 30
0.0
 10
93.0863863359
 20
202.197457983
 30
0.0
  0
SPLINE
  5
301
100
AcDbEntity
  8
RUNDUNGEN
100
AcDbSpline
 62
7
  6
CONTINUOUS
 70
0
 71
3
 72
17
 73
13
 74
0
 42
0.0000001
 43
0.0000001
 44
0.0000000001
 40
0.0
 40
0.0
 40
0.0
 40
0.0
 40
0.030065272
 40
0.0620068292
 40
0.0973235233
 40
0.1370701282
 40
0.2320100607
 40
0.3489481188
 40
0.4870484164
 40
0.6439130866
 40
0.8162696763
 40
1.0
 40
1.0
 40
1.0
 40
1.0
 10
93.0928246996
 20
202.1988568041
 30
0.0
 10
93.0413130318
 20
202.1988518854
 30
0.0
 10
92.9346128883
 20
202.1840773848
 30
0.0
 10
92.7792709576
 20
202.1195574557
 30
0.0
 10
92.6277594127
 20
202.014348335
 30
0.0
 10
92.4191810762
 20
201.8095390648
 30
0.0
 10
92.1771002891
 20
201.44828262
 30
0.0
 10
91.9263015673
 20
200.9022492703
 30
0.0
 10
91.7048791703
 20
200.230872865
 30
0.0
 10
91.5187284873
 20
199.4514211248
 30
0.0
 10
91.3730376708
 20
198.5841542317
 30
0.0
 10
91.3070622951
 20
197.9772780882
 30
0.0
 10
91.2811295047
 20
197.6635578116
 30
0.0
  0
LINE
  5
302
100
AcDbEntity
  8
RUNDUNGEN
100
AcDbLine
 62
7
  6
CONTINUOUS
 10
94.0773796006
 20
201.2001953285
 11
102.879888473
 21
201.200262352
  0
SPLINE
  5
303
100
AcDbEntity
  8
RUNDUNGEN
100
AcDbSpline
 62
7
  6
CONTINUOUS
 70
0
 71
3
 72
11
 73
7
 74
0
 42
0.0000001
 43
0.0000001
 44
0.0000000001
 40
0.0
 40
0.0
 40
0.0
 40
0.0
 40
0.2439847027
 40
0.4918451084
 40
0.7445176958
 40
1.0
 40
1.0
 40
1.0
 40
1.0
 10
103.1386304528
 20
152.1988454609
 30
0.0
 10
103.1140363069
 20
152.1989323454
 30
0.0
 10
103.0639739417
 20
152.209663557
 30
0.0
 10
103.0010010638
 20
152.2539737979
 30
0.0
 10
102.959314556
 20
152.3199402346
 30
0.0
 10
102.9492225545
 20
152.371557925
 30
0.0
 10
102.9490347619
 20
152.3973105282
 30
0.0
  0
LINE
  5
304
100
AcDbEntity
  8
RUNDUNGEN
100
AcDbLine
 62
7
  6
CONTINUOUS
 10
82.3724643084
 20
150.1988568041
 11
80.4499409165
 21
152.0252540264
  0
SPLINE
  5
305
100
AcDbEntity
  8
RUNDUNGEN
100
AcDbSpline
 62
7
  6
CONTINUOUS
 70
0
 71
3
 72
17
 73
13
 74
0
 42
0.0000001
 43
0.0000001
 44
0.0000000001
 40
0.0
 40
0.0
 40
0.0
 40
0.0
 40
0.1838653991
 40
0.3562622569
 40
0.5130986123
 40
0.6511302511
 40
0.7679863461
 40
0.8628651139
 40
0.902600071
 40
0.9379218843
 40
0.9698882017
 40
1.0
 40
1.0
 40
1.0
 40
1.0
 10
92.5927172437
 20
197.4255648375
 30
0.0
 10
92.6115487192
 20
197.6867759737
 30
0.0
 10
92.6615455256
 20
198.1920694278
 30
0.0
 10
92.7770487417
 20
198.914220485
 30
0.0
 10
92.927847201
 20
199.563085537
 30
0.0
 10
93.1093753833
 20
200.1218236551
 30
0.0
 10
93.3164560682
 20
200.5761121966
 30
0.0
 10
93.5171741971
 20
200.8765715691
 30
0.0
 10
93.6904287964
 20
201.0468551953
 30
0.0
 10
93.8164166477
 20
201.1343291786
 30
0.0
 10
93.945684277
 20
201.1879549413
 30
0.0
 10
94.0344897505
 20
201.2002238267
 30
0.0
 10
94.0773795523
 20
201.2002324241
 30
0.0
  0
SPLINE
  5
306
100
AcDbEntity
  8
RUNDUNGEN
100
AcDbSpline
 62
7
  6
CONTINUOUS
 70
0
 71
3
 72
9
 73
5
 74
0
 42
0.0000001
 43
0.0000001
 44
0.0000000001
 40
0.0
 40
0.0
 40
0.0
 40
0.0
 40
0.24998199
 40
1.0
 40
1.0
 40
1.0
 40
1.0
 10
92.5927172437
 20
197.4255648375
 30
0.0
 10
92.6146575411
 20
193.6590670636
 30
0.0
 10
92.7966103944
 20
178.5926476918
 30
0.0
 10
93.1719610694
 20
163.5289663818
 30
0.0
 10
93.2530728095
 20
152.2284869962
 30
0.0
  0
SPLINE
  5
307
100
AcDbEntity
  8
RUNDUNGEN
100
AcDbSpline
 62
7
  6
CONTINUOUS
 70
0
 71
3
 72
11
 73
7
 74
0
 42
0.0000001
 43
0.0000001
 44
0.0000000001
 40
0.0
 40
0.0
 40
0.0
 40
0.0
 40
0.2974684458
 40
0.5567343982
 40
0.7864876951
 40
1.0
 40
1.0
 40
1.0
 40
1.0
 10
93.2530735511
 20
152.2284865875
 30
0.0
 10
93.273210055
 20
152.2545302977
 30
0.0
 10
93.3140332921
 20
152.3010418483
 30
0.0
 10
93.3824551509
 20
152.355773443
 30
0.0
 10
93.4534113926
 20
152.3895445017
 30
0.0
 10
93.502731874
 20
152.3973103391
 30
0.0
 10
93.5263609798
 20
152.397310427
 30
0.0
  0
SPLINE
  5
308
100
AcDbEntity
  8
RUNDUNGEN
100
AcDbSpline
 62
7
  6
CONTINUOUS
 70
0
 71
3
 72
10
 73
6
 74
0
 42
0.0000001
 43
0.0000001
 44
0.0000000001
 40
0.0
 40
0.0
 40
0.0
 40
0.0
 40
0.2635234301
 40
0.506297636
 40
1.0
 40
1.0
 40
1.0
 40
1.0
 10
93.5263623518
 20
152.3971243315
 30
0.0
 10
94.3540605662
 20
152.3972875345
 30
0.0
 10
95.9442859715
 20
152.3979279064
 30
0.0
 10
99.0851763345
 20
152.3964907831
 30
0.0
 10
101.3983687016
 20
152.3978998046
 30
0.0
 10
102.9490336671
 20
152.3973866877
 30
0.0
  0
SPLINE
  5
309
100
AcDbEntity
  8
RUNDUNGEN
100
AcDbSpline
 62
7
  6
CONTINUOUS
 70
0
 71
3
 72
9
 73
5
 74
0
 42
0.0000001
 43
0.0000001
 44
0.0000000001
 40
0.0
 40
0.0
 40
0.0
 40
0.0
 40
0.2453714686
 40
1.0
 40
1.0
 40
1.0
 40
1.0
 10
102.9490342248
 20
152.3973105239
 30
0.0
 10
102.9694553334
 20
152.3973061397
 30
0.0
 10
103.052664959
 20
152.3934164286
 30
0.0
 10
103.1348822979
 20
152.3735777444
 30
0.0
 10
103.1936965238
 20
152.3515493381
 30
0.0
  0
SPLINE
  5
30A
100
AcDbEntity
  8
RUNDUNGEN
100
AcDbSpline
 62
7
  6
CONTINUOUS
 70
0
 71
3
 72
9
 73
5
 74
0
 42
0.0000001
 43
0.0000001
 44
0.0000000001
 40
0.0
 40
0.0
 40
0.0
 40
0.0
 40
0.2376869114
 40
1.0
 40
1.0
 40
1.0
 40
1.0
 10
103.1936965238
 20
152.3515493381
 30
0.0
 10
103.2136868327
 20
152.3440621249
 30
0.0
 10
103.2965082505
 20
152.3091448055
 30
0.0
 10
103.3735598734
 20
152.2613002408
 30
0.0
 10
103.428406276
 20
152.2203245556
 30
0.0
  0
SPLINE
  5
30B
100
AcDbEntity
  8
RUNDUNGEN
100
AcDbSpline
 62
7
  6
CONTINUOUS
 70
0
 71
3
 72
9
 73
5
 74
0
 42
0.0000001
 43
0.0000001
 44
0.0000000001
 40
0.0
 40
0.0
 40
0.0
 40
0.0
 40
0.2499761514
 40
1.0
 40
1.0
 40
1.0
 40
1.0
 10
103.4667491283
 20
199.8569011551
 30
0.0
 10
103.4786389176
 20
195.8853861682
 30
0.0
 10
103.641899643
 20
179.9982550073
 30
0.0
 10
104.0529357258
 20
164.1146925585
 30
0.0
 10
104.1380946644
 20
152.1988829153
 30
0.0
  0
SPLINE
  5
30C
100
AcDbEntity
  8
RUNDUNGEN
100
AcDbSpline
 62
7
  6
CONTINUOUS
 70
0
 71
3
 72
12
 73
8
 74
0
 42
0.0000001
 43
0.0000001
 44
0.0000000001
 40
0.0
 40
0.0
 40
0.0
 40
0.0
 40
0.3482408665
 40
0.4838963955
 40
0.6388346862
 40
0.8115359096
 40
1.0
 40
1.0
 40
1.0
 40
1.0
 10
102.8798885121
 20
201.2002326017
 30
0.0
 10
103.0133464311
 20
201.2001369565
 30
0.0
 10
103.1574782353
 20
201.0102928455
 30
0.0
 10
103.2561369483
 20
200.7951700425
 30
0.0
 10
103.3169250533
 20
200.6262712154
 30
0.0
 10
103.369524343
 20
200.4360392462
 30
0.0
 10
103.398564325
 20
200.3004869801
 30
0.0
 10
103.4119035684
 20
200.2295035015
 30
0.0
  0
SPLINE
  5
30D
100
AcDbEntity
  8
RUNDUNGEN
100
AcDbSpline
 62
7
  6
CONTINUOUS
 70
0
 71
3
 72
9
 73
5
 74
0
 42
0.0000001
 43
0.0000001
 44
0.0000000001
 40
0.0
 40
0.0
 40
0.0
 40
0.0
 40
0.241887731
 40
1.0
 40
1.0
 40
1.0
 40
1.0
 10
103.4119035684
 20
200.2295035015
 30
0.0
 10
103.417512629
 20
200.1996554344
 30
0.0
 10
103.4393903288
 20
200.0760144054
 30
0.0
 10
103.4563231531
 20
199.9515141925
 30
0.0
 10
103.4667491283
 20
199.8569011551
 30
0.0
  0
SPLINE
  5
30E
100
AcDbEntity
  8
RUNDUNGEN
100
AcDbSpline
 62
7
  6
CONTINUOUS
 70
0
 71
3
 72
9
 73
5
 74
0
 42
0.0000001
 43
0.0000001
 44
0.0000000001
 40
0.0
 40
0.0
 40
0.0
 40
0.0
 40
0.6422612281
 40
1.0
 40
1.0
 40
1.0
 40
1.0
 10
103.4667491283
 20
199.8569011551
 30
0.0
 10
103.476380683
 20
199.8530345125
 30
0.0
 10
103.4918195448
 20
199.8481339643
 30
0.0
 10
103.5077651579
 20
199.8449941346
 30
0.0
 10
103.5131493762
 20
199.8428895236
 30
0.0
  0
SPLINE
  5
30F
100
AcDbEntity
  8
RUNDUNGEN
100
AcDbSpline
 62
7
  6
CONTINUOUS
 70
0
 71
3
 72
9
 73
5
 74
0
 42
0.0000001
 43
0.0000001
 44
0.0000000001
 40
0.0
 40
0.0
 40
0.0
 40
0.0
 40
0.3694588334
 40
1.0
 40
1.0
 40
1.0
 40
1.0
 10
103.5131493762
 20
199.8428895236
 30
0.0
 10
103.5137071112
 20
199.8426715132
 30
0.0
 10
103.515098746
 20
199.8420797539
 30
0.0
 10
103.5169046529
 20
199.8409587251
 30
0.0
 10
103.5169011088
 20
199.8399367318
 30
0.0
  0
SPLINE
  5
310
100
AcDbEntity
  8
RUNDUNGEN
100
AcDbSpline
 62
7
  6
CONTINUOUS
 70
0
 71
3
 72
14
 73
10
 74
0
 42
0.0000001
 43
0.0000001
 44
0.0000000001
 40
0.0
 40
0.0
 40
0.0
 40
0.0
 40
0.1466086045
 40
0.2908953344
 40
0.4315915379
 40
0.5670708567
 40
0.8131486938
 40
0.916588592
 40
1.0
 40
1.0
 40
1.0
 40
1.0
 10
91.8925314739
 20
150.5457052301
 30
0.0
 10
91.9754169417
 20
150.6109537999
 30
0.0
 10
92.1320486487
 20
150.7501175001
 30
0.0
 10
92.3598825855
 20
150.9610246819
 30
0.0
 10
92.5792634514
 20
151.1693806208
 30
0.0
 10
92.8488756684
 20
151.4311078874
 30
0.0
 10
93.0974642833
 20
151.6760892772
 30
0.0
 10
93.3135138581
 20
151.9004750966
 30
0.0
 10
93.4044054342
 20
151.9996219343
 30
0.0
 10
93.4432786914
 20
152.0453462477
 30
0.0
  0
SPLINE
  5
311
100
AcDbEntity
  8
RUNDUNGEN
100
AcDbSpline
 62
7
  6
CONTINUOUS
 70
0
 71
3
 72
11
 73
7
 74
0
 42
0.0000001
 43
0.0000001
 44
0.0000000001
 40
0.0
 40
0.0
 40
0.0
 40
0.0
 40
0.2454305304
 40
0.4937795061
 40
0.7454521219
 40
1.0
 40
1.0
 40
1.0
 40
1.0
 10
219.8263734323
 20
202.0269041071
 30
0.0
 10
220.3274832573
 20
201.8979586488
 30
0.0
 10
221.3038050793
 20
201.4921254535
 30
0.0
 10
222.5474217436
 20
200.5001412322
 30
0.0
 10
223.4918092077
 20
199.197051381
 30
0.0
 10
223.875165811
 20
198.1856427199
 30
0.0
 10
223.9993708142
 20
197.6635578116
 30
0.0
  0
SPLINE
  5
312
100
AcDbEntity
  8
RUNDUNGEN
100
AcDbSpline
 62
7
  6
CONTINUOUS
 70
0
 71
3
 72
12
 73
8
 74
0
 42
0.0000001
 43
0.0000001
 44
0.0000000001
 40
0.0
 40
0.0
 40
0.0
 40
0.0
 40
0.1285350098
 40
0.2258571126
 40
0.3470456945
 40
0.6499289662
 40
1.0
 40
1.0
 40
1.0
 40
1.0
 10
193.8369773293
 20
152.1988568041
 30
0.0
 10
193.8462932699
 20
152.1988567731
 30
0.0
 10
193.8607238667
 20
152.2118135737
 30
0.0
 10
193.8723162247
 20
152.233446853
 30
0.0
 10
193.8855476134
 20
152.2692539889
 30
0.0
 10
193.8957734741
 20
152.3245648094
 30
0.0
 10
193.8987184616
 20
152.3719387791
 30
0.0
 10
193.89877906
 20
152.3973111012
 30
0.0
  0
SPLINE
  5
313
100
AcDbEntity
  8
RUNDUNGEN
100
AcDbSpline
 62
7
  6
CONTINUOUS
 70
0
 71
3
 72
12
 73
8
 74
0
 42
0.0000001
 43
0.0000001
 44
0.0000000001
 40
0.0
 40
0.0
 40
0.0
 40
0.0
 40
0.1285352488
 40
0.2258578558
 40
0.3470468476
 40
0.6499301039
 40
1.0
 40
1.0
 40
1.0
 40
1.0
 10
222.4921051758
 20
152.1988542742
 30
0.0
 10
222.5014212154
 20
152.1988544346
 30
0.0
 10
222.5158516627
 20
152.2118117144
 30
0.0
 10
222.5274439574
 20
152.2334453371
 30
0.0
 10
222.5406752389
 20
152.2692529437
 30
0.0
 10
222.5509010667
 20
152.3245641918
 30
0.0
 10
222.5538461258
 20
152.3719384866
 30
0.0
 10
222.5539068001
 20
152.3973109482
 30
0.0
  0
SPLINE
  5
314
100
AcDbEntity
  8
RUNDUNGEN
100
AcDbSpline
 62
7
  6
CONTINUOUS
 70
0
 71
3
 72
12
 73
8
 74
0
 42
0.0000001
 43
0.0000001
 44
0.0000000001
 40
0.0
 40
0.0
 40
0.0
 40
0.0
 40
0.0310862968
 40
0.0914740325
 40
0.3067969816
 40
0.6256396126
 40
1.0
 40
1.0
 40
1.0
 40
1.0
 10
222.8369773203
 20
152.1987873918
 30
0.0
 10
222.8390818516
 20
152.1987808867
 30
0.0
 10
222.8438580409
 20
152.2044344565
 30
0.0
 10
222.8501603144
 20
152.2233356827
 30
0.0
 10
222.8570352562
 20
152.2639856454
 30
0.0
 10
222.8616978754
 20
152.3249036169
 30
0.0
 10
222.8629417291
 20
152.3719648327
 30
0.0
 10
222.8629695169
 20
152.3973090044
 30
0.0
  0
SPLINE
  5
315
100
AcDbEntity
  8
RUNDUNGEN
100
AcDbSpline
 62
7
  6
CONTINUOUS
 70
0
 71
3
 72
20
 73
16
 74
0
 42
0.0000001
 43
0.0000001
 44
0.0000000001
 40
0.0
 40
0.0
 40
0.0
 40
0.0
 40
0.1299289697
 40
0.2600361611
 40
0.3896987213
 40
0.4217366098
 40
0.4533020541
 40
0.4834603317
 40
0.5058042623
 40
0.5127661782
 40
0.5257050779
 40
0.5539029693
 40
0.6151055725
 40
0.7420071306
 40
1.0
 40
1.0
 40
1.0
 40
1.0
 10
223.9993708142
 20
197.6635578116
 30
0.0
 10
224.002803977
 20
197.6491192069
 30
0.0
 10
224.0097170549
 20
197.6202067723
 30
0.0
 10
224.0209130912
 20
197.5772312752
 30
0.0
 10
224.0294658879
 20
197.5447182938
 30
0.0
 10
224.0356866912
 20
197.5239147199
 30
0.0
 10
224.0390934229
 20
197.5129538745
 30
0.0
 10
224.04189173
 20
197.506420684
 30
0.0
 10
224.0457719214
 20
197.4946775294
 30
0.0
 10
224.0483647477
 20
197.5001530075
 30
0.0
 10
224.0476410352
 20
197.5053942942
 30
0.0
 10
224.0475367139
 20
197.5172711154
 30
0.0
 10
224.04384079
 20
197.5416274471
 30
0.0
 10
224.0354043273
 20
197.5919410968
 30
0.0
 10
224.0260556627
 20
197.6349073613
 30
0.0
 10
224.0191525569
 20
197.6635567111
 30
0.0
  0
SPLINE
  5
316
100
AcDbEntity
  8
RUNDUNGEN
100
AcDbSpline
 62
7
  6
CONTINUOUS
 70
0
 71
3
 72
11
 73
7
 74
0
 42
0.0000001
 43
0.0000001
 44
0.0000000001
 40
0.0
 40
0.0
 40
0.0
 40
0.0
 40
0.2541746039
 40
0.5058084041
 40
0.754367226
 40
1.0
 40
1.0
 40
1.0
 40
1.0
 10
224.0191525569
 20
197.6635567111
 30
0.0
 10
223.9038732613
 20
198.1418037443
 30
0.0
 10
223.5607660686
 20
199.0703333276
 30
0.0
 10
222.734862197
 20
200.2912576064
 30
0.0
 10
221.6489265702
 20
201.2641302904
 30
0.0
 10
220.7882970444
 20
201.7090458581
 30
0.0
 10
220.3413541528
 20
201.8710918194
 30
0.0
  0
LINE
  5
317
100
AcDbEntity
  8
RUNDUNGEN
100
AcDbLine
 62
7
  6
CONTINUOUS
 10
222.8645410649
 20
152.0988568041
 11
222.8369776097
 21
152.0988568036
  0
LINE
  5
318
100
AcDbEntity
  8
RUNDUNGEN
100
AcDbLine
 62
7
  6
CONTINUOUS
 10
222.8369776097
 20
152.0988568036
 11
203.2857035675
 21
152.0987667262
  0
SPLINE
  5
319
100
AcDbEntity
  8
RUNDUNGEN
100
AcDbSpline
 62
7
  6
CONTINUOUS
 70
0
 71
3
 72
10
 73
6
 74
0
 42
0.0000001
 43
0.0000001
 44
0.0000000001
 40
0.0
 40
0.0
 40
0.0
 40
0.0
 40
0.1090259561
 40
0.3040044154
 40
1.0
 40
1.0
 40
1.0
 40
1.0
 10
188.6312551869
 20
200.1675793525
 30
0.0
 10
188.6297401582
 20
200.1631554278
 30
0.0
 10
188.6356199332
 20
200.149291377
 30
0.0
 10
188.6675424089
 20
200.1217983356
 30
0.0
 10
188.7009809763
 20
200.1017740498
 30
0.0
 10
188.7271368008
 20
200.0873871823
 30
0.0
  0
SPLINE
  5
31A
100
AcDbEntity
  8
RUNDUNGEN
100
AcDbSpline
 62
7
  6
CONTINUOUS
 70
0
 71
3
 72
9
 73
5
 74
0
 42
0.0000001
 43
0.0000001
 44
0.0000000001
 40
0.0
 40
0.0
 40
0.0
 40
0.0
 40
0.4191764188
 40
1.0
 40
1.0
 40
1.0
 40
1.0
 10
188.7271368008
 20
200.0873871823
 30
0.0
 10
188.7995579357
 20
200.0475523348
 30
0.0
 10
188.9801660636
 20
199.9673364664
 30
0.0
 10
189.1639751322
 20
199.8961222535
 30
0.0
 10
189.2715768011
 20
199.8568994621
 30
0.0
  0
LINE
  5
31B
100
AcDbEntity
  8
RUNDUNGEN
100
AcDbLine
 62
7
  6
CONTINUOUS
 10
203.2857035944
 20
140.298946723
 11
222.8369776092
 21
140.2988568046
  0
LINE
  5
31C
100
AcDbEntity
  8
RUNDUNGEN
100
AcDbLine
 62
7
  6
CONTINUOUS
 10
222.8369776092
 20
140.2988568046
 11
222.8645410649
 21
140.2988568041
  0
SPLINE
  5
31D
100
AcDbEntity
  8
RUNDUNGEN
100
AcDbSpline
 62
7
  6
CONTINUOUS
 70
0
 71
3
 72
14
 73
10
 74
0
 42
0.0000001
 43
0.0000001
 44
0.0000000001
 40
0.0
 40
0.0
 40
0.0
 40
0.0
 40
0.0575041884
 40
0.1314755232
 40
0.2286670046
 40
0.3494827718
 40
0.4916357357
 40
0.6511187059
 40
1.0
 40
1.0
 40
1.0
 40
1.0
 10
191.3787050987
 20
202.1988567716
 30
0.0
 10
191.357666214
 20
202.1988391932
 30
0.0
 10
191.3097478566
 20
202.1807626068
 30
0.0
 10
191.2523746913
 20
202.1179408237
 30
0.0
 10
191.200765722
 20
202.0237970974
 30
0.0
 10
191.155652778
 20
201.8996037707
 30
0.0
 10
191.1185076101
 20
201.7493536133
 30
0.0
 10
191.0804342914
 20
201.5142388477
 30
0.0
 10
191.0698204752
 20
201.327875928
 30
0.0
 10
191.0697662418
 20
201.2002317438
 30
0.0
  0
SPLINE
  5
31E
100
AcDbEntity
  8
RUNDUNGEN
100
AcDbSpline
 62
7
  6
CONTINUOUS
 70
0
 71
3
 72
24
 73
20
 74
0
 42
0.0000001
 43
0.0000001
 44
0.0000000001
 40
0.0
 40
0.0
 40
0.0
 40
0.0
 40
0.0010586746
 40
0.0041408198
 40
0.0090679377
 40
0.0156338722
 40
0.0328561224
 40
0.0543263393
 40
0.0789111416
 40
0.1058009076
 40
0.1643827553
 40
0.2272023515
 40
0.2927143083
 40
0.3600116872
 40
0.4285189026
 40
0.5676489414
 40
0.7081984735
 40
0.8506492143
 40
1.0
 40
1.0
 40
1.0
 40
1.0
 10
201.8369773293
 20
142.1988221828
 30
0.0
 10
201.836983407
 20
142.1997157956
 30
0.0
 10
201.8383462681
 20
142.1921161783
 30
0.0
 10
201.8397851732
 20
142.1886450942
 30
0.0
 10
201.8431635217
 20
142.1746226315
 30
0.0
 10
201.8492839983
 20
142.1523804657
 30
0.0
 10
201.8595126284
 20
142.114756219
 30
0.0
 10
201.8740923262
 20
142.0637143119
 30
0.0
 10
201.8914956738
 20
142.0045375713
 30
0.0
 10
201.9185701414
 20
141.9157138021
 30
0.0
 10
201.9568867553
 20
141.7965146595
 30
0.0
 10
202.0085395589
 20
141.647426673
 30
0.0
 10
202.0666854194
 20
141.4928460038
 30
0.0
 10
202.1314679036
 20
141.3357053421
 30
0.0
 10
202.2280451713
 20
141.1246360979
 30
0.0
 10
202.3690779273
 20
140.8660851336
 30
0.0
 10
202.5861460195
 20
140.5805532716
 30
0.0
 10
202.8849358315
 20
140.3577891368
 30
0.0
 10
203.1340387627
 20
140.3025518226
 30
0.0
 10
203.2600641745
 20
140.2992794728
 30
0.0
  0
SPLINE
  5
31F
100
AcDbEntity
  8
RUNDUNGEN
100
AcDbSpline
 62
7
  6
CONTINUOUS
 70
0
 71
3
 72
25
 73
21
 74
0
 42
0.0000001
 43
0.0000001
 44
0.0000000001
 40
0.0
 40
0.0
 40
0.0
 40
0.0
 40
0.0750781983
 40
0.1482588336
 40
0.2914225553
 40
0.4333396869
 40
0.5735474708
 40
0.6424242196
 40
0.7099604769
 40
0.7755510296
 40
0.838246468
 40
0.8964411196
 40
0.923018771
 40
0.9472078857
 40
0.9682116949
 40
0.9849447721
 40
0.9912872286
 40
0.9960293607
 40
0.9989864407
 40
1.0
 40
1.0
 40
1.0
 40
1.0
 10
203.0907164523
 20
152.0791349144
 30
0.0
 10
203.0327439646
 20
152.0672274924
 30
0.0
 10
202.9201781633
 20
152.0326199725
 30
0.0
 10
202.7167966088
 20
151.9230419216
 30
0.0
 10
202.5083584435
 20
151.7260261022
 30
0.0
 10
202.3194657845
 20
151.4477007157
 30
0.0
 10
202.1931911262
 20
151.2009642234
 30
0.0
 10
202.1057533154
 20
151.0011843522
 30
0.0
 10
202.0467903435
 20
150.8532364934
 30
0.0
 10
201.9936511056
 20
150.7082894662
 30
0.0
 10
201.9463426887
 20
150.5691061445
 30
0.0
 10
201.9112015355
 20
150.4582681396
 30
0.0
 10
201.8864097209
 20
150.3760716907
 30
0.0
 10
201.8705441282
 20
150.3216606326
 30
0.0
 10
201.8573015303
 20
150.2749910545
 30
0.0
 10
201.8480411938
 20
150.2407563035
 30
0.0
 10
201.8425222669
 20
150.2206317775
 30
0.0
 10
201.839492021
 20
150.2080121783
 30
0.0
 10
201.8381996832
 20
150.2048966998
 30
0.0
 10
201.8369845151
 20
150.1980924208
 30
0.0
 10
201.8369773293
 20
150.1988913583
 30
0.0
  0
SPLINE
  5
320
100
AcDbEntity
  8
RUNDUNGEN
100
AcDbSpline
 62
7
  6
CONTINUOUS
 70
0
 71
3
 72
9
 73
5
 74
0
 42
0.0000001
 43
0.0000001
 44
0.0000000001
 40
0.0
 40
0.0
 40
0.0
 40
0.0
 40
0.2500238544
 40
1.0
 40
1.0
 40
1.0
 40
1.0
 10
189.2715768663
 20
199.8569010394
 30
0.0
 10
189.2677153614
 20
195.8849811458
 30
0.0
 10
189.2146862652
 20
179.9988642452
 30
0.0
 10
189.0810958329
 20
164.113124324
 30
0.0
 10
189.0534395023
 20
152.1989069286
 30
0.0
  0
SPLINE
  5
321
100
AcDbEntity
  8
RUNDUNGEN
100
AcDbSpline
 62
7
  6
CONTINUOUS
 70
0
 71
3
 72
10
 73
6
 74
0
 42
0.0000001
 43
0.0000001
 44
0.0000000001
 40
0.0
 40
0.0
 40
0.0
 40
0.0
 40
0.6653988159
 40
0.8805160195
 40
1.0
 40
1.0
 40
1.0
 40
1.0
 10
223.3882504311
 20
140.372459582
 30
0.0
 10
223.3939096701
 20
140.3510993045
 30
0.0
 10
223.3990332353
 20
140.3213914933
 30
0.0
 10
223.3981218154
 20
140.2891039087
 30
0.0
 10
223.3920646354
 20
140.2774328487
 30
0.0
 10
223.3882505904
 20
140.2763384694
 30
0.0
  0
SPLINE
  5
322
100
AcDbEntity
  8
RUNDUNGEN
100
AcDbSpline
 62
7
  6
CONTINUOUS
 70
0
 71
3
 72
10
 73
6
 74
0
 42
0.0000001
 43
0.0000001
 44
0.0000000001
 40
0.0
 40
0.0
 40
0.0
 40
0.0
 40
0.6612638526
 40
0.8791387047
 40
1.0
 40
1.0
 40
1.0
 40
1.0
 10
222.8645410649
 20
140.2988568041
 30
0.0
 10
222.8645410568
 20
140.275133478
 30
0.0
 10
222.8613262251
 20
140.2427546736
 30
0.0
 10
222.8511613426
 20
140.209385865
 30
0.0
 10
222.841313317
 20
140.1988569305
 30
0.0
 10
222.8369773293
 20
140.1988569305
 30
0.0
  0
SPLINE
  5
323
100
AcDbEntity
  8
RUNDUNGEN
100
AcDbSpline
 62
7
  6
CONTINUOUS
 70
0
 71
3
 72
10
 73
6
 74
0
 42
0.0000001
 43
0.0000001
 44
0.0000000001
 40
0.0
 40
0.0
 40
0.0
 40
0.0
 40
0.6612638197
 40
0.8791387169
 40
1.0
 40
1.0
 40
1.0
 40
1.0
 10
203.2857026176
 20
140.298946723
 30
0.0
 10
203.2857026176
 20
140.2752020387
 30
0.0
 10
203.2824848984
 20
140.2427940792
 30
0.0
 10
203.272310877
 20
140.2093952266
 30
0.0
 10
203.2624539882
 20
140.1988568041
 30
0.0
 10
203.2581140971
 20
140.1988568041
 30
0.0
  0
SPLINE
  5
324
100
AcDbEntity
  8
RUNDUNGEN
100
AcDbSpline
 62
7
  6
CONTINUOUS
 70
0
 71
3
 72
18
 73
14
 74
0
 42
0.0000001
 43
0.0000001
 44
0.0000000001
 40
0.0
 40
0.0
 40
0.0
 40
0.0
 40
0.0053886004
 40
0.0190312643
 40
0.0413127899
 40
0.0721817333
 40
0.1115525813
 40
0.1592602447
 40
0.2783099352
 40
0.4256856577
 40
0.597747112
 40
0.7907669741
 40
1.0
 40
1.0
 40
1.0
 40
1.0
 10
188.5662247585
 20
199.7971251533
 30
0.0
 10
188.5662208943
 20
199.7983983416
 30
0.0
 10
188.5720472908
 20
199.8001362504
 30
0.0
 10
188.5802115539
 20
199.8020628526
 30
0.0
 10
188.5966194715
 20
199.8042886821
 30
0.0
 10
188.6180791035
 20
199.8060422547
 30
0.0
 10
188.6459953531
 20
199.8081224978
 30
0.0
 10
188.6944675353
 20
199.8122951424
 30
0.0
 10
188.7680603127
 20
199.8223444666
 30
0.0
 10
188.8710023663
 20
199.8341807489
 30
0.0
 10
188.991989493
 20
199.8404577254
 30
0.0
 10
189.1275958457
 20
199.8443371604
 30
0.0
 10
189.2225253659
 20
199.8509038186
 30
0.0
 10
189.2715968838
 20
199.8569010394
 30
0.0
  0
SPLINE
  5
325
100
AcDbEntity
  8
RUNDUNGEN
100
AcDbSpline
 62
7
  6
CONTINUOUS
 70
0
 71
3
 72
10
 73
6
 74
0
 42
0.0000001
 43
0.0000001
 44
0.0000000001
 40
0.0
 40
0.0
 40
0.0
 40
0.0
 40
0.4892180209
 40
0.7331460338
 40
1.0
 40
1.0
 40
1.0
 40
1.0
 10
193.8987792935
 20
152.3974394246
 30
0.0
 10
198.5716465781
 20
152.3978207562
 30
0.0
 10
205.5744428598
 20
152.3964165122
 30
0.0
 10
215.1261500497
 20
152.3979815246
 30
0.0
 10
220.0049899462
 20
152.3970073744
 30
0.0
 10
222.5539009008
 20
152.3970238588
 30
0.0
  0
SPLINE
  5
326
100
AcDbEntity
  8
RUNDUNGEN
100
AcDbSpline
 62
7
  6
CONTINUOUS
 70
0
 71
3
 72
10
 73
6
 74
0
 42
0.0000001
 43
0.0000001
 44
0.0000000001
 40
0.0
 40
0.0
 40
0.0
 40
0.0
 40
0.6612641413
 40
0.879139057
 40
1.0
 40
1.0
 40
1.0
 40
1.0
 10
203.2857026176
 20
152.0987667262
 30
0.0
 10
203.285702578
 20
152.1225114508
 30
0.0
 10
203.2824848146
 20
152.1549194674
 30
0.0
 10
203.2723107975
 20
152.1883183352
 30
0.0
 10
203.2624539374
 20
152.1988568041
 30
0.0
 10
203.2581140532
 20
152.1988568041
 30
0.0
  0
SPLINE
  5
327
100
AcDbEntity
  8
RUNDUNGEN
100
AcDbSpline
 62
7
  6
CONTINUOUS
 70
0
 71
3
 72
10
 73
6
 74
0
 42
0.0000001
 43
0.0000001
 44
0.0000000001
 40
0.0
 40
0.0
 40
0.0
 40
0.0
 40
0.6612638194
 40
0.8791387169
 40
1.0
 40
1.0
 40
1.0
 40
1.0
 10
222.8645410649
 20
152.0988568041
 30
0.0
 10
222.8645410649
 20
152.1225801565
 30
0.0
 10
222.8613262364
 20
152.1549590014
 30
0.0
 10
222.8511613551
 20
152.1883278491
 30
0.0
 10
222.8413133216
 20
152.1988568041
 30
0.0
 10
222.8369773293
 20
152.1988568041
 30
0.0
  0
SPLINE
  5
328
100
AcDbEntity
  8
RUNDUNGEN
100
AcDbSpline
 62
7
  6
CONTINUOUS
 70
0
 71
3
 72
10
 73
6
 74
0
 42
0.0000001
 43
0.0000001
 44
0.0000000001
 40
0.0
 40
0.0
 40
0.0
 40
0.0
 40
0.6654072341
 40
0.8805217275
 40
1.0
 40
1.0
 40
1.0
 40
1.0
 10
223.3882520409
 20
152.0252540264
 30
0.0
 10
223.3939120292
 20
152.0466157491
 30
0.0
 10
223.3990358727
 20
152.0763255205
 30
0.0
 10
223.3981249323
 20
152.1086150314
 30
0.0
 10
223.3920662927
 20
152.1202863728
 30
0.0
 10
223.388252013
 20
152.1213800987
 30
0.0
  0
SPLINE
  5
329
100
AcDbEntity
  8
RUNDUNGEN
100
AcDbSpline
 62
7
  6
CONTINUOUS
 70
0
 71
3
 72
9
 73
5
 74
0
 42
0.0000001
 43
0.0000001
 44
0.0000000001
 40
0.0
 40
0.0
 40
0.0
 40
0.0
 40
0.2500172548
 40
1.0
 40
1.0
 40
1.0
 40
1.0
 10
222.7680765612
 20
197.425563197
 30
0.0
 10
222.7609769022
 20
193.6729132749
 30
0.0
 10
222.7022034463
 20
178.6634179664
 30
0.0
 10
222.5807943832
 20
163.6542128021
 30
0.0
 10
222.5539067375
 20
152.3973109493
 30
0.0
  0
SPLINE
  5
32A
100
AcDbEntity
  8
RUNDUNGEN
100
AcDbSpline
 62
7
  6
CONTINUOUS
 70
0
 71
3
 72
11
 73
7
 74
0
 42
0.0000001
 43
0.0000001
 44
0.0000000001
 40
0.0
 40
0.0
 40
0.0
 40
0.0
 40
0.2215538599
 40
0.4542002857
 40
0.7101605307
 40
1.0
 40
1.0
 40
1.0
 40
1.0
 10
224.8369773293
 20
150.1988568041
 30
0.0
 10
224.8369527803
 20
150.3830772439
 30
0.0
 10
224.7781720299
 20
150.7631950499
 30
0.0
 10
224.5085673766
 20
151.2991851459
 30
0.0
 10
224.041929609
 20
151.7639218598
 30
0.0
 10
223.6207755248
 20
151.9619013869
 30
0.0
 10
223.3882520409
 20
152.0252540264
 30
0.0
  0
SPLINE
  5
32B
100
AcDbEntity
  8
RUNDUNGEN
100
AcDbSpline
 62
7
  6
CONTINUOUS
 70
0
 71
3
 72
11
 73
7
 74
0
 42
0.0000001
 43
0.0000001
 44
0.0000000001
 40
0.0
 40
0.0
 40
0.0
 40
0.0
 40
0.289839385
 40
0.5457993969
 40
0.7784458933
 40
1.0
 40
1.0
 40
1.0
 40
1.0
 10
223.3882520409
 20
140.3724595818
 30
0.0
 10
223.6207754316
 20
140.4358123079
 30
0.0
 10
224.0419293565
 20
140.6337915485
 30
0.0
 10
224.5085669446
 20
141.098528017
 30
0.0
 10
224.7781723177
 20
141.6345180607
 30
0.0
 10
224.8369521076
 20
142.014636157
 30
0.0
 10
224.8369773293
 20
142.1988568041
 30
0.0
  0
SPLINE
  5
32C
100
AcDbEntity
  8
RUNDUNGEN
100
AcDbSpline
 62
7
  6
CONTINUOUS
 70
0
 71
3
 72
13
 73
9
 74
0
 42
0.0000001
 43
0.0000001
 44
0.0000000001
 40
0.0
 40
0.0
 40
0.0
 40
0.0
 40
0.1226234744
 40
0.2456125616
 40
0.3692655386
 40
0.4938006051
 40
0.7450460156
 40
1.0
 40
1.0
 40
1.0
 40
1.0
 10
218.1611029141
 20
201.2002315654
 30
0.0
 10
218.422989266
 20
201.2002148002
 30
0.0
 10
218.948680438
 20
201.1544713534
 30
0.0
 10
219.7143381138
 20
200.9504950322
 30
0.0
 10
220.4377499548
 20
200.616564448
 30
0.0
 10
221.3203889783
 20
200.0098630085
 30
0.0
 10
222.2225361132
 20
198.9748974922
 30
0.0
 10
222.6420394241
 20
197.9552793636
 30
0.0
 10
222.7680765612
 20
197.425563197
 30
0.0
  0
LINE
  5
32D
100
AcDbEntity
  8
RUNDUNGEN
100
AcDbLine
 62
7
  6
CONTINUOUS
 10
191.0697662552
 20
201.2002615875
 11
218.1611028987
 21
201.2001942546
  0
SPLINE
  5
32E
100
AcDbEntity
  8
RUNDUNGEN
100
AcDbSpline
 62
7
  6
CONTINUOUS
 70
0
 71
3
 72
11
 73
7
 74
0
 42
0.0000001
 43
0.0000001
 44
0.0000000001
 40
0.0
 40
0.0
 40
0.0
 40
0.0
 40
0.2551778421
 40
0.5066652087
 40
0.7544713097
 40
1.0
 40
1.0
 40
1.0
 40
1.0
 10
189.2715969262
 20
199.8569445827
 30
0.0
 10
189.3354132885
 20
200.0498396858
 30
0.0
 10
189.5202203584
 20
200.4164819672
 30
0.0
 10
189.945608559
 20
200.8537397655
 30
0.0
 10
190.4785793676
 20
201.1354088752
 30
0.0
 10
190.8742717003
 20
201.2001843737
 30
0.0
 10
191.0697662418
 20
201.2002317438
 30
0.0
  0
LINE
  5
32F
100
AcDbEntity
  8
RUNDUNGEN
100
AcDbLine
 62
7
  6
CONTINUOUS
 10
222.5539015827
 20
152.3973100732
 11
222.8629593321
 21
152.3973091782
  0
SPLINE
  5
330
100
AcDbEntity
  8
RUNDUNGEN
100
AcDbSpline
 62
7
  6
CONTINUOUS
 70
0
 71
3
 72
9
 73
5
 74
0
 42
0.0000001
 43
0.0000001
 44
0.0000000001
 40
0.0
 40
0.0
 40
0.0
 40
0.0
 40
0.7518572099
 40
1.0
 40
1.0
 40
1.0
 40
1.0
 10
222.8629593325
 20
152.3973095677
 30
0.0
 10
223.0143556311
 20
152.3972927955
 30
0.0
 10
223.217013345
 20
152.3708373755
 30
0.0
 10
223.4095950118
 20
152.311762881
 30
0.0
 10
223.4567273351
 20
152.2951729629
 30
0.0
  0
SPLINE
  5
331
100
AcDbEntity
  8
RUNDUNGEN
100
AcDbSpline
 62
7
  6
CONTINUOUS
 70
0
 71
3
 72
11
 73
7
 74
0
 42
0.0000001
 43
0.0000001
 44
0.0000000001
 40
0.0
 40
0.0
 40
0.0
 40
0.0
 40
0.2710818931
 40
0.5257946479
 40
0.7681523045
 40
1.0
 40
1.0
 40
1.0
 40
1.0
 10
223.8656091868
 20
152.0915957138
 30
0.0
 10
223.9938971285
 20
152.0070582876
 30
0.0
 10
224.2241740906
 20
151.8129409648
 30
0.0
 10
224.4904314938
 20
151.4650337881
 30
0.0
 10
224.676921926
 20
151.0939602879
 30
0.0
 10
224.7545377263
 20
150.8351460005
 30
0.0
 10
224.7820206533
 20
150.7066512605
 30
0.0
  0
SPLINE
  5
332
100
AcDbEntity
  8
RUNDUNGEN
100
AcDbSpline
 62
7
  6
CONTINUOUS
 70
0
 71
3
 72
9
 73
5
 74
0
 42
0.0000001
 43
0.0000001
 44
0.0000000001
 40
0.0
 40
0.0
 40
0.0
 40
0.0
 40
0.6040651737
 40
1.0
 40
1.0
 40
1.0
 40
1.0
 10
224.7820206533
 20
150.7066512605
 30
0.0
 10
224.7939006608
 20
150.651107014
 30
0.0
 10
224.8100262855
 20
150.5583986602
 30
0.0
 10
224.8218025287
 20
150.4650544525
 30
0.0
 10
224.8249207173
 20
150.4279553411
 30
0.0
  0
SPLINE
  5
333
100
AcDbEntity
  8
RUNDUNGEN
100
AcDbSpline
 62
7
  6
CONTINUOUS
 70
0
 71
3
 72
22
 73
18
 74
0
 42
0.0000001
 43
0.0000001
 44
0.0000000001
 40
0.0
 40
0.0
 40
0.0
 40
0.0
 40
0.0867873961
 40
0.1756413169
 40
0.3545423879
 40
0.4421926362
 40
0.5271021334
 40
0.6838346006
 40
0.753410614
 40
0.815837339
 40
0.8702213337
 40
0.8941744571
 40
0.9158807028
 40
0.9351591341
 40
0.9520015965
 40
0.9781171118
 40
1.0
 40
1.0
 40
1.0
 40
1.0
 10
222.7680765612
 20
197.4255631971
 30
0.0
 10
222.8065428943
 20
197.4171972048
 30
0.0
 10
222.8856526063
 20
197.406385144
 30
0.0
 10
223.0457940055
 20
197.3923528822
 30
0.0
 10
223.2064180655
 20
197.3776698417
 30
0.0
 10
223.3642417333
 20
197.3550632312
 30
0.0
 10
223.5115810678
 20
197.3302490363
 30
0.0
 10
223.6524386896
 20
197.3189293111
 30
0.0
 10
223.7829302542
 20
197.3079912705
 30
0.0
 10
223.8670962143
 20
197.3000376234
 30
0.0
 10
223.9307393847
 20
197.2947203774
 30
0.0
 10
223.9759624639
 20
197.2913119405
 30
0.0
 10
224.0053224338
 20
197.2880843796
 30
0.0
 10
224.0312631158
 20
197.2863987694
 30
0.0
 10
224.0605569098
 20
197.2883786057
 30
0.0
 10
224.0841286044
 20
197.2880547501
 30
0.0
 10
224.1196539885
 20
197.2856063881
 30
0.0
 10
224.1196581965
 20
197.2955321662
 30
0.0
  0
SPLINE
  5
334
100
AcDbEntity
  8
RUNDUNGEN
100
AcDbSpline
 62
7
  6
CONTINUOUS
 70
0
 71
3
 72
9
 73
5
 74
0
 42
0.0000001
 43
0.0000001
 44
0.0000000001
 40
0.0
 40
0.0
 40
0.0
 40
0.0
 40
0.6941306006
 40
1.0
 40
1.0
 40
1.0
 40
1.0
 10
224.0190930817
 20
197.6635409613
 30
0.0
 10
224.0310565279
 20
197.6637649609
 30
0.0
 10
224.0459498611
 20
197.6638834113
 30
0.0
 10
224.0674911931
 20
197.6591021411
 30
0.0
 10
224.0688257567
 20
197.6540012037
 30
0.0
  0
SPLINE
  5
335
100
AcDbEntity
  8
RUNDUNGEN
100
AcDbSpline
 62
7
  6
CONTINUOUS
 70
0
 71
3
 72
12
 73
8
 74
0
 42
0.0000001
 43
0.0000001
 44
0.0000000001
 40
0.0
 40
0.0
 40
0.0
 40
0.0
 40
0.0622631287
 40
0.1509408243
 40
0.39340527
 40
0.6913953584
 40
1.0
 40
1.0
 40
1.0
 40
1.0
 10
223.9993707424
 20
197.6635577926
 30
0.0
 10
223.9733102987
 20
197.6640402285
 30
0.0
 10
223.9101195852
 20
197.6598116199
 30
0.0
 10
223.7466473872
 20
197.6400329936
 30
0.0
 10
223.4871821754
 20
197.5936610558
 30
0.0
 10
223.1396036783
 20
197.5193426337
 30
0.0
 10
222.8929707069
 20
197.4586018424
 30
0.0
 10
222.7680771006
 20
197.4255631862
 30
0.0
  0
SPLINE
  5
336
100
AcDbEntity
  8
RUNDUNGEN
100
AcDbSpline
 62
7
  6
CONTINUOUS
 70
0
 71
3
 72
14
 73
10
 74
0
 42
0.0000001
 43
0.0000001
 44
0.0000000001
 40
0.0
 40
0.0
 40
0.0
 40
0.0
 40
0.0574974648
 40
0.1314533381
 40
0.2286321748
 40
0.3494422975
 40
0.4915971195
 40
0.6510886162
 40
1.0
 40
1.0
 40
1.0
 40
1.0
 10
218.470119634
 20
202.1988470933
 30
0.0
 10
218.4490819311
 20
202.198847089
 30
0.0
 10
218.4011522795
 20
202.1808064531
 30
0.0
 10
218.3437621467
 20
202.1180061823
 30
0.0
 10
218.2921405923
 20
202.0238760737
 30
0.0
 10
218.2470157265
 20
201.8996844669
 30
0.0
 10
218.2098600103
 20
201.7494254491
 30
0.0
 10
218.1717746431
 20
201.5142829279
 30
0.0
 10
218.1611575171
 20
201.3278944698
 30
0.0
 10
218.1611029384
 20
201.2002315653
 30
0.0
  0
SPLINE
  5
337
100
AcDbEntity
  8
RUNDUNGEN
100
AcDbSpline
 62
7
  6
CONTINUOUS
 70
0
 71
3
 72
11
 73
7
 74
0
 42
0.0000001
 43
0.0000001
 44
0.0000000001
 40
0.0
 40
0.0
 40
0.0
 40
0.0
 40
0.1362580307
 40
0.3663367658
 40
0.6651069128
 40
1.0
 40
1.0
 40
1.0
 40
1.0
 10
92.5927172437
 20
52.3595317733
 30
0.0
 10
92.6556659726
 20
52.5705723435
 30
0.0
 10
92.8351416998
 20
53.1348594092
 30
0.0
 10
93.1634396388
 20
54.1584609625
 30
0.0
 10
93.5939007854
 20
55.4864848607
 30
0.0
 10
93.9101162831
 20
56.4606083174
 30
0.0
 10
94.0773795523
 20
56.9753913392
 30
0.0
  0
LINE
  5
338
100
AcDbEntity
  8
RUNDUNGEN
100
AcDbLine
 62
7
  6
CONTINUOUS
 10
93.2530735511
 20
52.1449715157
 11
93.2964130072
 21
52.2796036535
  0
LINE
  5
339
100
AcDbEntity
  8
RUNDUNGEN
100
AcDbLine
 62
7
  6
CONTINUOUS
 10
93.2964130072
 20
52.2796036535
 11
93.3407624581
 21
52.4171338203
  0
SPLINE
  5
33A
100
AcDbEntity
  8
RUNDUNGEN
100
AcDbSpline
 62
7
  6
CONTINUOUS
 70
0
 71
3
 72
9
 73
5
 74
0
 42
0.0000001
 43
0.0000001
 44
0.0000000001
 40
0.0
 40
0.0
 40
0.0
 40
0.0
 40
0.2465270937
 40
1.0
 40
1.0
 40
1.0
 40
1.0
 10
93.3407624581
 20
52.4171338203
 30
0.0
 10
93.3559672201
 20
52.464244111
 30
0.0
 10
93.4176920964
 20
52.655324071
 30
0.0
 10
93.4796070524
 20
52.8463426245
 30
0.0
 10
93.5263609798
 20
52.9902365269
 30
0.0
  0
SPLINE
  5
33B
100
AcDbEntity
  8
RUNDUNGEN
100
AcDbSpline
 62
7
  6
CONTINUOUS
 70
0
 71
3
 72
12
 73
8
 74
0
 42
0.0000001
 43
0.0000001
 44
0.0000000001
 40
0.0
 40
0.0
 40
0.0
 40
0.0
 40
0.2275566581
 40
0.463721929
 40
0.5877135559
 40
0.7173896302
 40
1.0
 40
1.0
 40
1.0
 40
1.0
 10
102.4943889063
 20
87.9283019484
 30
0.0
 10
102.3286447176
 20
87.9283921405
 30
0.0
 10
101.9891372095
 20
87.878476276
 30
0.0
 10
101.5953624307
 20
87.6943371683
 30
0.0
 10
101.3139787031
 20
87.4727616288
 30
0.0
 10
101.0475625879
 20
87.185541995
 30
0.0
 10
100.9034878825
 20
86.9123891347
 30
0.0
 10
100.8412016731
 20
86.7161955355
 30
0.0
  0
LINE
  5
33C
100
AcDbEntity
  8
RUNDUNGEN
100
AcDbLine
 62
7
  6
CONTINUOUS
 10
100.8412018087
 20
86.7161954916
 11
100.7975918163
 21
86.5792193089
  0
LINE
  5
33D
100
AcDbEntity
  8
RUNDUNGEN
100
AcDbLine
 62
7
  6
CONTINUOUS
 10
100.7975918163
 20
86.5792193089
 11
100.727449035
 21
86.3590887043
  0
SPLINE
  5
33E
100
AcDbEntity
  8
RUNDUNGEN
100
AcDbSpline
 62
7
  6
CONTINUOUS
 70
0
 71
3
 72
11
 73
7
 74
0
 42
0.0000001
 43
0.0000001
 44
0.0000000001
 40
0.0
 40
0.0
 40
0.0
 40
0.0
 40
0.3348941034
 40
0.6336644618
 40
0.863743066
 40
1.0
 40
1.0
 40
1.0
 40
1.0
 10
92.1417690879
 20
57.604309301
 30
0.0
 10
91.9745055399
 20
57.0895246493
 30
0.0
 10
91.6577534631
 20
56.1155734592
 30
0.0
 10
91.2254107947
 20
54.7881590747
 30
0.0
 10
90.8893546804
 20
53.7670799978
 30
0.0
 10
90.7028754027
 20
53.2050706693
 30
0.0
 10
90.6297587405
 20
52.9973356539
 30
0.0
  0
LINE
  5
33F
100
AcDbEntity
  8
RUNDUNGEN
100
AcDbLine
 62
7
  6
CONTINUOUS
 10
80.3958953802
 20
52.9284348858
 11
74.7818403854
 21
72.5072981618
  0
SPLINE
  5
340
100
AcDbEntity
  8
RUNDUNGEN
100
AcDbSpline
 62
7
  6
CONTINUOUS
 70
0
 71
3
 72
15
 73
11
 74
0
 42
0.0000001
 43
0.0000001
 44
0.0000000001
 40
0.0
 40
0.0
 40
0.0
 40
0.0
 40
0.1251857993
 40
0.2504151892
 40
0.3755837173
 40
0.5006843572
 40
0.6257075099
 40
0.7506274036
 40
0.8754050913
 40
1.0
 40
1.0
 40
1.0
 40
1.0
 10
74.7209547985
 20
72.7632778418
 30
0.0
 10
74.6885279514
 20
72.9315289876
 30
0.0
 10
74.6527209152
 20
73.2731024665
 30
0.0
 10
74.6108056533
 20
73.7853399524
 30
0.0
 10
74.5178186907
 20
74.292375494
 30
0.0
 10
74.3475109607
 20
74.7797624476
 30
0.0
 10
74.0858317022
 20
75.2258958634
 30
0.0
 10
73.7267541455
 20
75.6000870995
 30
0.0
 10
73.2773869309
 20
75.8613435707
 30
0.0
 10
72.9336429064
 20
75.9283999382
 30
0.0
 10
72.7631042355
 20
75.9284002765
 30
0.0
  0
LINE
  5
341
100
AcDbEntity
  8
RUNDUNGEN
100
AcDbLine
 62
7
  6
CONTINUOUS
 10
72.7631042355
 20
75.9284002765
 11
68.767578125
 21
75.9286299913
  0
SPLINE
  5
342
100
AcDbEntity
  8
RUNDUNGEN
100
AcDbSpline
 62
7
  6
CONTINUOUS
 70
0
 71
3
 72
11
 73
7
 74
0
 42
0.0000001
 43
0.0000001
 44
0.0000000001
 40
0.0
 40
0.0
 40
0.0
 40
0.0
 40
0.2534797501
 40
0.50500587
 40
0.7536015668
 40
1.0
 40
1.0
 40
1.0
 40
1.0
 10
91.3420298768
 20
51.7463191333
 30
0.0
 10
91.4655528032
 20
51.706381908
 30
0.0
 10
91.7295561456
 20
51.6734435901
 30
0.0
 10
92.1116427273
 20
51.7750593469
 30
0.0
 10
92.4239674613
 20
52.0121928112
 30
0.0
 10
92.5535305113
 20
52.2395783297
 30
0.0
 10
92.5927179438
 20
52.3595315457
 30
0.0
  0
SPLINE
  5
343
100
AcDbEntity
  8
RUNDUNGEN
100
AcDbSpline
 62
7
  6
CONTINUOUS
 70
0
 71
3
 72
11
 73
7
 74
0
 42
0.0000001
 43
0.0000001
 44
0.0000000001
 40
0.0
 40
0.0
 40
0.0
 40
0.0
 40
0.2534797067
 40
0.5050055776
 40
0.7536011777
 40
1.0
 40
1.0
 40
1.0
 40
1.0
 10
91.281129528
 20
51.7660414727
 30
0.0
 10
91.157718199
 20
51.8063379209
 30
0.0
 10
90.9247661127
 20
51.9348746132
 30
0.0
 10
90.675378447
 20
52.2416873057
 30
0.0
 10
90.5620978124
 20
52.617131942
 30
0.0
 10
90.5909484056
 20
52.877254689
 30
0.0
 10
90.6297604004
 20
52.9973351145
 30
0.0
  0
SPLINE
  5
344
100
AcDbEntity
  8
RUNDUNGEN
100
AcDbSpline
 62
7
  6
CONTINUOUS
 70
0
 71
3
 72
11
 73
7
 74
0
 42
0.0000001
 43
0.0000001
 44
0.0000000001
 40
0.0
 40
0.0
 40
0.0
 40
0.0
 40
0.2564689611
 40
0.5092456287
 40
0.7566096774
 40
1.0
 40
1.0
 40
1.0
 40
1.0
 10
102.7683586079
 20
87.0833970135
 30
0.0
 10
102.6449397215
 20
87.1233655076
 30
0.0
 10
102.3825626245
 20
87.1576589377
 30
0.0
 10
102.0025362651
 20
87.0621887185
 30
0.0
 10
101.6918605918
 20
86.833179285
 30
0.0
 10
101.5635176879
 20
86.6108805383
 30
0.0
 10
101.525341195
 20
86.493835414
 30
0.0
  0
SPLINE
  5
345
100
AcDbEntity
  8
RUNDUNGEN
100
AcDbSpline
 62
7
  6
CONTINUOUS
 70
0
 71
3
 72
11
 73
7
 74
0
 42
0.0000001
 43
0.0000001
 44
0.0000000001
 40
0.0
 40
0.0
 40
0.0
 40
0.0
 40
0.2564678773
 40
0.5092433935
 40
0.7566076977
 40
1.0
 40
1.0
 40
1.0
 40
1.0
 10
102.8076782281
 20
87.0706740233
 30
0.0
 10
102.9310230848
 20
87.0304660957
 30
0.0
 10
103.1634553349
 20
86.9039852181
 30
0.0
 10
103.4147878617
 20
86.6033585595
 30
0.0
 10
103.531510303
 20
86.2354579449
 30
0.0
 10
103.5046659567
 20
85.9801684111
 30
0.0
 10
103.4667478414
 20
85.8630341561
 30
0.0
  0
LINE
  5
346
100
AcDbEntity
  8
RUNDUNGEN
100
AcDbLine
 62
7
  6
CONTINUOUS
 10
93.4432786914
 20
52.1600100458
 11
93.5309684853
 21
52.4074326282
  0
LINE
  5
347
100
AcDbEntity
  8
RUNDUNGEN
100
AcDbLine
 62
7
  6
CONTINUOUS
 10
93.5309684853
 20
52.4074326282
 11
93.5764527704
 21
52.5354395318
  0
LINE
  5
348
100
AcDbEntity
  8
RUNDUNGEN
100
AcDbLine
 62
7
  6
CONTINUOUS
 10
93.5764527704
 20
52.5354395318
 11
93.6227136824
 21
52.6654117398
  0
LINE
  5
349
100
AcDbEntity
  8
RUNDUNGEN
100
AcDbLine
 62
7
  6
CONTINUOUS
 10
93.6227136824
 20
52.6654117398
 11
93.6694658464
 21
52.7965444335
  0
LINE
  5
34A
100
AcDbEntity
  8
RUNDUNGEN
100
AcDbLine
 62
7
  6
CONTINUOUS
 10
93.6694658464
 20
52.7965444335
 11
93.7165669621
 21
52.9284359927
  0
SPLINE
  5
34B
100
AcDbEntity
  8
RUNDUNGEN
100
AcDbSpline
 62
7
  6
CONTINUOUS
 70
0
 71
3
 72
11
 73
7
 74
0
 42
0.0000001
 43
0.0000001
 44
0.0000000001
 40
0.0
 40
0.0
 40
0.0
 40
0.0
 40
0.2215538236
 40
0.4542002525
 40
0.7101604566
 40
1.0
 40
1.0
 40
1.0
 40
1.0
 10
82.3724643084
 20
50.9284348858
 30
0.0
 10
82.1882438841
 20
50.9284594348
 30
0.0
 10
81.8081260726
 20
50.9872402203
 30
0.0
 10
81.2721360077
 20
51.2568446984
 30
0.0
 10
80.8073985931
 20
51.7234821223
 30
0.0
 10
80.6094200324
 20
52.1446366901
 30
0.0
 10
80.5460670861
 20
52.3771601742
 30
0.0
  0
LINE
  5
34C
100
AcDbEntity
  8
RUNDUNGEN
100
AcDbLine
 62
7
  6
CONTINUOUS
 10
80.5460670861
 20
52.3771601742
 11
80.5277409087
 21
52.4444348741
  0
LINE
  5
34D
100
AcDbEntity
  8
RUNDUNGEN
100
AcDbLine
 62
7
  6
CONTINUOUS
 10
80.5277409087
 20
52.4444348741
 11
80.4717711631
 21
52.6498977036
  0
LINE
  5
34E
100
AcDbEntity
  8
RUNDUNGEN
100
AcDbLine
 62
7
  6
CONTINUOUS
 10
80.4717711631
 20
52.6498977036
 11
80.3958953802
 21
52.9284348858
  0
SPLINE
  5
34F
100
AcDbEntity
  8
RUNDUNGEN
100
AcDbSpline
 62
7
  6
CONTINUOUS
 70
0
 71
3
 72
13
 73
9
 74
0
 42
0.0000001
 43
0.0000001
 44
0.0000000001
 40
0.0
 40
0.0
 40
0.0
 40
0.0
 40
0.1474065766
 40
0.2884634488
 40
0.4205379721
 40
0.5443892137
 40
0.7745406351
 40
1.0
 40
1.0
 40
1.0
 40
1.0
 10
89.7026107904
 20
52.9285088982
 30
0.0
 10
89.682237404
 20
52.7872012717
 30
0.0
 10
89.6797201857
 20
52.5038194121
 30
0.0
 10
89.7825344446
 20
52.1054205047
 30
0.0
 10
89.9662069823
 20
51.7637704175
 30
0.0
 10
90.2732938145
 20
51.4031949984
 30
0.0
 10
90.7510383163
 20
51.086345838
 30
0.0
 10
91.1859548758
 20
50.9723098442
 30
0.0
 10
91.4031915221
 20
50.9501318802
 30
0.0
  0
SPLINE
  5
350
100
AcDbEntity
  8
RUNDUNGEN
100
AcDbSpline
 62
7
  6
CONTINUOUS
 70
0
 71
3
 72
11
 73
7
 74
0
 42
0.0000001
 43
0.0000001
 44
0.0000000001
 40
0.0
 40
0.0
 40
0.0
 40
0.0
 40
0.2355035036
 40
0.4744090824
 40
0.7266167173
 40
1.0
 40
1.0
 40
1.0
 40
1.0
 10
91.9617555558
 20
50.9695180336
 30
0.0
 10
92.1091690773
 20
50.9950109866
 30
0.0
 10
92.4017091782
 20
51.0781409547
 30
0.0
 10
92.8102019888
 20
51.3013933501
 30
0.0
 10
93.1719828587
 20
51.6330026948
 30
0.0
 10
93.3484713418
 20
51.9237360673
 30
0.0
 10
93.414402059
 20
52.0843986477
 30
0.0
  0
SPLINE
  5
351
100
AcDbEntity
  8
RUNDUNGEN
100
AcDbSpline
 62
7
  6
CONTINUOUS
 70
0
 71
3
 72
10
 73
6
 74
0
 42
0.0000001
 43
0.0000001
 44
0.0000000001
 40
0.0
 40
0.0
 40
0.0
 40
0.0
 40
0.5359646738
 40
0.7756910596
 40
1.0
 40
1.0
 40
1.0
 40
1.0
 10
100.6509727514
 20
86.6214854918
 30
0.0
 10
100.6913043753
 20
86.6165032591
 30
0.0
 10
100.7543323353
 20
86.6235260871
 30
0.0
 10
100.8170364652
 20
86.668753982
 30
0.0
 10
100.8358590724
 20
86.6999789643
 30
0.0
 10
100.841180829
 20
86.7161325922
 30
0.0
  0
SPLINE
  5
352
100
AcDbEntity
  8
RUNDUNGEN
100
AcDbSpline
 62
7
  6
CONTINUOUS
 70
0
 71
3
 72
10
 73
6
 74
0
 42
0.0000001
 43
0.0000001
 44
0.0000000001
 40
0.0
 40
0.0
 40
0.0
 40
0.0
 40
0.249902652
 40
0.4999141114
 40
1.0
 40
1.0
 40
1.0
 40
1.0
 10
102.147330338
 20
78.6330679936
 30
0.0
 10
102.2487239896
 20
78.9451257457
 30
0.0
 10
102.5252820944
 20
79.5454709774
 30
0.0
 10
103.2322405526
 20
80.6537279363
 30
0.0
 10
103.8556052621
 20
81.418729755
 30
0.0
 10
104.2695221421
 20
81.9284348858
 30
0.0
  0
SPLINE
  5
353
100
AcDbEntity
  8
RUNDUNGEN
100
AcDbSpline
 62
7
  6
CONTINUOUS
 70
0
 71
3
 72
11
 73
7
 74
0
 42
0.0000001
 43
0.0000001
 44
0.0000000001
 40
0.0
 40
0.0
 40
0.0
 40
0.0
 40
0.3430783609
 40
0.6369455033
 40
0.8545585229
 40
1.0
 40
1.0
 40
1.0
 40
1.0
 10
93.4432786911
 20
52.1600135902
 30
0.0
 10
93.4210866412
 20
52.1660972747
 30
0.0
 10
93.3791141699
 20
52.1749041584
 30
0.0
 10
93.3215300287
 20
52.1775407553
 30
0.0
 10
93.2776813704
 20
52.1710250764
 30
0.0
 10
93.2562633592
 20
52.1541877508
 30
0.0
 10
93.2530740377
 20
52.1449688444
 30
0.0
  0
SPLINE
  5
354
100
AcDbEntity
  8
RUNDUNGEN
100
AcDbSpline
 62
7
  6
CONTINUOUS
 70
0
 71
3
 72
11
 73
7
 74
0
 42
0.0000001
 43
0.0000001
 44
0.0000000001
 40
0.0
 40
0.0
 40
0.0
 40
0.0
 40
0.3036465548
 40
0.5864077245
 40
0.8181553501
 40
1.0
 40
1.0
 40
1.0
 40
1.0
 10
104.3348646064
 20
85.463135761
 30
0.0
 10
104.3066517764
 20
85.4692118148
 30
0.0
 10
104.2534213059
 20
85.4878871511
 30
0.0
 10
104.1877729109
 20
85.5310435635
 30
0.0
 10
104.1449502092
 20
85.5837205769
 30
0.0
 10
104.1394696321
 20
85.626281742
 30
0.0
 10
104.1446589327
 20
85.6427674903
 30
0.0
  0
SPLINE
  5
355
100
AcDbEntity
  8
RUNDUNGEN
100
AcDbSpline
 62
7
  6
CONTINUOUS
 70
0
 71
3
 72
10
 73
6
 74
0
 42
0.0000001
 43
0.0000001
 44
0.0000000001
 40
0.0
 40
0.0
 40
0.0
 40
0.0
 40
0.1194783874
 40
0.3345929986
 40
1.0
 40
1.0
 40
1.0
 40
1.0
 10
80.4499409165
 20
52.3771601742
 30
0.0
 10
80.4510346599
 20
52.373345892
 30
0.0
 10
80.4627060284
 20
52.3672872796
 30
0.0
 10
80.4949955628
 20
52.366376343
 30
0.0
 10
80.5247053547
 20
52.3715002048
 30
0.0
 10
80.5460670861
 20
52.3771602021
 30
0.0
  0
SPLINE
  5
356
100
AcDbEntity
  8
RUNDUNGEN
100
AcDbSpline
 62
7
  6
CONTINUOUS
 70
0
 71
3
 72
13
 73
9
 74
0
 42
0.0000001
 43
0.0000001
 44
0.0000000001
 40
0.0
 40
0.0
 40
0.0
 40
0.0
 40
0.2102141374
 40
0.322645082
 40
0.5008788266
 40
0.677116825
 40
0.7897814563
 40
1.0
 40
1.0
 40
1.0
 40
1.0
 10
102.8076779442
 20
87.0706731495
 30
0.0
 10
102.8094715907
 20
87.0760763847
 30
0.0
 10
102.8103308515
 20
87.0850436052
 30
0.0
 10
102.8083620823
 20
87.0984987274
 30
0.0
 10
102.7985250645
 20
87.1094950313
 30
0.0
 10
102.7841977976
 20
87.1062747955
 30
0.0
 10
102.7746590154
 20
87.0966563025
 30
0.0
 10
102.7701030753
 20
87.0888681296
 30
0.0
 10
102.7683738161
 20
87.0834438196
 30
0.0
  0
SPLINE
  5
357
100
AcDbEntity
  8
RUNDUNGEN
100
AcDbSpline
 62
7
  6
CONTINUOUS
 70
0
 71
3
 72
9
 73
5
 74
0
 42
0.0000001
 43
0.0000001
 44
0.0000000001
 40
0.0
 40
0.0
 40
0.0
 40
0.0
 40
0.3862720082
 40
1.0
 40
1.0
 40
1.0
 40
1.0
 10
102.7683738161
 20
87.0834438196
 30
0.0
 10
102.6576950315
 20
86.7356532083
 30
0.0
 10
102.3659369269
 20
85.836948489
 30
0.0
 10
102.0745304915
 20
84.9381404664
 30
0.0
 10
101.8953335013
 20
84.386629305
 30
0.0
  0
SPLINE
  5
358
100
AcDbEntity
  8
RUNDUNGEN
100
AcDbSpline
 62
7
  6
CONTINUOUS
 70
0
 71
3
 72
9
 73
5
 74
0
 42
0.0000001
 43
0.0000001
 44
0.0000000001
 40
0.0
 40
0.0
 40
0.0
 40
0.0
 40
0.6137279836
 40
1.0
 40
1.0
 40
1.0
 40
1.0
 10
101.9288329067
 20
84.3757446884
 30
0.0
 10
102.1080296277
 20
84.9272559329
 30
0.0
 10
102.4005829603
 20
85.8256913106
 30
0.0
 10
102.6927920072
 20
86.7242495195
 30
0.0
 10
102.8076779442
 20
87.0706731495
 30
0.0
  0
SPLINE
  5
359
100
AcDbEntity
  8
RUNDUNGEN
100
AcDbSpline
 62
7
  6
CONTINUOUS
 70
0
 71
3
 72
13
 73
9
 74
0
 42
0.0000001
 43
0.0000001
 44
0.0000000001
 40
0.0
 40
0.0
 40
0.0
 40
0.0
 40
0.1952775953
 40
0.3055234664
 40
0.5003095482
 40
0.6944552702
 40
0.8047162793
 40
1.0
 40
1.0
 40
1.0
 40
1.0
 10
91.2811295047
 20
51.7660414009
 30
0.0
 10
91.2787549547
 20
51.7592212989
 30
0.0
 10
91.2779896869
 20
51.7473899125
 30
0.0
 10
91.2830954977
 20
51.7294244581
 30
0.0
 10
91.2984049684
 20
51.7155780765
 30
0.0
 10
91.3189081864
 20
51.717810811
 30
0.0
 10
91.3335860972
 20
51.7293241345
 30
0.0
 10
91.3399165392
 20
51.7393480259
 30
0.0
 10
91.342010552
 20
51.7462596582
 30
0.0
  0
SPLINE
  5
35A
100
AcDbEntity
  8
RUNDUNGEN
100
AcDbSpline
 62
7
  6
CONTINUOUS
 70
0
 71
3
 72
11
 73
7
 74
0
 42
0.0000001
 43
0.0000001
 44
0.0000000001
 40
0.0
 40
0.0
 40
0.0
 40
0.0
 40
0.1361617367
 40
0.36615444
 40
0.6649559864
 40
1.0
 40
1.0
 40
1.0
 40
1.0
 10
91.342010552
 20
51.7462596582
 30
0.0
 10
91.4185117716
 20
51.9990230904
 30
0.0
 10
91.6344655853
 20
52.6755907525
 30
0.0
 10
92.0291039026
 20
53.903392048
 30
0.0
 10
92.5458984708
 20
55.4971278296
 30
0.0
 10
92.9255181165
 20
56.6663922096
 30
0.0
 10
93.1263239293
 20
57.284408021
 30
0.0
  0
LINE
  5
35B
100
AcDbEntity
  8
RUNDUNGEN
100
AcDbLine
 62
7
  6
CONTINUOUS
 10
99.0909191484
 20
81.9281299143
 11
89.7804061815
 21
53.2733070393
  0
SPLINE
  5
35C
100
AcDbEntity
  8
RUNDUNGEN
100
AcDbSpline
 62
7
  6
CONTINUOUS
 70
0
 71
3
 72
11
 73
7
 74
0
 42
0.0000001
 43
0.0000001
 44
0.0000000001
 40
0.0
 40
0.0
 40
0.0
 40
0.0
 40
0.3350449612
 40
0.6338465598
 40
0.8638386834
 40
1.0
 40
1.0
 40
1.0
 40
1.0
 10
93.0928246996
 20
57.2952925805
 30
0.0
 10
92.8920188733
 20
56.6772748788
 30
0.0
 10
92.5118609349
 20
55.5081834293
 30
0.0
 10
91.9931821902
 20
53.9150591089
 30
0.0
 10
91.5907711828
 20
52.6897852808
 30
0.0
 10
91.3678063848
 20
52.0154977492
 30
0.0
 10
91.2811295047
 20
51.7660414009
 30
0.0
  0
LINE
  5
35D
100
AcDbEntity
  8
RUNDUNGEN
100
AcDbLine
 62
7
  6
CONTINUOUS
 10
101.9950843243
 20
75.9284348878
 11
104.2695221421
 21
81.9284348858
  0
LINE
  5
35E
100
AcDbEntity
  8
RUNDUNGEN
100
AcDbLine
 62
7
  6
CONTINUOUS
 10
103.4667491283
 20
85.863033738
 11
104.1446571869
 21
85.6427680575
  0
SPLINE
  5
35F
100
AcDbEntity
  8
RUNDUNGEN
100
AcDbSpline
 62
7
  6
CONTINUOUS
 70
0
 71
3
 72
9
 73
5
 74
0
 42
0.0000001
 43
0.0000001
 44
0.0000000001
 40
0.0
 40
0.0
 40
0.0
 40
0.0
 40
0.6135454596
 40
1.0
 40
1.0
 40
1.0
 40
1.0
 10
102.8798885121
 20
84.0667279533
 30
0.0
 10
102.9993176628
 20
84.4342932138
 30
0.0
 10
103.1945419047
 20
85.0331867998
 30
0.0
 10
103.3894264017
 20
85.6322071521
 30
0.0
 10
103.4667491283
 20
85.863033738
 30
0.0
  0
LINE
  5
360
100
AcDbEntity
  8
RUNDUNGEN
100
AcDbLine
 62
7
  6
CONTINUOUS
 10
93.7165669279
 20
52.9284359927
 11
100.9936187103
 21
75.3248893411
  0
LINE
  5
361
100
AcDbEntity
  8
RUNDUNGEN
100
AcDbLine
 62
7
  6
CONTINUOUS
 10
100.9936187103
 20
75.3248893411
 11
102.0401845143
 21
78.5458848863
  0
LINE
  5
362
100
AcDbEntity
  8
RUNDUNGEN
100
AcDbLine
 62
7
  6
CONTINUOUS
 10
102.0401845143
 20
78.5458848863
 11
102.0760384882
 21
78.6562321093
  0
LINE
  5
363
100
AcDbEntity
  8
RUNDUNGEN
100
AcDbLine
 62
7
  6
CONTINUOUS
 10
102.0760384882
 20
78.6562321093
 11
103.1391718356
 21
81.9282254296
  0
SPLINE
  5
364
100
AcDbEntity
  8
RUNDUNGEN
100
AcDbSpline
 62
7
  6
CONTINUOUS
 70
0
 71
3
 72
13
 73
9
 74
0
 42
0.0000001
 43
0.0000001
 44
0.0000000001
 40
0.0
 40
0.0
 40
0.0
 40
0.0
 40
0.1569054593
 40
0.2987976019
 40
0.4294571555
 40
0.5519527411
 40
0.7806323123
 40
1.0
 40
1.0
 40
1.0
 40
1.0
 10
104.420495758
 20
85.843332301
 30
0.0
 10
104.4396532562
 20
86.0092325802
 30
0.0
 10
104.4319708276
 20
86.332052733
 30
0.0
 10
104.3017912088
 20
86.7748192005
 30
0.0
 10
104.0897553432
 20
87.1421789251
 30
0.0
 10
103.7428707156
 20
87.5241878696
 30
0.0
 10
103.20878324
 20
87.8441887792
 30
0.0
 10
102.7278734166
 20
87.9285960852
 30
0.0
 10
102.4943889063
 20
87.9284348858
 30
0.0
  0
SPLINE
  5
365
100
AcDbEntity
  8
RUNDUNGEN
100
AcDbSpline
 62
7
  6
CONTINUOUS
 70
0
 71
3
 72
11
 73
7
 74
0
 42
0.0000001
 43
0.0000001
 44
0.0000000001
 40
0.0
 40
0.0
 40
0.0
 40
0.0
 40
0.235951058
 40
0.4777893657
 40
0.7298243811
 40
1.0
 40
1.0
 40
1.0
 40
1.0
 10
102.4943889063
 20
87.9284348858
 30
0.0
 10
102.3341492872
 20
87.9285131195
 30
0.0
 10
102.0084292197
 20
87.8882600081
 30
0.0
 10
101.5409224553
 20
87.7091623719
 30
0.0
 10
101.1153474733
 20
87.4021581561
 30
0.0
 10
100.8921130176
 20
87.1188014127
 30
0.0
 10
100.8012568716
 20
86.9593933951
 30
0.0
  0
LINE
  5
366
100
AcDbEntity
  8
RUNDUNGEN
100
AcDbLine
 62
7
  6
CONTINUOUS
 10
101.8953335013
 20
84.386629305
 11
93.0928246996
 21
57.2952925805
  0
LINE
  5
367
100
AcDbEntity
  8
RUNDUNGEN
100
AcDbLine
 62
7
  6
CONTINUOUS
 10
93.1263239293
 20
57.284408021
 11
101.9288329067
 21
84.3757446884
  0
SPLINE
  5
368
100
AcDbEntity
  8
RUNDUNGEN
100
AcDbSpline
 62
7
  6
CONTINUOUS
 70
0
 71
3
 72
12
 73
8
 74
0
 42
0.0000001
 43
0.0000001
 44
0.0000000001
 40
0.0
 40
0.0
 40
0.0
 40
0.0
 40
0.1547865203
 40
0.3014737406
 40
0.5596206911
 40
0.784747185
 40
1.0
 40
1.0
 40
1.0
 40
1.0
 10
89.9009086641
 20
52.9024528826
 30
0.0
 10
89.8827137973
 20
52.7636027048
 30
0.0
 10
89.8802933416
 20
52.4875667442
 30
0.0
 10
89.9947016842
 20
51.9907102705
 30
0.0
 10
90.2985607405
 20
51.4879026742
 30
0.0
 10
90.8131577929
 20
51.1002406697
 30
0.0
 10
91.2024514667
 20
50.9797556858
 30
0.0
 10
91.3955705738
 20
50.9546681648
 30
0.0
  0
SPLINE
  5
369
100
AcDbEntity
  8
RUNDUNGEN
100
AcDbSpline
 62
7
  6
CONTINUOUS
 70
0
 71
3
 72
9
 73
5
 74
0
 42
0.0000001
 43
0.0000001
 44
0.0000000001
 40
0.0
 40
0.0
 40
0.0
 40
0.0
 40
0.5457202176
 40
1.0
 40
1.0
 40
1.0
 40
1.0
 10
91.3955705738
 20
50.9546681648
 30
0.0
 10
91.5034990649
 20
50.9406474998
 30
0.0
 10
91.7043510739
 20
50.9338046755
 30
0.0
 10
91.9024793534
 20
50.963664067
 30
0.0
 10
91.9907472806
 20
50.9840834918
 30
0.0
  0
SPLINE
  5
36A
100
AcDbEntity
  8
RUNDUNGEN
100
AcDbSpline
 62
7
  6
CONTINUOUS
 70
0
 71
3
 72
9
 73
5
 74
0
 42
0.0000001
 43
0.0000001
 44
0.0000000001
 40
0.0
 40
0.0
 40
0.0
 40
0.0
 40
0.3864592593
 40
1.0
 40
1.0
 40
1.0
 40
1.0
 10
101.5253350217
 20
86.4938152889
 30
0.0
 10
101.452213307
 20
86.2616234318
 30
0.0
 10
101.2577835567
 20
85.6624627026
 30
0.0
 10
101.0637048524
 20
85.0632042868
 30
0.0
 10
100.944277873
 20
84.6956459733
 30
0.0
  0
LINE
  5
36B
100
AcDbEntity
  8
RUNDUNGEN
100
AcDbLine
 62
7
  6
CONTINUOUS
 10
90.6297587405
 20
52.9973356539
 11
89.9706118
 21
53.2115054775
  0
ELLIPSE
  5
36C
100
AcDbEntity
  8
0
100
AcDbEllipse
 62
7
  6
CONTINUOUS
 10
79.0746312741
 20
146.1988568041
 30
0.0
 11
0.0
 21
2.745
 31
0.0
 40
0.2867453858
 41
-3.1415926536
 42
0.0
  0
ELLIPSE
  5
36D
100
AcDbEntity
  8
0
100
AcDbEllipse
 62
7
  6
CONTINUOUS
 10
95.1746728674
 20
146.1988568041
 30
0.0
 11
0.0
 21
2.745
 31
0.0
 40
0.3249196962
 41
0.0
 42
3.1415926536
  0
ELLIPSE
  5
36E
100
AcDbEntity
  8
0
100
AcDbEllipse
 62
7
  6
CONTINUOUS
 10
97.6148197861
 20
146.1988568041
 30
0.0
 11
0.0
 21
2.745
 31
0.0
 40
0.3249196962
 41
-3.1415926536
 42
0.0
  0
ELLIPSE
  5
36F
100
AcDbEntity
  8
0
100
AcDbEllipse
 62
7
  6
CONTINUOUS
 10
76.9211734271
 20
146.1988568041
 30
0.0
 11
0.0
 21
2.745
 31
0.0
 40
0.2867453858
 41
0.0
 42
3.1415926536
  0
ENDSEC
  0
SECTION
  2
OBJECTS
  0
DICTIONARY
  5
C
100
AcDbDictionary
280
0
281
1
  3
ACAD_GROUP
350
D
  3
ACAD_MLINESTYLE
350
17
  3
ACAD_LAYOUT
350
1A
  3
ACAD_PLOTSETTINGS
350
19
  3
ACAD_PLOTSTYLENAME
350
E
  0
DICTIONARY
  5
D
102
{ACAD_REACTORS
330
C
102
}
100
AcDbDictionary
280
0
281
1
  0
ACDBDICTIONARYWDFLT
  5
E
102
{ACAD_REACTORS
330
C
102
}
100
AcDbDictionary
281
1
  3
Normal
350
F
100
AcDbDictionaryWithDefault
340
F
  0
DICTIONARY
  5
17
102
{ACAD_REACTORS
330
C
102
}
100
AcDbDictionary
280
0
281
1
  3
Standard
350
18
  0
DICTIONARY
  5
19
102
{ACAD_REACTORS
330
C
102
}
100
AcDbDictionary
281
1
  0
DICTIONARY
  5
1A
102
{ACAD_REACTORS
330
C
102
}
100
AcDbDictionary
281
1
  3
Model
350
370
  3
Layout1
350
371
  0
ACDBPLACEHOLDER
  5
F
102
{ACAD_REACTORS
330
E
102
}
  0
MLINESTYLE
  5
18
102
{ACAD_REACTORS
330
17
102
}
100
AcDbMlineStyle
  2
STANDARD
 70
0
  3

 62
256
 51
90.0
 52
90.0
 71
2
 49
0.5
 62
256
  6
BYLAYER
 49
-0.5
 62
256
  6
BYLAYER
  0
LAYOUT
  5
370
102
{ACAD_REACTORS
330
1A
102
}
100
AcDbPlotSettings
  1

  2
none_device
  4
ISO_A4_(297.00_x_210.00_MM)
  6

 40
0.0
 41
0.0
 42
0.0
 43
0.0
 44
297.0
 45
210.0
 46
0.0
 47
0.0
 48
0.0
 49
0.0
140
0.0
141
0.0
142
1.0
143
1.0
 70
1024
 72
1
 73
0
 74
0
  7

 75
0
147
1.0
148
0.0
149
0.0
100
AcDbLayout
  1
Model
 70
0
 71
0
 10
0.0
 20
0.0
 11
297.0
 21
210.0
 12
0.0
 22
0.0
 32
0.0
 14
0.0
 24
0.0
 34
0.0
 15
0.0
 25
0.0
 35
0.0
146
0.0
 13
0.0
 23
0.0
 33
0.0
 16
1.0
 26
0.0
 36
0.0
 17
0.0
 27
1.0
 37
0.0
 76
0
330
20E
345
0
346
0
  0
LAYOUT
  5
371
102
{ACAD_REACTORS
330
1A
102
}
100
AcDbPlotSettings
  1

  2
none_device
  4
ISO_A4_(297.00_x_210.00_MM)
  6

 40
0.0
 41
0.0
 42
0.0
 43
0.0
 44
297.0
 45
210.0
 46
0.0
 47
0.0
 48
0.0
 49
0.0
140
0.0
141
0.0
142
1.0
143
1.0
 70
0
 72
1
 73
0
 74
0
  7

 75
0
147
1.0
148
0.0
149
0.0
100
AcDbLayout
  1
Layout1
 70
0
 71
1
 10
0.0
 20
0.0
 11
297.0
 21
210.0
 12
0.0
 22
0.0
 32
0.0
 14
0.0
 24
0.0
 34
0.0
 15
0.0
 25
0.0
 35
0.0
146
0.0
 13
0.0
 23
0.0
 33
0.0
 16
1.0
 26
0.0
 36
0.0
 17
0.0
 27
1.0
 37
0.0
 76
0
330
20F
345
0
346
0
  0
ENDSEC
  0
EOF
