999
DXF file: S:\Prolink\03_Konstruktion\CAD-Plots\Internet\2D_neu\S5\s5-45_grt_smr_sg_h25_w38.dxf
999
Pro/ENGINEER 2012230 by Parametric Technology Corporation
  0
SECTION
  2
HEADER
  9
$ACADVER
  1
AC1021
  9
$DWGCODEPAGE
  3
ANSI_1252
  9
$EXTMAX
 10
297.0
 20
210.0
 30
0.0
  9
$EXTMIN
 10
0.0
 20
0.0
 30
0.0
  9
$LIMMIN
 10
0.0
 20
0.0
  9
$LIMMAX
 10
297.0
 20
210.0
  9
$VIEWCTR
 10
148.5
 20
105.0
  9
$VIEWSIZE
 40
210.0
  9
$CLAYER
  8
0
  9
$LTSCALE
 40
16.335
  9
$CELTYPE
  6
BYLAYER
  9
$DIMSCALE
 40
1.0
  9
$DIMASZ
 40
3.5
  9
$DIMEXO
 40
0.0
  9
$DIMDLI
 40
11.286
  9
$DIMEXE
 40
1.5
  9
$DIMCEN
 40
2.673
  9
$DIMLFAC
 40
1.0
  9
$DIMBLK
  1
_FILLED
  9
$DIMTXT
 40
3.5
  9
$DIMTOL
 70
1
  9
$DIMLIM
 70
0
  9
$DIMTFAC
 40
1.0
  9
$DIMTP
 40
0.005
  9
$DIMTM
 40
0.005
  9
$DIMGAP
 40
0.625
  9
$DIMDSEP
 70
46
  9
$PDMODE
 70
3
  9
$PDSIZE
 40
0.3125
  9
$HANDSEED
  5
35E
  9
$TILEMODE
 70
1
  9
$MEASUREMENT
 70
1
  9
$INSUNITS
 70
4
  0
ENDSEC
  0
SECTION
  2
CLASSES
  0
CLASS
  1
ACDBDICTIONARYWDFLT
  2
AcDbDictionaryWithDefault
  3
AutoCAD 2000
 90
0
 91
1
280
0
281
0
  0
CLASS
  1
ACDBPLACEHOLDER
  2
AcDbPlaceHolder
  3
AutoCAD 2000
 90
0
 91
1
280
0
281
0
  0
CLASS
  1
LAYOUT
  2
AcDbLayout
  3
AutoCAD 2000
 90
0
 91
0
280
0
281
0
  0
ENDSEC
  0
SECTION
  2
TABLES
  0
TABLE
  2
VPORT
  5
8
100
AcDbSymbolTable
 70
2
  0
VPORT
  5
1F4
100
AcDbSymbolTableRecord
100
AcDbViewportTableRecord
  2
*ACTIVE
 70
0
 10
0.0
 20
0.0
 11
1.0
 21
1.0
 12
148.5
 22
105.0
 13
0.0
 23
0.0
 14
1.0
 24
1.0
 15
0.0
 25
0.0
 16
0.0
 26
0.0
 36
1.0
 17
0.0
 27
0.0
 37
0.0
 40
210.0
 41
1.4142857143
 42
50.0
 43
0.0
 44
0.0
 50
0.0
 51
0.0
 71
0
 72
100
 73
1
 74
1
 75
0
 76
0
 77
0
 78
0
  0
ENDTAB
  0
TABLE
  2
LTYPE
  5
5
100
AcDbSymbolTable
 70
6
  0
LTYPE
  5
14
100
AcDbSymbolTableRecord
100
AcDbLinetypeTableRecord
  2
BYBLOCK
 70
0
  3

 72
65
 73
0
 40
0.0
  0
LTYPE
  5
15
100
AcDbSymbolTableRecord
100
AcDbLinetypeTableRecord
  2
BYLAYER
 70
0
  3

 72
65
 73
0
 40
0.0
  0
LTYPE
  5
16
100
AcDbSymbolTableRecord
100
AcDbLinetypeTableRecord
  2
CONTINUOUS
 70
64
  3
Solid line
 72
65
 73
0
 40
0.0
  0
LTYPE
  5
1F5
100
AcDbSymbolTableRecord
100
AcDbLinetypeTableRecord
  2
CENTER
 70
64
  3
____ _ ____ _ ____ _ ____ _ ____ _ ____ _ ____
 72
65
 73
4
 40
0.6
 49
0.375
 74
0
 49
-0.075
 74
0
 49
0.075
 74
0
 49
-0.075
 74
0
  0
LTYPE
  5
1F6
100
AcDbSymbolTableRecord
100
AcDbLinetypeTableRecord
  2
HIDDEN
 70
64
  3
- - - - - - - - - - - - - - - - - - - -
 72
65
 73
2
 40
0.2
 49
0.1
 74
0
 49
-0.1
 74
0
  0
LTYPE
  5
1F7
100
AcDbSymbolTableRecord
100
AcDbLinetypeTableRecord
  2
PHANTOM
 70
64
  3
_____ _ _ _____ _ _ _____ _ _ _____
 72
65
 73
6
 40
0.8
 49
0.45
 74
0
 49
-0.05
 74
0
 49
0.1
 74
0
 49
-0.05
 74
0
 49
0.1
 74
0
 49
-0.05
 74
0
  0
LTYPE
  5
1F8
100
AcDbSymbolTableRecord
100
AcDbLinetypeTableRecord
  2
DOT
 70
64
  3
. . . . . . . . . . . . . . . . . . . .
 72
65
 73
2
 40
0.2
 49
0.1
 74
0
 49
-0.1
 74
0
  0
LTYPE
  5
1F9
100
AcDbSymbolTableRecord
100
AcDbLinetypeTableRecord
  2
DASHED
 70
64
  3
- - - - - - - - - - - - - - - - - - - -
 72
65
 73
2
 40
0.2
 49
0.1
 74
0
 49
-0.1
 74
0
  0
ENDTAB
  0
TABLE
  2
LAYER
  5
2
100
AcDbSymbolTable
 70
36
  0
LAYER
  5
10
100
AcDbSymbolTableRecord
100
AcDbLayerTableRecord
  2
0
 70
0
 62
7
  6
CONTINUOUS
370
-3
390
F
  0
LAYER
  5
1FA
100
AcDbSymbolTableRecord
100
AcDbLayerTableRecord
  2
DEFAULT_1
 70
0
 62
7
  6
CENTER
370
-3
390
F
  0
LAYER
  5
1FB
100
AcDbSymbolTableRecord
100
AcDbLayerTableRecord
  2
DEFAULT_2
 70
0
 62
8
  6
HIDDEN
370
-3
390
F
  0
LAYER
  5
1FC
100
AcDbSymbolTableRecord
100
AcDbLayerTableRecord
  2
DEFAULT_3
 70
0
 62
7
  6
PHANTOM
370
-3
390
F
  0
LAYER
  5
1FD
100
AcDbSymbolTableRecord
100
AcDbLayerTableRecord
  2
01___PRT_ALL_DTM_PLN
 70
0
 62
7
  6
CONTINUOUS
370
-3
390
F
  0
LAYER
  5
1FE
100
AcDbSymbolTableRecord
100
AcDbLayerTableRecord
  2
01___PRT_DEF_DTM_PLN
 70
0
 62
7
  6
CONTINUOUS
370
-3
390
F
  0
LAYER
  5
1FF
100
AcDbSymbolTableRecord
100
AcDbLayerTableRecord
  2
02___PRT_ALL_AXES
 70
0
 62
7
  6
CONTINUOUS
370
-3
390
F
  0
LAYER
  5
200
100
AcDbSymbolTableRecord
100
AcDbLayerTableRecord
  2
03___PRT_ALL_CURVES
 70
0
 62
7
  6
CONTINUOUS
370
-3
390
F
  0
LAYER
  5
201
100
AcDbSymbolTableRecord
100
AcDbLayerTableRecord
  2
04___PRT_ALL_DTM_PNT
 70
0
 62
7
  6
CONTINUOUS
370
-3
390
F
  0
LAYER
  5
202
100
AcDbSymbolTableRecord
100
AcDbLayerTableRecord
  2
05___PRT_ALL_DTM_CSYS
 70
0
 62
7
  6
CONTINUOUS
370
-3
390
F
  0
LAYER
  5
203
100
AcDbSymbolTableRecord
100
AcDbLayerTableRecord
  2
05___PRT_DEF_DTM_CSYS
 70
0
 62
7
  6
CONTINUOUS
370
-3
390
F
  0
LAYER
  5
204
100
AcDbSymbolTableRecord
100
AcDbLayerTableRecord
  2
06___PRT_ALL_SURFS
 70
0
 62
7
  6
CONTINUOUS
370
-3
390
F
  0
LAYER
  5
205
100
AcDbSymbolTableRecord
100
AcDbLayerTableRecord
  2
AUSFORMSCHRAEGEN
 70
0
 62
7
  6
CONTINUOUS
370
-3
390
F
  0
LAYER
  5
206
100
AcDbSymbolTableRecord
100
AcDbLayerTableRecord
  2
BEZUGSACHSEN
 70
0
 62
7
  6
CONTINUOUS
370
-3
390
F
  0
LAYER
  5
207
100
AcDbSymbolTableRecord
100
AcDbLayerTableRecord
  2
BEZUGSEBENE
 70
0
 62
7
  6
CONTINUOUS
370
-3
390
F
  0
LAYER
  5
208
100
AcDbSymbolTableRecord
100
AcDbLayerTableRecord
  2
BEZUGSEBENEN
 70
0
 62
7
  6
CONTINUOUS
370
-3
390
F
  0
LAYER
  5
209
100
AcDbSymbolTableRecord
100
AcDbLayerTableRecord
  2
BEZUGSEBENEN-KES
 70
0
 62
7
  6
CONTINUOUS
370
-3
390
F
  0
LAYER
  5
20A
100
AcDbSymbolTableRecord
100
AcDbLayerTableRecord
  2
KURVEN
 70
0
 62
7
  6
CONTINUOUS
370
-3
390
F
  0
LAYER
  5
20B
100
AcDbSymbolTableRecord
100
AcDbLayerTableRecord
  2
RUNDUNGEN
 70
0
 62
7
  6
CONTINUOUS
370
-3
390
F
  0
ENDTAB
  0
TABLE
  2
STYLE
  5
3
100
AcDbSymbolTable
 70
1
  0
STYLE
  5
11
100
AcDbSymbolTableRecord
100
AcDbTextStyleTableRecord
  2
STANDARD
 70
0
 40
0.0
 41
0.7
 50
0.0
 71
0
 42
0.2
  3
txt
  4

  0
STYLE
  5
20C
100
AcDbSymbolTableRecord
100
AcDbTextStyleTableRecord
  2
TEXTSTYLE_1
 70
0
 40
0.0
 41
0.8
 50
0.0
 71
0
 42
0.2
  3
gdt
  4

  0
ENDTAB
  0
TABLE
  2
VIEW
  5
6
100
AcDbSymbolTable
 70
0
  0
ENDTAB
  0
TABLE
  2
UCS
  5
7
100
AcDbSymbolTable
 70
0
  0
ENDTAB
  0
TABLE
  2
APPID
  5
9
100
AcDbSymbolTable
 70
1
  0
APPID
  5
20D
100
AcDbSymbolTableRecord
100
AcDbRegAppTableRecord
  2
ACAD
 70
0
  0
ENDTAB
  0
TABLE
  2
BLOCK_RECORD
  5
1
100
AcDbSymbolTable
 70
0
  0
BLOCK_RECORD
  5
20E
100
AcDbSymbolTableRecord
100
AcDbBlockTableRecord
  2
*Model_Space
  0
BLOCK_RECORD
  5
20F
100
AcDbSymbolTableRecord
100
AcDbBlockTableRecord
  2
*Paper_Space
  0
ENDTAB
  0
TABLE
  2
DIMSTYLE
  5
A
100
AcDbSymbolTable
 70
1
100
AcDbDimStyleTable
 71
0
  0
DIMSTYLE
105
210
100
AcDbSymbolTableRecord
100
AcDbDimStyleTableRecord
  2
STANDARD
 70
0
  3

  4

 40
1.0
 41
3.5
 42
0.0
 43
0.38
 44
1.5
 45
0.0
 46
0.0
 47
0.005
 48
0.005
140
3.5
141
0.09
142
0.0
143
25.4
144
1.0
145
0.0
146
1.0
147
0.625
 71
1.0
 72
0.0
 73
0
 74
0
 75
0
 76
0
 77
1
 78
8
170
0
171
2
172
0
173
0
174
0
175
0
176
0
177
0
178
5
270
2
271
3
272
3
273
2
274
2
275
0
280
0
281
0
282
0
283
1
284
8
285
0
286
0
287
3
288
0
340
11
278
46
  0
ENDTAB
  0
ENDSEC
  0
SECTION
  2
BLOCKS
  0
BLOCK
  5
20
100
AcDbEntity
  8
0
100
AcDbBlockBegin
  2
*Model_Space
 70
0
 10
0.0
 20
0.0
 30
0.0
  3
*Model_Space
  1

  0
ENDBLK
  5
21
100
AcDbEntity
  8
0
100
AcDbBlockEnd
  0
BLOCK
  5
1C
100
AcDbEntity
  8
0
100
AcDbBlockBegin
  2
*Paper_Space
 70
0
 10
0.0
 20
0.0
 30
0.0
  3
*Paper_Space
  1

  0
ENDBLK
  5
1D
100
AcDbEntity
  8
0
100
AcDbBlockEnd
  0
ENDSEC
  0
SECTION
  2
ENTITIES
  0
LINE
  5
211
100
AcDbEntity
  8
0
100
AcDbLine
 62
7
  6
CONTINUOUS
 10
0.0
 20
0.0
 11
0.0
 21
210.0
  0
LINE
  5
212
100
AcDbEntity
  8
0
100
AcDbLine
 62
7
  6
CONTINUOUS
 10
0.0
 20
0.0
 11
297.0
 21
0.0
  0
LINE
  5
213
100
AcDbEntity
  8
0
100
AcDbLine
 62
7
  6
CONTINUOUS
 10
0.0
 20
210.0
 11
297.0
 21
210.0
  0
LINE
  5
214
100
AcDbEntity
  8
0
100
AcDbLine
 62
7
  6
CONTINUOUS
 10
297.0
 20
0.0
 11
297.0
 21
210.0
  0
LINE
  5
215
100
AcDbEntity
  8
0
100
AcDbLine
 62
7
  6
CONTINUOUS
 10
67.767578125
 20
141.2031389483
 11
67.767578125
 21
142.2031287202
  0
LINE
  5
216
100
AcDbEntity
  8
RUNDUNGEN
100
AcDbLine
 62
7
  6
CONTINUOUS
 10
67.767578125
 20
142.2031287202
 11
67.767578125
 21
151.2031402419
  0
LINE
  5
217
100
AcDbEntity
  8
0
100
AcDbLine
 62
7
  6
CONTINUOUS
 10
68.767578125
 20
140.2031402419
 11
68.7675781258
 21
142.2033368834
  0
LINE
  5
218
100
AcDbEntity
  8
RUNDUNGEN
100
AcDbLine
 62
7
  6
CONTINUOUS
 10
68.767578125
 20
142.2033368834
 11
68.7675781258
 21
152.2031402312
  0
LINE
  5
219
100
AcDbEntity
  8
RUNDUNGEN
100
AcDbLine
 62
7
  6
CONTINUOUS
 10
72.7631042355
 20
140.2031402419
 11
72.7631042355
 21
152.2031402419
  0
LINE
  5
21A
100
AcDbEntity
  8
RUNDUNGEN
100
AcDbLine
 62
7
  6
CONTINUOUS
 10
74.6856279075
 20
140.3032301608
 11
74.6856278997
 21
152.1030501641
  0
LINE
  5
21B
100
AcDbEntity
  8
RUNDUNGEN
100
AcDbLine
 62
7
  6
CONTINUOUS
 10
80.4499409165
 20
152.0295374642
 11
80.4499409165
 21
140.3767430196
  0
LINE
  5
21C
100
AcDbEntity
  8
02___PRT_ALL_AXES
100
AcDbLine
 62
7
  6
CONTINUOUS
 10
105.267578125
 20
140.2031402419
 11
104.2695221424
 21
140.2031402419
  0
LINE
  5
21D
100
AcDbEntity
  8
0
100
AcDbLine
 62
7
  6
CONTINUOUS
 10
68.767578125
 20
140.2031402419
 11
72.7631042355
 21
140.2031402419
  0
LINE
  5
21E
100
AcDbEntity
  8
RUNDUNGEN
100
AcDbLine
 62
7
  6
CONTINUOUS
 10
72.7631042355
 20
140.2031402419
 11
104.2695221424
 21
140.2031402419
  0
LINE
  5
21F
100
AcDbEntity
  8
RUNDUNGEN
100
AcDbLine
 62
7
  6
CONTINUOUS
 10
82.3724643084
 20
150.2031402419
 11
82.3724643084
 21
142.2031402419
  0
LINE
  5
220
100
AcDbEntity
  8
RUNDUNGEN
100
AcDbLine
 62
7
  6
CONTINUOUS
 10
67.767578125
 20
142.2031287202
 11
68.767578125
 21
142.2031287202
  0
LINE
  5
221
100
AcDbEntity
  8
RUNDUNGEN
100
AcDbLine
 62
7
  6
CONTINUOUS
 10
82.3724643084
 20
142.2031402419
 11
91.6924643084
 21
142.2031402419
  0
LINE
  5
222
100
AcDbEntity
  8
0
100
AcDbLine
 62
7
  6
CONTINUOUS
 10
97.6148197861
 20
143.4581402419
 11
95.1746728674
 21
143.4581402419
  0
LINE
  5
223
100
AcDbEntity
  8
0
100
AcDbLine
 62
7
  6
CONTINUOUS
 10
76.9211734271
 20
143.4581402419
 11
79.0746312741
 21
143.4581402419
  0
LINE
  5
224
100
AcDbEntity
  8
RUNDUNGEN
100
AcDbLine
 62
7
  6
CONTINUOUS
 10
90.279848953
 20
173.5283492545
 11
90.2797771879
 21
173.5278931098
  0
LWPOLYLINE
  5
225
100
AcDbEntity
  8
RUNDUNGEN
100
AcDbPolyline
 62
7
  6
CONTINUOUS
 90
3
 70
0
 10
90.279848953
 20
173.5283492545
 10
90.2523848072
 20
173.2628473348
 10
90.2485240495
 20
173.1356816086
  0
LINE
  5
226
100
AcDbEntity
  8
RUNDUNGEN
100
AcDbLine
 62
7
  6
CONTINUOUS
 10
90.2485347505
 20
173.1371397106
 11
90.2485237188
 21
173.1356455949
  0
LWPOLYLINE
  5
227
100
AcDbEntity
  8
0
100
AcDbPolyline
 62
7
  6
CONTINUOUS
 90
3
 70
0
 10
90.2485350445
 20
173.137172337
 10
90.2081863953
 20
169.7238330374
 10
90.1452575153
 20
165.9078500324
  0
LINE
  5
228
100
AcDbEntity
  8
RUNDUNGEN
100
AcDbLine
 62
7
  6
CONTINUOUS
 10
89.9033501995
 20
152.3856872437
 11
89.9033487032
 21
152.3855690288
  0
LWPOLYLINE
  5
229
100
AcDbEntity
  8
0
100
AcDbPolyline
 62
7
  6
CONTINUOUS
 90
4
 70
0
 10
90.1452575153
 20
165.9078500324
 10
89.9968547084
 20
158.1988080737
 10
89.9301081706
 20
154.3055188977
 10
89.9033590351
 20
152.3863917828
  0
LWPOLYLINE
  5
22A
100
AcDbEntity
  8
RUNDUNGEN
100
AcDbPolyline
 62
7
  6
CONTINUOUS
 90
9
 70
0
 10
89.9033573666
 20
152.386254871
 10
89.903117633
 20
152.3790702882
 10
89.8976971978
 20
152.3438117543
 10
89.8839916971
 20
152.3069611303
 10
89.8621699732
 20
152.2728400212
 10
89.8332788137
 20
152.2439144376
 10
89.7991263969
 20
152.2220503736
 10
89.7639043153
 20
152.2088372254
 10
89.7329263155
 20
152.2036009443
  0
LINE
  5
22B
100
AcDbEntity
  8
0
100
AcDbLine
 62
7
  6
CONTINUOUS
 10
79.0746312741
 20
148.9481402419
 11
76.9211734271
 21
148.9481402419
  0
LINE
  5
22C
100
AcDbEntity
  8
0
100
AcDbLine
 62
7
  6
CONTINUOUS
 10
95.1746728674
 20
148.9481402419
 11
97.6148197861
 21
148.9481402419
  0
LINE
  5
22D
100
AcDbEntity
  8
RUNDUNGEN
100
AcDbLine
 62
7
  6
CONTINUOUS
 10
82.3724643084
 20
150.2031402419
 11
91.6924643084
 21
150.2031402419
  0
LINE
  5
22E
100
AcDbEntity
  8
RUNDUNGEN
100
AcDbLine
 62
7
  6
CONTINUOUS
 10
67.767578125
 20
150.2031518992
 11
68.767578125
 21
150.2031518966
  0
LINE
  5
22F
100
AcDbEntity
  8
RUNDUNGEN
100
AcDbLine
 62
7
  6
CONTINUOUS
 10
91.6924643084
 20
150.2031402419
 11
91.6924643084
 21
142.2031402419
  0
LINE
  5
230
100
AcDbEntity
  8
RUNDUNGEN
100
AcDbLine
 62
7
  6
CONTINUOUS
 10
93.594577341
 20
152.1052532745
 11
93.594577341
 21
140.3010272093
  0
LINE
  5
231
100
AcDbEntity
  8
RUNDUNGEN
100
AcDbLine
 62
7
  6
CONTINUOUS
 10
89.7329263155
 20
152.2036009443
 11
89.7216581505
 21
152.2031100352
  0
LINE
  5
232
100
AcDbEntity
  8
02___PRT_ALL_AXES
100
AcDbLine
 62
7
  6
CONTINUOUS
 10
105.267578125
 20
152.2031402419
 11
104.2695221421
 21
152.2031402419
  0
LINE
  5
233
100
AcDbEntity
  8
RUNDUNGEN
100
AcDbLine
 62
7
  6
CONTINUOUS
 10
68.767578125
 20
152.2031402419
 11
89.7200533489
 21
152.2031402419
  0
LINE
  5
234
100
AcDbEntity
  8
RUNDUNGEN
100
AcDbLine
 62
7
  6
CONTINUOUS
 10
93.6984653074
 20
152.2031402419
 11
104.2695221421
 21
152.2031402419
  0
LWPOLYLINE
  5
235
100
AcDbEntity
  8
0
100
AcDbPolyline
 62
7
  6
CONTINUOUS
 90
6
 70
0
 10
104.2025836672
 20
152.2031402419
 10
104.1576648681
 20
155.531190982
 10
104.0681645034
 20
160.403160917
 10
103.9718558031
 20
165.3734562197
 10
103.889120952
 20
170.4424571118
 10
103.8438802437
 20
175.3364558817
  0
LINE
  5
236
100
AcDbEntity
  8
RUNDUNGEN
100
AcDbLine
 62
7
  6
CONTINUOUS
 10
103.8438804489
 20
175.3364358964
 11
103.8435614371
 21
175.3626710961
  0
LINE
  5
237
100
AcDbEntity
  8
02___PRT_ALL_AXES
100
AcDbLine
 62
7
  6
CONTINUOUS
 10
105.267578125
 20
140.2031402419
 11
105.267578125
 21
152.2031402419
  0
LWPOLYLINE
  5
238
100
AcDbEntity
  8
RUNDUNGEN
100
AcDbPolyline
 62
7
  6
CONTINUOUS
 90
3
 70
0
 10
103.8435614371
 20
175.3626710961
 10
103.8255443739
 20
175.5737453797
 10
103.7953930862
 20
175.7212625527
  0
LINE
  5
239
100
AcDbEntity
  8
RUNDUNGEN
100
AcDbLine
 62
7
  6
CONTINUOUS
 10
103.7952892775
 20
175.721667686
 11
103.7953930862
 21
175.7212625527
  0
LWPOLYLINE
  5
23A
100
AcDbEntity
  8
RUNDUNGEN
100
AcDbPolyline
 62
7
  6
CONTINUOUS
 90
12
 70
0
 10
103.7952815246
 20
175.721665684
 10
103.7444123752
 20
175.9019189399
 10
103.6612091394
 20
176.1402064595
 10
103.568826146
 20
176.3481539814
 10
103.4653878305
 20
176.5323289044
 10
103.3474239522
 20
176.6977172475
 10
103.2138670733
 20
176.8434353047
 10
103.063342947
 20
176.968547349
 10
102.8981916474
 20
177.0692305916
 10
102.723134091
 20
177.1423637992
 10
102.5418640697
 20
177.1870462452
 10
102.3508483562
 20
177.203111069
  0
LWPOLYLINE
  5
23B
100
AcDbEntity
  8
RUNDUNGEN
100
AcDbPolyline
 62
7
  6
CONTINUOUS
 90
15
 70
0
 10
92.6706399318
 20
177.2031205462
 10
92.5356881339
 20
177.1965532088
 10
92.2837957086
 20
177.1507330103
 10
92.0329339102
 20
177.058928516
 10
91.7953123224
 20
176.9238161574
 10
91.5786321812
 20
176.7521208996
 10
91.3811698696
 20
176.5464781357
 10
91.2032177208
 20
176.3114562665
 10
91.0377417455
 20
176.0405368578
 10
90.8803842711
 20
175.7244537651
 10
90.7315326879
 20
175.3589106478
 10
90.5899442415
 20
174.9324963333
 10
90.4625056584
 20
174.4581539212
 10
90.3542354236
 20
173.955666505
 10
90.2797818534
 20
173.5278923785
  0
LINE
  5
23C
100
AcDbEntity
  8
0
100
AcDbLine
 62
7
  6
CONTINUOUS
 10
92.6747208974
 20
177.2031402419
 11
93.3317564378
 21
177.2031402419
  0
LINE
  5
23D
100
AcDbEntity
  8
0
100
AcDbLine
 62
7
  6
CONTINUOUS
 10
101.6899012615
 20
177.2031402419
 11
102.3469370301
 21
177.2031402419
  0
LINE
  5
23E
100
AcDbEntity
  8
RUNDUNGEN
100
AcDbLine
 62
7
  6
CONTINUOUS
 10
92.6706399318
 20
177.2031205462
 11
102.3508483562
 21
177.203111069
  0
LINE
  5
23F
100
AcDbEntity
  8
RUNDUNGEN
100
AcDbLine
 62
7
  6
CONTINUOUS
 10
188.691887587
 20
176.0885566222
 11
188.6918588399
 21
176.0885198684
  0
LWPOLYLINE
  5
240
100
AcDbEntity
  8
RUNDUNGEN
100
AcDbPolyline
 62
7
  6
CONTINUOUS
 90
14
 70
0
 10
188.6918439836
 20
176.0885314937
 10
188.6314295245
 20
176.0075979586
 10
188.558420727
 20
175.8984236619
 10
188.4954301616
 20
175.7916189718
 10
188.4410068783
 20
175.686965699
 10
188.394189046
 20
175.5845323745
 10
188.354301687
 20
175.4845517315
 10
188.3203692702
 20
175.3857935085
 10
188.2926282452
 20
175.2898772164
 10
188.2706211056
 20
175.1966266001
 10
188.254192042
 20
175.1067211543
 10
188.2432489571
 20
175.0212882538
 10
188.2373793006
 20
174.9372232267
 10
188.2364146796
 20
174.893978895
  0
LINE
  5
241
100
AcDbEntity
  8
RUNDUNGEN
100
AcDbLine
 62
7
  6
CONTINUOUS
 10
185.8369773293
 20
150.2031402419
 11
185.8369773293
 21
142.2031402419
  0
LINE
  5
242
100
AcDbEntity
  8
RUNDUNGEN
100
AcDbLine
 62
7
  6
CONTINUOUS
 10
186.8369773293
 20
150.2031402419
 11
186.8369773293
 21
142.2031402419
  0
LINE
  5
243
100
AcDbEntity
  8
0
100
AcDbLine
 62
7
  6
CONTINUOUS
 10
187.8369773293
 20
140.2031402419
 11
187.8369773293
 21
141.8031402419
  0
LINE
  5
244
100
AcDbEntity
  8
RUNDUNGEN
100
AcDbLine
 62
7
  6
CONTINUOUS
 10
187.8369773293
 20
151.2031402419
 11
187.8369773334
 21
152.2031402419
  0
LINE
  5
245
100
AcDbEntity
  8
RUNDUNGEN
100
AcDbLine
 62
7
  6
CONTINUOUS
 10
188.2364158378
 20
174.8939118013
 11
188.2364164443
 21
174.8940306911
  0
LWPOLYLINE
  5
246
100
AcDbEntity
  8
0
100
AcDbPolyline
 62
7
  6
CONTINUOUS
 90
6
 70
0
 10
188.2364156578
 20
174.8938788695
 10
188.193447112
 20
170.4470154801
 10
188.1108674776
 20
165.3812786163
 10
188.014711104
 20
160.4120529455
 10
187.9253320834
 20
155.5391072998
 10
187.8802692624
 20
152.2025555494
  0
LINE
  5
247
100
AcDbEntity
  8
0
100
AcDbLine
 62
7
  6
CONTINUOUS
 10
199.8369773293
 20
140.2031402419
 11
199.8369773293
 21
141.8031402419
  0
LINE
  5
248
100
AcDbEntity
  8
RUNDUNGEN
100
AcDbLine
 62
7
  6
CONTINUOUS
 10
199.8369889865
 20
151.2031402419
 11
199.8369889865
 21
152.2031402419
  0
LINE
  5
249
100
AcDbEntity
  8
0
100
AcDbLine
 62
7
  6
CONTINUOUS
 10
206.3546154195
 20
140.2031402419
 11
199.8480468941
 21
140.2031402419
  0
LINE
  5
24A
100
AcDbEntity
  8
0
100
AcDbLine
 62
7
  6
CONTINUOUS
 10
187.8369773293
 20
140.2031402419
 11
199.8369932092
 21
140.2031402419
  0
LINE
  5
24B
100
AcDbEntity
  8
RUNDUNGEN
100
AcDbLine
 62
7
  6
CONTINUOUS
 10
199.8438889122
 20
140.2031426338
 11
222.8369773293
 21
140.2031402419
  0
LINE
  5
24C
100
AcDbEntity
  8
RUNDUNGEN
100
AcDbLine
 62
7
  6
CONTINUOUS
 10
200.8369773293
 20
142.2031287202
 11
200.8369773293
 21
150.2031518992
  0
LINE
  5
24D
100
AcDbEntity
  8
RUNDUNGEN
100
AcDbLine
 62
7
  6
CONTINUOUS
 10
201.8369773293
 20
142.2033368834
 11
201.8369773293
 21
150.2029437358
  0
LINE
  5
24E
100
AcDbEntity
  8
0
100
AcDbLine
 62
7
  6
CONTINUOUS
 10
187.8369773293
 20
141.8031402419
 11
199.8369773293
 21
141.8031402419
  0
LINE
  5
24F
100
AcDbEntity
  8
RUNDUNGEN
100
AcDbLine
 62
7
  6
CONTINUOUS
 10
200.8369773293
 20
142.2031287202
 11
201.8369773293
 21
142.2031287202
  0
LINE
  5
250
100
AcDbEntity
  8
RUNDUNGEN
100
AcDbLine
 62
7
  6
CONTINUOUS
 10
186.8369773293
 20
142.2031402419
 11
185.8369773293
 21
142.203140246
  0
LINE
  5
251
100
AcDbEntity
  8
0
100
AcDbLine
 62
7
  6
CONTINUOUS
 10
211.0819773293
 20
143.4581402419
 11
218.5919773293
 21
143.4581402419
  0
LINE
  5
252
100
AcDbEntity
  8
RUNDUNGEN
100
AcDbLine
 62
7
  6
CONTINUOUS
 10
203.2857035944
 20
140.3032301608
 11
203.2857035675
 21
152.1030501641
  0
LINE
  5
253
100
AcDbEntity
  8
0
100
AcDbLine
 62
7
  6
CONTINUOUS
 10
218.5919773293
 20
148.9481402419
 11
211.0819773293
 21
148.9481402419
  0
LINE
  5
254
100
AcDbEntity
  8
RUNDUNGEN
100
AcDbLine
 62
7
  6
CONTINUOUS
 10
186.8369773293
 20
150.2031402419
 11
185.8369773293
 21
150.2031402419
  0
LINE
  5
255
100
AcDbEntity
  8
RUNDUNGEN
100
AcDbLine
 62
7
  6
CONTINUOUS
 10
200.8369773293
 20
150.2031518992
 11
201.8369773293
 21
150.2031518966
  0
LINE
  5
256
100
AcDbEntity
  8
RUNDUNGEN
100
AcDbLine
 62
7
  6
CONTINUOUS
 10
199.8369889865
 20
151.2031402419
 11
187.8369773293
 21
151.2031402419
  0
LINE
  5
257
100
AcDbEntity
  8
RUNDUNGEN
100
AcDbLine
 62
7
  6
CONTINUOUS
 10
222.8369773293
 20
152.2031402419
 11
199.8506236575
 21
152.2031402419
  0
LINE
  5
258
100
AcDbEntity
  8
0
100
AcDbLine
 62
7
  6
CONTINUOUS
 10
206.3546154195
 20
152.2031402419
 11
199.8370119385
 21
152.2031402419
  0
LINE
  5
259
100
AcDbEntity
  8
RUNDUNGEN
100
AcDbLine
 62
7
  6
CONTINUOUS
 10
199.8367822238
 20
152.2031402419
 11
187.8369773293
 21
152.2031402419
  0
LINE
  5
25A
100
AcDbEntity
  8
RUNDUNGEN
100
AcDbLine
 62
7
  6
CONTINUOUS
 10
224.8174936402
 20
150.4816298635
 11
224.8155879992
 21
150.5073569541
  0
LWPOLYLINE
  5
25B
100
AcDbEntity
  8
RUNDUNGEN
100
AcDbPolyline
 62
7
  6
CONTINUOUS
 90
13
 70
0
 10
224.4572929273
 20
172.4019851515
 10
224.4561701779
 20
172.448703373
 10
224.4520528962
 20
172.5221279157
 10
224.4452517961
 20
172.5976898695
 10
224.4359374255
 20
172.6755706352
 10
224.424293524
 20
172.7551119756
 10
224.4102673138
 20
172.8368440669
 10
224.3938184642
 20
172.9206680827
 10
224.374692597
 20
173.0073592001
 10
224.3527976273
 20
173.0968285849
 10
224.3278892692
 20
173.1893823454
 10
224.2997644224
 20
173.2849327131
 10
224.2680429647
 20
173.3837940868
  0
LWPOLYLINE
  5
25C
100
AcDbEntity
  8
0
100
AcDbPolyline
 62
7
  6
CONTINUOUS
 90
4
 70
0
 10
224.7015093358
 20
158.2031845098
 10
224.5533370436
 20
165.9126266447
 10
224.4905041353
 20
169.7271680604
 10
224.457292641
 20
172.4019013497
  0
LWPOLYLINE
  5
25D
100
AcDbEntity
  8
0
100
AcDbPolyline
 62
7
  6
CONTINUOUS
 90
3
 70
0
 10
224.815588138
 20
150.5073569749
 10
224.7681602387
 20
154.30788767
 10
224.7015093358
 20
158.2031845098
  0
LINE
  5
25E
100
AcDbEntity
  8
RUNDUNGEN
100
AcDbLine
 62
7
  6
CONTINUOUS
 10
224.4572940524
 20
172.4017648313
 11
224.4572934862
 21
172.4018215839
  0
LINE
  5
25F
100
AcDbEntity
  8
RUNDUNGEN
100
AcDbLine
 62
7
  6
CONTINUOUS
 10
223.3882520409
 20
152.0295374642
 11
223.3882520409
 21
140.3767430196
  0
LINE
  5
260
100
AcDbEntity
  8
RUNDUNGEN
100
AcDbLine
 62
7
  6
CONTINUOUS
 10
224.8369773293
 20
150.2031402419
 11
224.8369773293
 21
142.2031402419
  0
LWPOLYLINE
  5
261
100
AcDbEntity
  8
RUNDUNGEN
100
AcDbPolyline
 62
7
  6
CONTINUOUS
 90
4
 70
0
 10
224.2680429647
 20
173.3837940868
 10
224.232279156
 20
173.4862221477
 10
224.192040351
 20
173.592205238
 10
224.1467082517
 20
173.7019808468
  0
LWPOLYLINE
  5
262
100
AcDbEntity
  8
RUNDUNGEN
100
AcDbPolyline
 62
7
  6
CONTINUOUS
 90
13
 70
0
 10
224.1068068983
 20
173.7914888022
 10
223.9061282227
 20
174.1883991813
 10
223.6017760122
 20
174.6824318341
 10
223.2531704374
 20
175.1426060045
 10
222.863665921
 20
175.5648776212
 10
222.4368146203
 20
175.9454654549
 10
221.9768034629
 20
176.2808199979
 10
221.4880426293
 20
176.5677056419
 10
220.9753537434
 20
176.8035574768
 10
220.4437749308
 20
176.9861392489
 10
219.8981230936
 20
177.114009372
 10
219.3434490722
 20
177.1860214018
 10
218.9096029061
 20
177.2031294713
  0
LINE
  5
263
100
AcDbEntity
  8
RUNDUNGEN
100
AcDbLine
 62
7
  6
CONTINUOUS
 10
224.1467082517
 20
173.7019808468
 11
224.1068300151
 21
173.7914899617
  0
LWPOLYLINE
  5
264
100
AcDbEntity
  8
RUNDUNGEN
100
AcDbPolyline
 62
7
  6
CONTINUOUS
 90
11
 70
0
 10
190.95017042
 20
177.203129208
 10
190.7986847587
 20
177.1990253993
 10
190.5150947131
 20
177.1692481189
 10
190.2354567769
 20
177.1107908174
 10
189.9624469628
 20
177.0241523718
 10
189.6986087182
 20
176.9100016392
 10
189.4466375731
 20
176.7694472192
 10
189.2091124452
 20
176.6037815968
 10
188.9883090068
 20
176.4145184659
 10
188.7863812559
 20
176.2033259551
 10
188.691887587
 20
176.0885566222
  0
LINE
  5
265
100
AcDbEntity
  8
0
100
AcDbLine
 62
7
  6
CONTINUOUS
 10
190.9502154076
 20
177.2031402419
 11
191.1636992699
 21
177.2031402419
  0
LINE
  5
266
100
AcDbEntity
  8
0
100
AcDbLine
 62
7
  6
CONTINUOUS
 10
218.6960879956
 20
177.2031402419
 11
218.9095717839
 21
177.2031402419
  0
LINE
  5
267
100
AcDbEntity
  8
RUNDUNGEN
100
AcDbLine
 62
7
  6
CONTINUOUS
 10
190.9501704182
 20
177.2031402313
 11
218.9092552431
 21
177.2031402419
  0
LINE
  5
268
100
AcDbEntity
  8
RUNDUNGEN
100
AcDbLine
 62
7
  6
CONTINUOUS
 10
67.767578125
 20
74.9284348858
 11
67.767578125
 21
88.9284348858
  0
LINE
  5
269
100
AcDbEntity
  8
RUNDUNGEN
100
AcDbLine
 62
7
  6
CONTINUOUS
 10
82.3724643084
 20
50.9284348858
 11
91.6924643084
 21
50.9284348858
  0
LINE
  5
26A
100
AcDbEntity
  8
RUNDUNGEN
100
AcDbLine
 62
7
  6
CONTINUOUS
 10
68.7675781258
 20
73.9284348966
 11
68.767578125
 21
89.9284348858
  0
LINE
  5
26B
100
AcDbEntity
  8
RUNDUNGEN
100
AcDbLine
 62
7
  6
CONTINUOUS
 10
80.3958953802
 20
52.9284348858
 11
89.7200533489
 21
52.9286624758
  0
LINE
  5
26C
100
AcDbEntity
  8
RUNDUNGEN
100
AcDbLine
 62
7
  6
CONTINUOUS
 10
93.6984653074
 20
52.9284734317
 11
93.7953887568
 21
52.9284348858
  0
LINE
  5
26D
100
AcDbEntity
  8
RUNDUNGEN
100
AcDbLine
 62
7
  6
CONTINUOUS
 10
89.7200191023
 20
52.9284348953
 11
89.9183327589
 21
52.9022668848
  0
LINE
  5
26E
100
AcDbEntity
  8
RUNDUNGEN
100
AcDbLine
 62
7
  6
CONTINUOUS
 10
89.7967888749
 20
53.2679839966
 11
89.9869851529
 21
53.2061854527
  0
LINE
  5
26F
100
AcDbEntity
  8
RUNDUNGEN
100
AcDbLine
 62
7
  6
CONTINUOUS
 10
93.698452783
 20
52.9284348858
 11
93.5082565172
 21
52.9902334914
  0
LINE
  5
270
100
AcDbEntity
  8
RUNDUNGEN
100
AcDbLine
 62
7
  6
CONTINUOUS
 10
72.7631042355
 20
73.9284348858
 11
72.7631042355
 21
75.9284002765
  0
LINE
  5
271
100
AcDbEntity
  8
RUNDUNGEN
100
AcDbLine
 62
7
  6
CONTINUOUS
 10
91.7236673312
 20
57.3783402858
 11
94.2828101181
 21
56.5468243908
  0
LINE
  5
272
100
AcDbEntity
  8
0
100
AcDbLine
 62
7
  6
CONTINUOUS
 10
76.9211734271
 20
64.6834348858
 11
79.0746312741
 21
57.1734348858
  0
LINE
  5
273
100
AcDbEntity
  8
RUNDUNGEN
100
AcDbLine
 62
7
  6
CONTINUOUS
 10
80.4499409165
 20
52.3771601742
 11
74.6856278997
 21
72.4797086476
  0
LINE
  5
274
100
AcDbEntity
  8
RUNDUNGEN
100
AcDbLine
 62
7
  6
CONTINUOUS
 10
74.6856276274
 20
72.4797095974
 11
74.7818403854
 21
72.5072981618
  0
LINE
  5
275
100
AcDbEntity
  8
RUNDUNGEN
100
AcDbLine
 62
7
  6
CONTINUOUS
 10
72.8546959813
 20
89.9284348858
 11
75.7664578555
 21
81.9284348858
  0
LINE
  5
276
100
AcDbEntity
  8
0
100
AcDbLine
 62
7
  6
CONTINUOUS
 10
75.7664578555
 20
81.9284348858
 11
80.2522951428
 21
69.2608211673
  0
LINE
  5
277
100
AcDbEntity
  8
0
100
AcDbLine
 62
7
  6
CONTINUOUS
 10
82.137578125
 20
67.9284348858
 11
92.797578125
 21
67.9284348858
  0
LINE
  5
278
100
AcDbEntity
  8
RUNDUNGEN
100
AcDbLine
 62
7
  6
CONTINUOUS
 10
72.7631031259
 20
73.9284348858
 11
68.767578125
 21
73.9284348858
  0
LINE
  5
279
100
AcDbEntity
  8
RUNDUNGEN
100
AcDbLine
 62
7
  6
CONTINUOUS
 10
67.767578125
 20
75.9284232285
 11
68.767578125
 21
75.9284232285
  0
LINE
  5
27A
100
AcDbEntity
  8
02___PRT_ALL_AXES
100
AcDbLine
 62
7
  6
CONTINUOUS
 10
105.267578125
 20
75.9284348858
 11
101.9950857543
 21
75.9284348858
  0
LINE
  5
27B
100
AcDbEntity
  8
0
100
AcDbLine
 62
7
  6
CONTINUOUS
 10
94.7294297776
 20
69.4107967956
 11
99.691189446
 21
87.9283359731
  0
LINE
  5
27C
100
AcDbEntity
  8
RUNDUNGEN
100
AcDbLine
 62
7
  6
CONTINUOUS
 10
99.2993272033
 20
81.8666362751
 11
89.9869850045
 21
53.2061849583
  0
LINE
  5
27D
100
AcDbEntity
  8
RUNDUNGEN
100
AcDbLine
 62
7
  6
CONTINUOUS
 10
100.7388475757
 20
85.1242128402
 11
91.7236672323
 21
57.378340318
  0
LINE
  5
27E
100
AcDbEntity
  8
RUNDUNGEN
100
AcDbLine
 62
7
  6
CONTINUOUS
 10
94.2828101181
 20
56.5468243908
 11
103.2979906887
 21
84.2926968394
  0
LINE
  5
27F
100
AcDbEntity
  8
RUNDUNGEN
100
AcDbLine
 62
7
  6
CONTINUOUS
 10
93.5082565172
 20
52.9902334914
 11
102.9309295298
 21
81.9902332826
  0
LINE
  5
280
100
AcDbEntity
  8
RUNDUNGEN
100
AcDbLine
 62
7
  6
CONTINUOUS
 10
93.594577341
 20
52.3104008971
 11
102.147330338
 21
78.6330679936
  0
LINE
  5
281
100
AcDbEntity
  8
RUNDUNGEN
100
AcDbLine
 62
7
  6
CONTINUOUS
 10
103.1210648132
 20
81.9282469902
 11
104.2695221421
 21
81.9284348858
  0
LINE
  5
282
100
AcDbEntity
  8
RUNDUNGEN
100
AcDbLine
 62
7
  6
CONTINUOUS
 10
98.083520795
 20
81.9284348858
 11
99.1090455487
 21
81.9281720982
  0
LINE
  5
283
100
AcDbEntity
  8
RUNDUNGEN
100
AcDbLine
 62
7
  6
CONTINUOUS
 10
80.2997692106
 20
52.9008711502
 11
80.3958953802
 21
52.9284348858
  0
LINE
  5
284
100
AcDbEntity
  8
RUNDUNGEN
100
AcDbLine
 62
7
  6
CONTINUOUS
 10
99.1091309337
 20
81.9284348858
 11
99.2993271936
 21
81.8666362783
  0
LINE
  5
285
100
AcDbEntity
  8
RUNDUNGEN
100
AcDbLine
 62
7
  6
CONTINUOUS
 10
103.121125864
 20
81.9284348854
 11
102.9309298309
 21
81.9902331847
  0
LINE
  5
286
100
AcDbEntity
  8
RUNDUNGEN
100
AcDbLine
 62
7
  6
CONTINUOUS
 10
102.494759988
 20
87.9284348858
 11
102.4855107299
 21
87.9284122187
  0
LINE
  5
287
100
AcDbEntity
  8
02___PRT_ALL_AXES
100
AcDbLine
 62
7
  6
CONTINUOUS
 10
105.267578125
 20
87.9284348858
 11
99.6846415227
 21
87.9284348858
  0
LINE
  5
288
100
AcDbEntity
  8
RUNDUNGEN
100
AcDbLine
 62
7
  6
CONTINUOUS
 10
67.767578125
 20
87.9284348858
 11
73.5826364499
 21
87.9284348858
  0
LINE
  5
289
100
AcDbEntity
  8
02___PRT_ALL_AXES
100
AcDbLine
 62
7
  6
CONTINUOUS
 10
105.267578125
 20
75.9284348858
 11
105.267578125
 21
87.9284348858
  0
LINE
  5
28A
100
AcDbEntity
  8
RUNDUNGEN
100
AcDbLine
 62
7
  6
CONTINUOUS
 10
68.767578125
 20
89.9284348858
 11
72.8546959813
 21
89.9284348858
  0
LINE
  5
28B
100
AcDbEntity
  8
RUNDUNGEN
100
AcDbLine
 62
7
  6
CONTINUOUS
 10
100.7388475757
 20
85.1242128402
 11
103.2979906162
 21
84.2926968629
  0
ARC
  5
28C
100
AcDbEntity
  8
RUNDUNGEN
100
AcDbCircle
 62
7
  6
CONTINUOUS
 10
68.767578125
 20
141.2031402419
 40
1.0
100
AcDbArc
 50
180.0
 51
270.0
  0
ARC
  5
28D
100
AcDbEntity
  8
0
100
AcDbCircle
 62
7
  6
CONTINUOUS
 10
68.767578125
 20
141.2031523437
 40
1.0
100
AcDbArc
 50
180.0000000523
 51
270.0000000011
  0
ARC
  5
28E
100
AcDbEntity
  8
RUNDUNGEN
100
AcDbCircle
 62
7
  6
CONTINUOUS
 10
68.767578125
 20
151.2031402419
 40
1.0
100
AcDbArc
 50
90.0000000003
 51
179.999999999
  0
ARC
  5
28F
100
AcDbEntity
  8
RUNDUNGEN
100
AcDbCircle
 62
7
  6
CONTINUOUS
 10
193.8988392111
 20
146.1977990114
 40
6.2028291101
100
AcDbArc
 50
90.000584438
 51
104.2904848891
  0
CIRCLE
  5
290
100
AcDbEntity
  8
0
100
AcDbCircle
 62
7
  6
CONTINUOUS
 10
193.8369773293
 20
146.2031402419
 40
2.695
  0
ARC
  5
291
100
AcDbEntity
  8
RUNDUNGEN
100
AcDbCircle
 62
7
  6
CONTINUOUS
 10
187.8369773293
 20
150.2031402419
 40
2.0
100
AcDbArc
 50
90.0
 51
180.0
  0
ARC
  5
292
100
AcDbEntity
  8
0
100
AcDbCircle
 62
7
  6
CONTINUOUS
 10
187.8369773293
 20
142.2031402419
 40
2.0
100
AcDbArc
 50
180.0
 51
270.0
  0
ARC
  5
293
100
AcDbEntity
  8
0
100
AcDbCircle
 62
7
  6
CONTINUOUS
 10
199.8369888511
 20
142.2031287201
 40
1.9999884782
100
AcDbArc
 50
269.9996699224
 51
0.0059634755
  0
ARC
  5
294
100
AcDbEntity
  8
RUNDUNGEN
100
AcDbCircle
 62
7
  6
CONTINUOUS
 10
199.8370119385
 20
150.2031748512
 40
1.9999653907
100
AcDbArc
 50
0.0
 51
90.0059233532
  0
ARC
  5
295
100
AcDbEntity
  8
RUNDUNGEN
100
AcDbCircle
 62
7
  6
CONTINUOUS
 10
199.8370120037
 20
142.2031055674
 40
1.9999653255
100
AcDbArc
 50
270.3011785081
 51
360.0
  0
ARC
  5
296
100
AcDbEntity
  8
0
100
AcDbCircle
 62
7
  6
CONTINUOUS
 10
199.8369771225
 20
142.203139155
 40
1.0000002068
100
AcDbArc
 50
270.0000118451
 51
359.9994021257
  0
ARC
  5
297
100
AcDbEntity
  8
0
100
AcDbCircle
 62
7
  6
CONTINUOUS
 10
187.8369773293
 20
142.2031402419
 40
1.0
100
AcDbArc
 50
180.0
 51
270.0
  0
ARC
  5
298
100
AcDbEntity
  8
RUNDUNGEN
100
AcDbCircle
 62
7
  6
CONTINUOUS
 10
187.8369773293
 20
150.2031402419
 40
1.0
100
AcDbArc
 50
90.0
 51
180.0
  0
ARC
  5
299
100
AcDbEntity
  8
RUNDUNGEN
100
AcDbCircle
 62
7
  6
CONTINUOUS
 10
199.836979488
 20
150.2031424007
 40
0.9999978413
100
AcDbArc
 50
0.000544224
 51
89.999455775
  0
ARC
  5
29A
100
AcDbEntity
  8
0
100
AcDbCircle
 62
7
  6
CONTINUOUS
 10
211.0819773293
 20
146.2031402419
 40
2.745
100
AcDbArc
 50
90.0
 51
270.0
  0
ARC
  5
29B
100
AcDbEntity
  8
0
100
AcDbCircle
 62
7
  6
CONTINUOUS
 10
218.5919773293
 20
146.2031402419
 40
2.745
100
AcDbArc
 50
270.0
 51
90.0
  0
ARC
  5
29C
100
AcDbEntity
  8
RUNDUNGEN
100
AcDbCircle
 62
7
  6
CONTINUOUS
 10
222.4074421553
 20
150.2015724633
 40
2.4274823792
100
AcDbArc
 50
7.2366312724
 51
11.0686304632
  0
ARC
  5
29D
100
AcDbEntity
  8
RUNDUNGEN
100
AcDbCircle
 62
7
  6
CONTINUOUS
 10
222.8363495606
 20
150.1922024119
 40
2.0108646204
100
AcDbArc
 50
79.3368771335
 51
84.7903603134
  0
ARC
  5
29E
100
AcDbEntity
  8
RUNDUNGEN
100
AcDbCircle
 62
7
  6
CONTINUOUS
 10
222.8346527419
 20
150.1957562602
 40
2.0077268861
100
AcDbArc
 50
69.0415379976
 51
74.0331659605
  0
ARC
  5
29F
100
AcDbEntity
  8
RUNDUNGEN
100
AcDbCircle
 62
7
  6
CONTINUOUS
 10
222.8369932259
 20
142.20312994
 40
1.9999841034
100
AcDbArc
 50
270.0019732153
 51
0.0002951302
  0
ARC
  5
2A0
100
AcDbEntity
  8
RUNDUNGEN
100
AcDbCircle
 62
7
  6
CONTINUOUS
 10
222.8369930893
 20
150.203150449
 40
1.99998424
100
AcDbArc
 50
359.9997075854
 51
89.9979772792
  0
ARC
  5
2A1
100
AcDbEntity
  8
RUNDUNGEN
100
AcDbCircle
 62
7
  6
CONTINUOUS
 10
222.8379474639
 20
142.2001619949
 40
1.9968677307
100
AcDbArc
 50
287.2383796663
 51
287.9999333204
  0
ARC
  5
2A2
100
AcDbEntity
  8
RUNDUNGEN
100
AcDbCircle
 62
7
  6
CONTINUOUS
 10
222.8404185921
 20
150.2033174428
 40
1.9965681221
100
AcDbArc
 50
4.4368947939
 51
8.1084222735
  0
ARC
  5
2A3
100
AcDbEntity
  8
RUNDUNGEN
100
AcDbCircle
 62
7
  6
CONTINUOUS
 10
222.8376440443
 20
150.2072472735
 40
1.9958392089
100
AcDbArc
 50
80.6504157913
 51
81.0887164276
  0
ARC
  5
2A4
100
AcDbEntity
  8
RUNDUNGEN
100
AcDbCircle
 62
7
  6
CONTINUOUS
 10
222.8383879478
 20
142.1980093096
 40
1.994679013
100
AcDbArc
 50
286.0016747141
 51
286.8442599013
  0
ARC
  5
2A5
100
AcDbEntity
  8
RUNDUNGEN
100
AcDbCircle
 62
7
  6
CONTINUOUS
 10
222.8383914825
 20
150.2082816571
 40
1.9946679618
100
AcDbArc
 50
73.1557598098
 51
73.9983398764
  0
ARC
  5
2A6
100
AcDbEntity
  8
RUNDUNGEN
100
AcDbCircle
 62
7
  6
CONTINUOUS
 10
222.8400587393
 20
150.2166906841
 40
1.9861130823
100
AcDbArc
 50
74.0169757805
 51
79.3113165516
  0
ARC
  5
2A7
100
AcDbEntity
  8
RUNDUNGEN
100
AcDbCircle
 62
7
  6
CONTINUOUS
 10
222.8642242719
 20
150.1995328962
 40
1.903607372
100
AcDbArc
 50
80.0028293867
 51
89.9904649984
  0
ARC
  5
2A8
100
AcDbEntity
  8
RUNDUNGEN
100
AcDbCircle
 62
7
  6
CONTINUOUS
 10
222.8645530896
 20
150.203162285
 40
1.8999754963
100
AcDbArc
 50
74.0001653448
 51
79.9927195298
  0
ARC
  5
2A9
100
AcDbEntity
  8
RUNDUNGEN
100
AcDbCircle
 62
7
  6
CONTINUOUS
 10
222.8646978968
 20
142.2026082907
 40
1.8994454269
100
AcDbArc
 50
270.0094031653
 51
285.999875394
  0
ARC
  5
2AA
100
AcDbEntity
  8
RUNDUNGEN
100
AcDbCircle
 62
7
  6
CONTINUOUS
 10
222.8376313561
 20
150.5473314356
 40
1.8573026721
100
AcDbArc
 50
61.8906454382
 51
66.8392467203
  0
ARC
  5
2AB
100
AcDbEntity
  8
RUNDUNGEN
100
AcDbCircle
 62
7
  6
CONTINUOUS
 10
218.9070036132
 20
171.7471072154
 40
5.4560956322
100
AcDbArc
 50
82.2272413301
 51
84.873184944
  0
ARC
  5
2AC
100
AcDbEntity
  8
RUNDUNGEN
100
AcDbCircle
 62
7
  6
CONTINUOUS
 10
218.9078483015
 20
171.7529771178
 40
5.4501654217
100
AcDbArc
 50
78.9661167553
 51
82.2276939584
  0
ARC
  5
2AD
100
AcDbEntity
  8
RUNDUNGEN
100
AcDbCircle
 62
7
  6
CONTINUOUS
 10
218.909096837
 20
171.7600799244
 40
5.4429549615
100
AcDbArc
 50
77.8302313639
 51
78.9647067488
  0
ARC
  5
2AE
100
AcDbEntity
  8
RUNDUNGEN
100
AcDbCircle
 62
7
  6
CONTINUOUS
 10
218.9086121888
 20
171.7674014536
 40
5.4357388451
100
AcDbArc
 50
84.8709570693
 51
89.9898893753
  0
ARC
  5
2AF
100
AcDbEntity
  8
RUNDUNGEN
100
AcDbCircle
 62
7
  6
CONTINUOUS
 10
218.6955241194
 20
171.7840384817
 40
5.4191017632
100
AcDbArc
 50
87.7389938259
 51
89.9940414228
  0
ARC
  5
2B0
100
AcDbEntity
  8
RUNDUNGEN
100
AcDbCircle
 62
7
  6
CONTINUOUS
 10
220.4544314855
 20
172.1583456789
 40
3.9606129727
100
AcDbArc
 50
20.7743289253
 51
21.6041368216
  0
ARC
  5
2B1
100
AcDbEntity
  8
RUNDUNGEN
100
AcDbCircle
 62
7
  6
CONTINUOUS
 10
220.5912288124
 20
172.2136119511
 40
3.8130772247
100
AcDbArc
 50
21.588867672
 51
24.7005225024
  0
ARC
  5
2B2
100
AcDbEntity
  8
RUNDUNGEN
100
AcDbCircle
 62
7
  6
CONTINUOUS
 10
1027.7895125664
 20
-215.9369138972
 40
973.0197464904
100
AcDbArc
 50
161.8722100032
 51
162.0087503077
  0
ARC
  5
2B3
100
AcDbEntity
  8
RUNDUNGEN
100
AcDbCircle
 62
7
  6
CONTINUOUS
 10
-516.0413419943
 20
286.0377426674
 40
649.6786914089
100
AcDbArc
 50
341.9572497841
 51
342.1617319308
  0
ARC
  5
2B4
100
AcDbEntity
  8
RUNDUNGEN
100
AcDbCircle
 62
7
  6
CONTINUOUS
 10
607.8522371287
 20
-82.0541519202
 40
530.9012028466
100
AcDbArc
 50
161.5861111495
 51
162.0014875243
  0
ARC
  5
2B5
100
AcDbEntity
  8
RUNDUNGEN
100
AcDbCircle
 62
7
  6
CONTINUOUS
 10
579.0036146141
 20
-77.835303097
 40
501.9846561574
100
AcDbArc
 50
161.0154808457
 51
161.4420399756
  0
ARC
  5
2B6
100
AcDbEntity
  8
RUNDUNGEN
100
AcDbCircle
 62
7
  6
CONTINUOUS
 10
-368.7883146009
 20
234.1106408113
 40
492.2238081676
100
AcDbArc
 50
341.9830499754
 51
342.5587168508
  0
ARC
  5
2B7
100
AcDbEntity
  8
RUNDUNGEN
100
AcDbCircle
 62
7
  6
CONTINUOUS
 10
-338.4855558365
 20
229.0164531546
 40
461.6535452257
100
AcDbArc
 50
341.4210049695
 51
342.0341390929
  0
ARC
  5
2B8
100
AcDbEntity
  8
RUNDUNGEN
100
AcDbCircle
 62
7
  6
CONTINUOUS
 10
-174.4128165671
 20
174.8660987289
 40
289.4167313121
100
AcDbArc
 50
341.9360428439
 51
342.2420315205
  0
ARC
  5
2B9
100
AcDbEntity
  8
RUNDUNGEN
100
AcDbCircle
 62
7
  6
CONTINUOUS
 10
268.8002502995
 20
-3.9765104598
 40
184.3162852289
100
AcDbArc
 50
161.9967708333
 51
162.2273439717
  0
ARC
  5
2BA
100
AcDbEntity
  8
RUNDUNGEN
100
AcDbCircle
 62
7
  6
CONTINUOUS
 10
243.9300164669
 20
-0.771496185
 40
159.5406072042
100
AcDbArc
 50
160.3306709446
 51
160.5278247162
  0
ARC
  5
2BB
100
AcDbEntity
  8
RUNDUNGEN
100
AcDbCircle
 62
7
  6
CONTINUOUS
 10
77.597339708
 20
73.3105587847
 40
2.9278769271
100
AcDbArc
 50
192.5170580918
 51
195.0825329776
  0
ARC
  5
2BC
100
AcDbEntity
  8
RUNDUNGEN
100
AcDbCircle
 62
7
  6
CONTINUOUS
 10
77.4177688552
 20
73.2630025647
 40
2.7421174378
100
AcDbArc
 50
195.0994192117
 51
195.9972699454
  0
ARC
  5
2BD
100
AcDbEntity
  8
0
100
AcDbCircle
 62
7
  6
CONTINUOUS
 10
82.137578125
 20
69.9284348858
 40
2.0
100
AcDbArc
 50
199.5
 51
270.0
  0
ARC
  5
2BE
100
AcDbEntity
  8
0
100
AcDbCircle
 62
7
  6
CONTINUOUS
 10
92.797578125
 20
69.9284348858
 40
2.0
100
AcDbArc
 50
270.0
 51
345.0
  0
ARC
  5
2BF
100
AcDbEntity
  8
RUNDUNGEN
100
AcDbCircle
 62
7
  6
CONTINUOUS
 10
82.3724643084
 20
52.9284348858
 40
2.0
100
AcDbArc
 50
196.0
 51
270.0
  0
ARC
  5
2C0
100
AcDbEntity
  8
RUNDUNGEN
100
AcDbCircle
 62
7
  6
CONTINUOUS
 10
91.6924643084
 20
52.9284348858
 40
2.0
100
AcDbArc
 50
270.0
 51
342.0
  0
ARC
  5
2C1
100
AcDbEntity
  8
RUNDUNGEN
100
AcDbCircle
 62
7
  6
CONTINUOUS
 10
72.7631042075
 20
71.9284348486
 40
2.0000000372
100
AcDbArc
 50
15.999972495
 51
90.0000309854
  0
ARC
  5
2C2
100
AcDbEntity
  8
RUNDUNGEN
100
AcDbCircle
 62
7
  6
CONTINUOUS
 10
91.6117040615
 20
52.6792144172
 40
1.9080269265
100
AcDbArc
 50
162.0266202675
 51
172.4878674175
  0
ARC
  5
2C3
100
AcDbEntity
  8
RUNDUNGEN
100
AcDbCircle
 62
7
  6
CONTINUOUS
 10
102.4120343965
 20
86.0489614962
 40
1.8444938726
100
AcDbArc
 50
154.0961364772
 51
159.4392381539
  0
ARC
  5
2C4
100
AcDbEntity
  8
RUNDUNGEN
100
AcDbCircle
 62
7
  6
CONTINUOUS
 10
102.3832401543
 20
86.0601225589
 40
1.8136140763
100
AcDbArc
 50
159.4499021502
 51
162.0419876242
  0
ARC
  5
2C5
100
AcDbEntity
  8
RUNDUNGEN
100
AcDbCircle
 62
7
  6
CONTINUOUS
 10
91.6070453399
 20
52.6802440932
 40
1.7032936798
100
AcDbArc
 50
162.014353049
 51
172.5100196021
  0
ARC
  5
2C6
100
AcDbEntity
  8
RUNDUNGEN
100
AcDbCircle
 62
7
  6
CONTINUOUS
 10
91.88745284
 20
52.7062555778
 40
1.6326467438
100
AcDbArc
 50
337.647972549
 51
340.6251360084
  0
ARC
  5
2C7
100
AcDbEntity
  8
RUNDUNGEN
100
AcDbCircle
 62
7
  6
CONTINUOUS
 10
102.4970190747
 20
86.1814319131
 40
1.3473725701
100
AcDbArc
 50
341.8660245521
 51
162.1339376754
  0
ARC
  5
2C8
100
AcDbEntity
  8
RUNDUNGEN
100
AcDbCircle
 62
7
  6
CONTINUOUS
 10
68.767578125
 20
88.9284348858
 40
1.0
100
AcDbArc
 50
90.0
 51
180.0
  0
ARC
  5
2C9
100
AcDbEntity
  8
RUNDUNGEN
100
AcDbCircle
 62
7
  6
CONTINUOUS
 10
68.767578125
 20
74.9284428157
 40
1.0
100
AcDbArc
 50
180.0004543521
 51
270.0
  0
ARC
  5
2CA
100
AcDbEntity
  8
RUNDUNGEN
100
AcDbCircle
 62
7
  6
CONTINUOUS
 10
101.9950843385
 20
74.9284350098
 40
0.9999999787
100
AcDbArc
 50
90.0000008148
 51
162.0000022851
  0
SPLINE
  5
2CB
100
AcDbEntity
  8
RUNDUNGEN
100
AcDbSpline
 62
7
  6
CONTINUOUS
 70
0
 71
3
 72
11
 73
7
 74
0
 42
0.0000001
 43
0.0000001
 44
0.0000000001
 40
0.0
 40
0.0
 40
0.0
 40
0.0
 40
0.243997095
 40
0.4918550111
 40
0.7445118791
 40
1.0
 40
1.0
 40
1.0
 40
1.0
 10
103.1206569782
 20
152.2031339089
 30
0.0
 10
103.0961278667
 20
152.2032005718
 30
0.0
 10
103.0461934671
 20
152.2138356706
 30
0.0
 10
102.9832952598
 20
152.257872443
 30
0.0
 10
102.9415107054
 20
152.3235161254
 30
0.0
 10
102.9312358196
 20
152.3749451816
 30
0.0
 10
102.9309298309
 20
152.400627762
 30
0.0
  0
LINE
  5
2CC
100
AcDbEntity
  8
RUNDUNGEN
100
AcDbLine
 62
7
  6
CONTINUOUS
 10
72.7631031259
 20
150.2031748512
 11
68.767578125
 21
150.2029437358
  0
LINE
  5
2CD
100
AcDbEntity
  8
RUNDUNGEN
100
AcDbLine
 62
7
  6
CONTINUOUS
 10
68.767578125
 20
142.2033368834
 11
72.7631031639
 21
142.2031055674
  0
SPLINE
  5
2CE
100
AcDbEntity
  8
RUNDUNGEN
100
AcDbSpline
 62
7
  6
CONTINUOUS
 70
0
 71
3
 72
17
 73
13
 74
0
 42
0.0000001
 43
0.0000001
 44
0.0000000001
 40
0.0
 40
0.0
 40
0.0
 40
0.0
 40
0.0327050406
 40
0.0669205441
 40
0.1038829971
 40
0.1445488355
 40
0.2392713006
 40
0.3539838722
 40
0.4889551539
 40
0.6430363124
 40
0.8143096898
 40
1.0
 40
1.0
 40
1.0
 40
1.0
 10
92.6747210648
 20
177.2031402155
 30
0.0
 10
92.63116096
 20
177.2031287451
 30
0.0
 10
92.5417391404
 20
177.1926937524
 30
0.0
 10
92.410214084
 20
177.1468289785
 30
0.0
 10
92.2808092296
 20
177.0714664454
 30
0.0
 10
92.1029027439
 20
176.9251644665
 30
0.0
 10
91.8912129396
 20
176.6641781601
 30
0.0
 10
91.6651413217
 20
176.2637057439
 30
0.0
 10
91.4574963105
 20
175.7665458689
 30
0.0
 10
91.271939674
 20
175.1815700018
 30
0.0
 10
91.11198784
 20
174.5195032045
 30
0.0
 10
91.027338176
 20
174.0513852066
 30
0.0
 10
90.989312283
 20
173.8070035201
 30
0.0
  0
SPLINE
  5
2CF
100
AcDbEntity
  8
RUNDUNGEN
100
AcDbSpline
 62
7
  6
CONTINUOUS
 70
0
 71
3
 72
9
 73
5
 74
0
 42
0.0000001
 43
0.0000001
 44
0.0000000001
 40
0.0
 40
0.0
 40
0.0
 40
0.0
 40
0.4738492237
 40
1.0
 40
1.0
 40
1.0
 40
1.0
 10
93.7953887568
 20
152.2031402419
 30
0.0
 10
93.7693698224
 20
152.2031402419
 30
0.0
 10
93.7141291026
 20
152.1924679432
 30
0.0
 10
93.6659344128
 20
152.1644248755
 30
0.0
 10
93.6427519366
 20
152.1471839055
 30
0.0
  0
SPLINE
  5
2D0
100
AcDbEntity
  8
RUNDUNGEN
100
AcDbSpline
 62
7
  6
CONTINUOUS
 70
0
 71
3
 72
9
 73
5
 74
0
 42
0.0000001
 43
0.0000001
 44
0.0000000001
 40
0.0
 40
0.0
 40
0.0
 40
0.0
 40
0.2402884399
 40
1.0
 40
1.0
 40
1.0
 40
1.0
 10
93.6427519366
 20
152.1471839055
 30
0.0
 10
93.638645086
 20
152.1441296119
 30
0.0
 10
93.6218140977
 20
152.1310696909
 30
0.0
 10
93.6060195398
 20
152.1166954733
 30
0.0
 10
93.594577341
 20
152.1052532745
 30
0.0
  0
SPLINE
  5
2D1
100
AcDbEntity
  8
RUNDUNGEN
100
AcDbSpline
 62
7
  6
CONTINUOUS
 70
0
 71
3
 72
9
 73
5
 74
0
 42
0.0000001
 43
0.0000001
 44
0.0000000001
 40
0.0
 40
0.0
 40
0.0
 40
0.0
 40
0.5415508361
 40
1.0
 40
1.0
 40
1.0
 40
1.0
 10
93.594577341
 20
140.3010272093
 30
0.0
 10
93.6236653295
 20
140.2719392207
 30
0.0
 10
93.684145422
 20
140.2234962107
 30
0.0
 10
93.7605645974
 20
140.2031402419
 30
0.0
 10
93.7953887568
 20
140.2031402419
 30
0.0
  0
SPLINE
  5
2D2
100
AcDbEntity
  8
RUNDUNGEN
100
AcDbSpline
 62
7
  6
CONTINUOUS
 70
0
 71
3
 72
11
 73
7
 74
0
 42
0.0000001
 43
0.0000001
 44
0.0000000001
 40
0.0
 40
0.0
 40
0.0
 40
0.0
 40
0.290398415
 40
0.5478471932
 40
0.7805141
 40
1.0
 40
1.0
 40
1.0
 40
1.0
 10
93.4276400041
 20
152.0515452889
 30
0.0
 10
93.447701356
 20
152.075124801
 30
0.0
 10
93.4885308571
 20
152.1172624391
 30
0.0
 10
93.5564240724
 20
152.1662882357
 30
0.0
 10
93.6266372278
 20
152.1963166336
 30
0.0
 10
93.6750674786
 20
152.2031396124
 30
0.0
 10
93.6984664839
 20
152.2031402415
 30
0.0
  0
LINE
  5
2D3
100
AcDbEntity
  8
RUNDUNGEN
100
AcDbLine
 62
7
  6
CONTINUOUS
 10
82.3724643084
 20
150.2031402419
 11
80.5460670861
 21
152.1256636338
  0
SPLINE
  5
2D4
100
AcDbEntity
  8
RUNDUNGEN
100
AcDbSpline
 62
7
  6
CONTINUOUS
 70
0
 71
3
 72
9
 73
5
 74
0
 42
0.0000001
 43
0.0000001
 44
0.0000000001
 40
0.0
 40
0.0
 40
0.0
 40
0.0
 40
0.5467330299
 40
1.0
 40
1.0
 40
1.0
 40
1.0
 10
80.5460670861
 20
152.1256636338
 30
0.0
 10
80.5244040322
 20
152.1484669033
 30
0.0
 10
80.4797825916
 20
152.1865846293
 30
0.0
 10
80.4219711848
 20
152.203140325
 30
0.0
 10
80.3958953802
 20
152.2031402419
 30
0.0
  0
SPLINE
  5
2D5
100
AcDbEntity
  8
RUNDUNGEN
100
AcDbSpline
 62
7
  6
CONTINUOUS
 70
0
 71
3
 72
12
 73
8
 74
0
 42
0.0000001
 43
0.0000001
 44
0.0000000001
 40
0.0
 40
0.0
 40
0.0
 40
0.0
 40
0.1545777098
 40
0.3086070943
 40
0.4286868856
 40
0.5836444104
 40
1.0
 40
1.0
 40
1.0
 40
1.0
 10
89.7200253617
 20
152.2031402289
 30
0.0
 10
89.7151021573
 20
152.2031383144
 30
0.0
 10
89.703026723
 20
152.2005779276
 30
0.0
 10
89.7033356268
 20
152.1841284726
 30
0.0
 10
89.7079942791
 20
152.171724063
 30
0.0
 10
89.7179400263
 20
152.1518171711
 30
0.0
 10
89.7281961851
 20
152.1368165219
 30
0.0
 10
89.7359056925
 20
152.1260272295
 30
0.0
  0
SPLINE
  5
2D6
100
AcDbEntity
  8
RUNDUNGEN
100
AcDbSpline
 62
7
  6
CONTINUOUS
 70
0
 71
3
 72
23
 73
19
 74
0
 42
0.0000001
 43
0.0000001
 44
0.0000000001
 40
0.0
 40
0.0
 40
0.0
 40
0.0
 40
0.0298325056
 40
0.0686265079
 40
0.1673361672
 40
0.2859650176
 40
0.4175218551
 40
0.4866426209
 40
0.5574045333
 40
0.6294712469
 40
0.702559942
 40
0.7764157107
 40
0.8135662515
 40
0.8508247729
 40
0.8881391609
 40
0.9254121411
 40
0.9627088734
 40
1.0
 40
1.0
 40
1.0
 40
1.0
 10
89.7359056925
 20
152.1260272295
 30
0.0
 10
89.7518100899
 20
152.1037693619
 30
0.0
 10
89.7914050432
 20
152.0547581472
 30
0.0
 10
89.8930209143
 20
151.9397810427
 30
0.0
 10
90.0559994208
 20
151.7705367415
 30
0.0
 10
90.2822261898
 20
151.5443249582
 30
0.0
 10
90.4925328379
 20
151.3405726711
 30
0.0
 10
90.6729847237
 20
151.1691297657
 30
0.0
 10
90.8148386431
 20
151.0362677579
 30
0.0
 10
90.9606960423
 20
150.9023603833
 30
0.0
 10
91.1111611753
 20
150.7693346196
 30
0.0
 10
91.241407186
 20
150.6617855744
 30
0.0
 10
91.3514392939
 20
150.5817911708
 30
0.0
 10
91.4387527708
 20
150.5279709348
 30
0.0
 10
91.5335721781
 20
150.4868653208
 30
0.0
 10
91.6380147172
 20
150.4759515915
 30
0.0
 10
91.7383754044
 20
150.5045041737
 30
0.0
 10
91.7986899419
 20
150.5371675955
 30
0.0
 10
91.8278879336
 20
150.5549671669
 30
0.0
  0
SPLINE
  5
2D7
100
AcDbEntity
  8
RUNDUNGEN
100
AcDbSpline
 62
7
  6
CONTINUOUS
 70
0
 71
3
 72
9
 73
5
 74
0
 42
0.0000001
 43
0.0000001
 44
0.0000000001
 40
0.0
 40
0.0
 40
0.0
 40
0.0
 40
0.4532669957
 40
1.0
 40
1.0
 40
1.0
 40
1.0
 10
80.3958953802
 20
140.2031402419
 30
0.0
 10
80.4219711864
 20
140.2031399738
 30
0.0
 10
80.4797826221
 20
140.2196959367
 30
0.0
 10
80.5244039684
 20
140.257813643
 30
0.0
 10
80.5460670861
 20
140.28061685
 30
0.0
  0
LINE
  5
2D8
100
AcDbEntity
  8
RUNDUNGEN
100
AcDbLine
 62
7
  6
CONTINUOUS
 10
80.5460670861
 20
140.28061685
 11
82.3724643084
 21
142.2031402419
  0
SPLINE
  5
2D9
100
AcDbEntity
  8
RUNDUNGEN
100
AcDbSpline
 62
7
  6
CONTINUOUS
 70
0
 71
3
 72
19
 73
15
 74
0
 42
0.0000001
 43
0.0000001
 44
0.0000000001
 40
0.0
 40
0.0
 40
0.0
 40
0.0
 40
0.0740302233
 40
0.1477652661
 40
0.2209693495
 40
0.2936063148
 40
0.4370056733
 40
0.5772962137
 40
0.7123830373
 40
0.8370063054
 40
0.8918762751
 40
0.9386582574
 40
0.9749399323
 40
1.0
 40
1.0
 40
1.0
 40
1.0
 10
72.7631031639
 20
142.2031056206
 30
0.0
 10
72.8316365587
 20
142.2031083276
 30
0.0
 10
72.9689414346
 20
142.1736705833
 30
0.0
 10
73.1491206944
 20
142.0737621719
 30
0.0
 10
73.3075904823
 20
141.9454188598
 30
0.0
 10
73.4958132488
 20
141.7545048415
 30
0.0
 10
73.7015722471
 20
141.495839366
 30
0.0
 10
73.9236654047
 20
141.1780584582
 30
0.0
 10
74.1305266929
 20
140.8710280942
 30
0.0
 10
74.2998150868
 20
140.6336452004
 30
0.0
 10
74.4350787751
 20
140.4736336217
 30
0.0
 10
74.526550935
 20
140.3837340253
 30
0.0
 10
74.6071036902
 20
140.3246951636
 30
0.0
 10
74.6624285784
 20
140.3032305025
 30
0.0
 10
74.6856279075
 20
140.3032301221
 30
0.0
  0
SPLINE
  5
2DA
100
AcDbEntity
  8
RUNDUNGEN
100
AcDbSpline
 62
7
  6
CONTINUOUS
 70
0
 71
3
 72
19
 73
15
 74
0
 42
0.0000001
 43
0.0000001
 44
0.0000000001
 40
0.0
 40
0.0
 40
0.0
 40
0.0
 40
0.0250600048
 40
0.0613415973
 40
0.1081235803
 40
0.1629935958
 40
0.2876168781
 40
0.4227037153
 40
0.5629942682
 40
0.7063936564
 40
0.7790306304
 40
0.8522347199
 40
0.9259697514
 40
1.0
 40
1.0
 40
1.0
 40
1.0
 10
74.6856278997
 20
152.1030502016
 30
0.0
 10
74.6624286341
 20
152.103049777
 30
0.0
 10
74.6071036517
 20
152.0815861645
 30
0.0
 10
74.5265508167
 20
152.022547335
 30
0.0
 10
74.4350787654
 20
151.9326478066
 30
0.0
 10
74.299815557
 20
151.7726357755
 30
0.0
 10
74.1305263494
 20
151.5352535417
 30
0.0
 10
73.923664408
 20
151.2282236372
 30
0.0
 10
73.7015711688
 20
150.9104428714
 30
0.0
 10
73.4958125123
 20
150.65177711
 30
0.0
 10
73.3075896767
 20
150.4608632549
 30
0.0
 10
73.1491205839
 20
150.3325190836
 30
0.0
 10
72.9689410246
 20
150.2326112712
 30
0.0
 10
72.8316365286
 20
150.2031726766
 30
0.0
 10
72.7631031259
 20
150.2031747961
 30
0.0
  0
SPLINE
  5
2DB
100
AcDbEntity
  8
RUNDUNGEN
100
AcDbSpline
 62
7
  6
CONTINUOUS
 70
0
 71
3
 72
9
 73
5
 74
0
 42
0.0000001
 43
0.0000001
 44
0.0000000001
 40
0.0
 40
0.0
 40
0.0
 40
0.0
 40
0.4999999897
 40
1.0
 40
1.0
 40
1.0
 40
1.0
 10
80.4499465293
 20
140.3767430198
 30
0.0
 10
80.4517738126
 20
140.3527061389
 30
0.0
 10
80.4741718924
 20
140.3048477367
 30
0.0
 10
80.5220302068
 20
140.2824492219
 30
0.0
 10
80.5460670863
 20
140.2806219072
 30
0.0
  0
SPLINE
  5
2DC
100
AcDbEntity
  8
RUNDUNGEN
100
AcDbSpline
 62
7
  6
CONTINUOUS
 70
0
 71
3
 72
9
 73
5
 74
0
 42
0.0000001
 43
0.0000001
 44
0.0000000001
 40
0.0
 40
0.0
 40
0.0
 40
0.0
 40
0.5069819248
 40
1.0
 40
1.0
 40
1.0
 40
1.0
 10
80.2997692106
 20
140.3031402419
 30
0.0
 10
80.2997692407
 20
140.2777703598
 30
0.0
 10
80.3193502255
 20
140.2254431204
 30
0.0
 10
80.3712242632
 20
140.2031403683
 30
0.0
 10
80.3958953802
 20
140.2031403683
 30
0.0
  0
SPLINE
  5
2DD
100
AcDbEntity
  8
RUNDUNGEN
100
AcDbSpline
 62
7
  6
CONTINUOUS
 70
0
 71
3
 72
9
 73
5
 74
0
 42
0.0000001
 43
0.0000001
 44
0.0000000001
 40
0.0
 40
0.0
 40
0.0
 40
0.0
 40
0.5069819276
 40
1.0
 40
1.0
 40
1.0
 40
1.0
 10
74.6856276274
 20
140.3032301608
 30
0.0
 10
74.6856276274
 20
140.2778374465
 30
0.0
 10
74.7052261879
 20
140.2254630877
 30
0.0
 10
74.7571469124
 20
140.2031402419
 30
0.0
 10
74.7818402325
 20
140.2031402419
 30
0.0
  0
SPLINE
  5
2DE
100
AcDbEntity
  8
RUNDUNGEN
100
AcDbSpline
 62
7
  6
CONTINUOUS
 70
0
 71
3
 72
18
 73
14
 74
0
 42
0.0000001
 43
0.0000001
 44
0.0000000001
 40
0.0
 40
0.0
 40
0.0
 40
0.0
 40
0.177312863
 40
0.3474874427
 40
0.5042801913
 40
0.6429831171
 40
0.7607792639
 40
0.8116100147
 40
0.8572089919
 40
0.8979775807
 40
0.9346059363
 40
0.9681403999
 40
1.0
 40
1.0
 40
1.0
 40
1.0
 10
101.9950843243
 20
146.2032944106
 30
0.0
 10
101.9950880318
 20
146.6068578687
 30
0.0
 10
102.0251020081
 20
147.398100876
 30
0.0
 10
102.158284409
 20
148.5392786957
 30
0.0
 10
102.3715264731
 20
149.5791237326
 30
0.0
 10
102.6534502262
 20
150.4783027224
 30
0.0
 10
102.9476636096
 20
151.1164739664
 30
0.0
 10
103.2126754134
 20
151.5266897269
 30
0.0
 10
103.4107934361
 20
151.7690784801
 30
0.0
 10
103.6166827781
 20
151.9603217474
 30
0.0
 10
103.829377545
 20
152.0991536478
 30
0.0
 10
104.0475767613
 20
152.1839054787
 30
0.0
 10
104.1970098033
 20
152.2031403018
 30
0.0
 10
104.2695221421
 20
152.2031402419
 30
0.0
  0
SPLINE
  5
2DF
100
AcDbEntity
  8
RUNDUNGEN
100
AcDbSpline
 62
7
  6
CONTINUOUS
 70
0
 71
3
 72
9
 73
5
 74
0
 42
0.0000001
 43
0.0000001
 44
0.0000000001
 40
0.0
 40
0.0
 40
0.0
 40
0.0
 40
0.506981842
 40
1.0
 40
1.0
 40
1.0
 40
1.0
 10
74.6856276274
 20
152.103050164
 30
0.0
 10
74.6856276152
 20
152.1284429162
 30
0.0
 10
74.7052262007
 20
152.1808173745
 30
0.0
 10
74.7571470199
 20
152.2031402419
 30
0.0
 10
74.7818403854
 20
152.2031402419
 30
0.0
  0
SPLINE
  5
2E0
100
AcDbEntity
  8
RUNDUNGEN
100
AcDbSpline
 62
7
  6
CONTINUOUS
 70
0
 71
3
 72
9
 73
5
 74
0
 42
0.0000001
 43
0.0000001
 44
0.0000000001
 40
0.0
 40
0.0
 40
0.0
 40
0.0
 40
0.5069819274
 40
1.0
 40
1.0
 40
1.0
 40
1.0
 10
80.2997692106
 20
152.1031402419
 30
0.0
 10
80.2997692106
 20
152.1285101438
 30
0.0
 10
80.3193501642
 20
152.1808374505
 30
0.0
 10
80.3712242441
 20
152.2031402419
 30
0.0
 10
80.3958953802
 20
152.2031402419
 30
0.0
  0
SPLINE
  5
2E1
100
AcDbEntity
  8
RUNDUNGEN
100
AcDbSpline
 62
7
  6
CONTINUOUS
 70
0
 71
3
 72
9
 73
5
 74
0
 42
0.0000001
 43
0.0000001
 44
0.0000000001
 40
0.0
 40
0.0
 40
0.0
 40
0.0
 40
0.5000000131
 40
1.0
 40
1.0
 40
1.0
 40
1.0
 10
80.4499409165
 20
152.0295374642
 30
0.0
 10
80.4517672857
 20
152.0535759273
 30
0.0
 10
80.4741662785
 20
152.101438248
 30
0.0
 10
80.5220286222
 20
152.1238371931
 30
0.0
 10
80.5460670861
 20
152.1256635365
 30
0.0
  0
SPLINE
  5
2E2
100
AcDbEntity
  8
RUNDUNGEN
100
AcDbSpline
 62
7
  6
CONTINUOUS
 70
0
 71
3
 72
13
 73
9
 74
0
 42
0.0000001
 43
0.0000001
 44
0.0000000001
 40
0.0
 40
0.0
 40
0.0
 40
0.0
 40
0.0901067855
 40
0.1926177534
 40
0.3068240647
 40
0.4315714755
 40
0.7060675369
 40
1.0
 40
1.0
 40
1.0
 40
1.0
 10
102.147330338
 20
140.2031402419
 30
0.0
 10
102.059422033
 20
140.3656224041
 30
0.0
 10
101.8932638099
 20
140.7248255784
 30
0.0
 10
101.6812692364
 20
141.3176987512
 30
0.0
 10
101.4938276285
 20
141.9927803487
 30
0.0
 10
101.2746768181
 20
143.0229308639
 30
0.0
 10
101.0923339696
 20
144.4347675984
 30
0.0
 10
101.0440222957
 20
145.6006956196
 30
0.0
 10
101.0440278099
 20
146.2033211576
 30
0.0
  0
SPLINE
  5
2E3
100
AcDbEntity
  8
RUNDUNGEN
100
AcDbSpline
 62
7
  6
CONTINUOUS
 70
0
 71
3
 72
13
 73
9
 74
0
 42
0.0000001
 43
0.0000001
 44
0.0000000001
 40
0.0
 40
0.0
 40
0.0
 40
0.0
 40
0.2939335642
 40
0.5684287659
 40
0.6931756479
 40
0.8073816491
 40
0.9098926801
 40
1.0
 40
1.0
 40
1.0
 40
1.0
 10
101.0440278099
 20
146.2033211576
 30
0.0
 10
101.0440323992
 20
146.8059135248
 30
0.0
 10
101.0923582497
 20
147.9717726659
 30
0.0
 10
101.2747071324
 20
149.3835235169
 30
0.0
 10
101.4938546467
 20
150.413607844
 30
0.0
 10
101.6812905164
 20
151.0886466037
 30
0.0
 10
101.8932765977
 20
151.6814840943
 30
0.0
 10
102.0594266788
 20
152.040666669
 30
0.0
 10
102.147330338
 20
152.2031402419
 30
0.0
  0
SPLINE
  5
2E4
100
AcDbEntity
  8
RUNDUNGEN
100
AcDbSpline
 62
7
  6
CONTINUOUS
 70
0
 71
3
 72
18
 73
14
 74
0
 42
0.0000001
 43
0.0000001
 44
0.0000000001
 40
0.0
 40
0.0
 40
0.0
 40
0.0
 40
0.0318591828
 40
0.0653933085
 40
0.1020214596
 40
0.1427899992
 40
0.1883890813
 40
0.2392200752
 40
0.3570170133
 40
0.4957208745
 40
0.6525142755
 40
0.8226886888
 40
1.0
 40
1.0
 40
1.0
 40
1.0
 10
104.2695221424
 20
140.2031402419
 30
0.0
 10
104.197007482
 20
140.2031401826
 30
0.0
 10
104.0475693921
 20
140.2223762961
 30
0.0
 10
103.8293632565
 20
140.3071336584
 30
0.0
 10
103.616662144
 20
140.4459744082
 30
0.0
 10
103.4107670807
 20
140.6372296658
 30
0.0
 10
103.212644031
 20
140.8796334342
 30
0.0
 10
102.9476261667
 20
141.2898745978
 30
0.0
 10
102.6534086314
 20
141.9280837648
 30
0.0
 10
102.371485342
 20
142.8273131247
 30
0.0
 10
102.1582499667
 20
143.8672117364
 30
0.0
 10
102.0250810226
 20
145.0084408946
 30
0.0
 10
101.9950801811
 20
145.799716277
 30
0.0
 10
101.9950843243
 20
146.2032944106
 30
0.0
  0
SPLINE
  5
2E5
100
AcDbEntity
  8
RUNDUNGEN
100
AcDbSpline
 62
7
  6
CONTINUOUS
 70
0
 71
3
 72
11
 73
7
 74
0
 42
0.0000001
 43
0.0000001
 44
0.0000000001
 40
0.0
 40
0.0
 40
0.0
 40
0.0
 40
0.2442274012
 40
0.4918368602
 40
0.7442207546
 40
1.0
 40
1.0
 40
1.0
 40
1.0
 10
102.3508483557
 20
177.2031109316
 30
0.0
 10
102.4743043136
 20
177.2025685033
 30
0.0
 10
102.7255892898
 20
177.1489629422
 30
0.0
 10
103.0398508502
 20
176.9248941204
 30
0.0
 10
103.2488454142
 20
176.5942613733
 30
0.0
 10
103.2976877509
 20
176.3348829339
 30
0.0
 10
103.2979906162
 20
176.2055866725
 30
0.0
  0
SPLINE
  5
2E6
100
AcDbEntity
  8
RUNDUNGEN
100
AcDbSpline
 62
7
  6
CONTINUOUS
 70
0
 71
3
 72
39
 73
35
 74
0
 42
0.0000001
 43
0.0000001
 44
0.0000000001
 40
0.0
 40
0.0
 40
0.0
 40
0.0
 40
0.003017382
 40
0.0072947645
 40
0.0197054692
 40
0.0368533102
 40
0.0581006806
 40
0.0827875853
 40
0.1102965063
 40
0.1717562637
 40
0.2394160286
 40
0.2748798376
 40
0.3111669039
 40
0.3481219668
 40
0.3856136451
 40
0.4235242096
 40
0.4426050368
 40
0.4617533915
 40
0.4809574038
 40
0.5001917418
 40
0.5193792676
 40
0.5385790199
 40
0.5578076982
 40
0.5770002918
 40
0.5961348864
 40
0.6151994731
 40
0.6530708616
 40
0.6905154732
 40
0.7274162585
 40
0.7636337668
 40
0.8333304569
 40
0.8979049771
 40
0.954737986
 40
1.0
 40
1.0
 40
1.0
 40
1.0
 10
89.9034482782
 20
152.3861368464
 30
0.0
 10
89.9033898962
 20
152.3811384717
 30
0.0
 10
89.9060347718
 20
152.3691266454
 30
0.0
 10
89.918407859
 20
152.3389299019
 30
0.0
 10
89.9469760323
 20
152.2904257177
 30
0.0
 10
89.9938334908
 20
152.2205802459
 30
0.0
 10
90.0552855358
 20
152.1359942226
 30
0.0
 10
90.1290911335
 20
152.0392722583
 30
0.0
 10
90.2457407105
 20
151.8914607996
 30
0.0
 10
90.4096123972
 20
151.6902662576
 30
0.0
 10
90.5844822043
 20
151.4810622071
 30
0.0
 10
90.7345782613
 20
151.3055304411
 30
0.0
 10
90.8524544755
 20
151.1693806883
 30
0.0
 10
90.9736403784
 20
151.0316570797
 30
0.0
 10
91.0983019536
 20
150.8934280473
 30
0.0
 10
91.2059857319
 20
150.7797737244
 30
0.0
 10
91.2961156698
 20
150.6915062453
 30
0.0
 10
91.3667263095
 20
150.6276644078
 30
0.0
 10
91.4419501166
 20
150.5688108124
 30
0.0
 10
91.5246527881
 20
150.5200387959
 30
0.0
 10
91.6212421759
 20
150.4994230206
 30
0.0
 10
91.7155524773
 20
150.5275195808
 30
0.0
 10
91.7961804444
 20
150.5791710031
 30
0.0
 10
91.8700191368
 20
150.6396920937
 30
0.0
 10
91.9396828134
 20
150.7044340316
 30
0.0
 10
92.0289643107
 20
150.7933960639
 30
0.0
 10
92.1361700233
 20
150.9072484876
 30
0.0
 10
92.260873202
 20
151.0451265182
 30
0.0
 10
92.3819345989
 20
151.1825845659
 30
0.0
 10
92.5363553542
 20
151.3618382829
 30
0.0
 10
92.718768824
 20
151.5774706763
 30
0.0
 10
92.9206739809
 20
151.8213561047
 30
0.0
 10
93.0926102955
 20
152.0373752819
 30
0.0
 10
93.1948712988
 20
152.1722255954
 30
0.0
 10
93.2374544807
 20
152.2339435215
 30
0.0
  0
SPLINE
  5
2E7
100
AcDbEntity
  8
RUNDUNGEN
100
AcDbSpline
 62
7
  6
CONTINUOUS
 70
0
 71
3
 72
31
 73
27
 74
0
 42
0.0000001
 43
0.0000001
 44
0.0000000001
 40
0.0
 40
0.0
 40
0.0
 40
0.0
 40
0.0427596403
 40
0.08867069
 40
0.1128263885
 40
0.137765289
 40
0.1640868859
 40
0.1919504874
 40
0.251788091
 40
0.2838652483
 40
0.3174568527
 40
0.3525525275
 40
0.3891122972
 40
0.4655604131
 40
0.504823945
 40
0.5442253809
 40
0.5834555506
 40
0.6222787697
 40
0.6604976879
 40
0.6979196162
 40
0.734352982
 40
0.7697394032
 40
0.8370471028
 40
0.8987408244
 40
0.9534176451
 40
1.0
 40
1.0
 40
1.0
 40
1.0
 10
90.2485229102
 20
173.1356595176
 30
0.0
 10
90.2482308511
 20
173.0865668416
 30
0.0
 10
90.2618993769
 20
172.9844525216
 30
0.0
 10
90.3077783109
 20
172.8622527975
 30
0.0
 10
90.3619305113
 20
172.767288762
 30
0.0
 10
90.4143185829
 20
172.6980989269
 30
0.0
 10
90.4755251344
 20
172.6308474574
 30
0.0
 10
90.5707040288
 20
172.5408455059
 30
0.0
 10
90.6834749262
 20
172.4602034969
 30
0.0
 10
90.8129301002
 20
172.3964059562
 30
0.0
 10
90.9216973496
 20
172.356228962
 30
0.0
 10
91.0398746076
 20
172.3292319377
 30
0.0
 10
91.2097138079
 20
172.3142207214
 30
0.0
 10
91.3854843851
 20
172.3339054488
 30
0.0
 10
91.5572039695
 20
172.3815378571
 30
0.0
 10
91.6845502583
 20
172.4277818978
 30
0.0
 10
91.8082749191
 20
172.4816441413
 30
0.0
 10
91.9270549327
 20
172.542723067
 30
0.0
 10
92.0413477615
 20
172.6076468245
 30
0.0
 10
92.1511976596
 20
172.6746669788
 30
0.0
 10
92.2570977664
 20
172.7419345504
 30
0.0
 10
92.3868634432
 20
172.835231814
 30
0.0
 10
92.5319375082
 20
172.9562949867
 30
0.0
 10
92.6846240281
 20
173.1020018628
 30
0.0
 10
92.8103422
 20
173.2407124645
 30
0.0
 10
92.8791183049
 20
173.3351517171
 30
0.0
 10
92.9057835045
 20
173.3815127578
 30
0.0
  0
SPLINE
  5
2E8
100
AcDbEntity
  8
RUNDUNGEN
100
AcDbSpline
 62
7
  6
CONTINUOUS
 70
0
 71
3
 72
9
 73
5
 74
0
 42
0.0000001
 43
0.0000001
 44
0.0000000001
 40
0.0
 40
0.0
 40
0.0
 40
0.0
 40
0.5428529098
 40
1.0
 40
1.0
 40
1.0
 40
1.0
 10
80.4499409165
 20
152.0295374642
 30
0.0
 10
80.4281132867
 20
152.0513652101
 30
0.0
 10
80.3829533809
 20
152.0877393557
 30
0.0
 10
80.3257646117
 20
152.1031404075
 30
0.0
 10
80.2997692106
 20
152.1031402419
 30
0.0
  0
LINE
  5
2E9
100
AcDbEntity
  8
RUNDUNGEN
100
AcDbLine
 62
7
  6
CONTINUOUS
 10
80.2997692106
 20
152.1031402419
 11
74.6856278997
 21
152.1030501641
  0
LINE
  5
2EA
100
AcDbEntity
  8
RUNDUNGEN
100
AcDbLine
 62
7
  6
CONTINUOUS
 10
74.6856279075
 20
140.3032301608
 11
80.2997692106
 21
140.3031402419
  0
SPLINE
  5
2EB
100
AcDbEntity
  8
RUNDUNGEN
100
AcDbSpline
 62
7
  6
CONTINUOUS
 70
0
 71
3
 72
9
 73
5
 74
0
 42
0.0000001
 43
0.0000001
 44
0.0000000001
 40
0.0
 40
0.0
 40
0.0
 40
0.0
 40
0.4571469784
 40
1.0
 40
1.0
 40
1.0
 40
1.0
 10
80.2997692106
 20
140.3031402419
 30
0.0
 10
80.3257646085
 20
140.3031397183
 30
0.0
 10
80.3829534669
 20
140.3185411923
 30
0.0
 10
80.4281131596
 20
140.3549153866
 30
0.0
 10
80.4499409165
 20
140.3767430196
 30
0.0
  0
SPLINE
  5
2EC
100
AcDbEntity
  8
RUNDUNGEN
100
AcDbSpline
 62
7
  6
CONTINUOUS
 70
0
 71
3
 72
11
 73
7
 74
0
 42
0.0000001
 43
0.0000001
 44
0.0000000001
 40
0.0
 40
0.0
 40
0.0
 40
0.0
 40
0.2442179621
 40
0.4918170116
 40
0.744203077
 40
1.0
 40
1.0
 40
1.0
 40
1.0
 10
93.3317564378
 20
177.2031402419
 30
0.0
 10
93.4555224324
 20
177.2031402419
 30
0.0
 10
93.7076833861
 20
177.1503355911
 30
0.0
 10
94.0233660742
 20
176.9264925799
 30
0.0
 10
94.2334134812
 20
176.5952819172
 30
0.0
 10
94.2825085263
 20
176.335220141
 30
0.0
 10
94.2828101181
 20
176.2055864539
 30
0.0
  0
SPLINE
  5
2ED
100
AcDbEntity
  8
RUNDUNGEN
100
AcDbSpline
 62
7
  6
CONTINUOUS
 70
0
 71
3
 72
13
 73
9
 74
0
 42
0.0000001
 43
0.0000001
 44
0.0000000001
 40
0.0
 40
0.0
 40
0.0
 40
0.0
 40
0.2882073638
 40
0.5717704596
 40
0.7009756532
 40
0.8167434086
 40
0.9167268769
 40
1.0
 40
1.0
 40
1.0
 40
1.0
 10
91.6763681432
 20
173.8069931971
 30
0.0
 10
91.8049802977
 20
173.8079240852
 30
0.0
 10
92.0605376249
 20
173.7868055323
 30
0.0
 10
92.3661884838
 20
173.7131710932
 30
0.0
 10
92.5857564292
 20
173.6260289586
 30
0.0
 10
92.7219469497
 20
173.5533034209
 30
0.0
 10
92.8298079019
 20
173.4739342563
 30
0.0
 10
92.8855398196
 20
173.4126777761
 30
0.0
 10
92.9057852829
 20
173.3815153328
 30
0.0
  0
SPLINE
  5
2EE
100
AcDbEntity
  8
RUNDUNGEN
100
AcDbSpline
 62
7
  6
CONTINUOUS
 70
0
 71
3
 72
13
 73
9
 74
0
 42
0.0000001
 43
0.0000001
 44
0.0000000001
 40
0.0
 40
0.0
 40
0.0
 40
0.0
 40
0.3367348451
 40
0.6187123409
 40
0.735178259
 40
0.8353610459
 40
0.9217567694
 40
1.0
 40
1.0
 40
1.0
 40
1.0
 10
90.9893122182
 20
173.807003621
 30
0.0
 10
90.8982604798
 20
173.8076640506
 30
0.0
 10
90.7307141451
 20
173.7981869212
 30
0.0
 10
90.5350646227
 20
173.7535207521
 30
0.0
 10
90.412488983
 20
173.6960645391
 30
0.0
 10
90.3454085469
 20
173.647907298
 30
0.0
 10
90.2989220439
 20
173.5921311022
 30
0.0
 10
90.2831538074
 20
173.549246745
 30
0.0
 10
90.2798419749
 20
173.5283503514
 30
0.0
  0
SPLINE
  5
2EF
100
AcDbEntity
  8
RUNDUNGEN
100
AcDbSpline
 62
7
  6
CONTINUOUS
 70
0
 71
3
 72
9
 73
5
 74
0
 42
0.0000001
 43
0.0000001
 44
0.0000000001
 40
0.0
 40
0.0
 40
0.0
 40
0.0
 40
0.4850091756
 40
1.0
 40
1.0
 40
1.0
 40
1.0
 10
103.7953997917
 20
175.7212642759
 30
0.0
 10
103.8053435892
 20
175.6823819694
 30
0.0
 10
103.8120861063
 20
175.5982162486
 30
0.0
 10
103.7927727735
 20
175.5164721439
 30
0.0
 10
103.7779016655
 20
175.4765364978
 30
0.0
  0
LINE
  5
2F0
100
AcDbEntity
  8
RUNDUNGEN
100
AcDbLine
 62
7
  6
CONTINUOUS
 10
82.3724643084
 20
150.2031402419
 11
80.4499409165
 21
152.0295374642
  0
SPLINE
  5
2F1
100
AcDbEntity
  8
RUNDUNGEN
100
AcDbSpline
 62
7
  6
CONTINUOUS
 70
0
 71
3
 72
9
 73
5
 74
0
 42
0.0000001
 43
0.0000001
 44
0.0000000001
 40
0.0
 40
0.0
 40
0.0
 40
0.0
 40
0.5043166022
 40
1.0
 40
1.0
 40
1.0
 40
1.0
 10
93.427640004
 20
152.0515414736
 30
0.0
 10
93.3812161982
 20
152.0567779736
 30
0.0
 10
93.290972417
 20
152.0997600494
 30
0.0
 10
93.2435124744
 20
152.1884087528
 30
0.0
 10
93.2374436409
 20
152.2339243946
 30
0.0
  0
SPLINE
  5
2F2
100
AcDbEntity
  8
RUNDUNGEN
100
AcDbSpline
 62
7
  6
CONTINUOUS
 70
0
 71
3
 72
11
 73
7
 74
0
 42
0.0000001
 43
0.0000001
 44
0.0000000001
 40
0.0
 40
0.0
 40
0.0
 40
0.0
 40
0.2439792715
 40
0.4918375966
 40
0.7444961033
 40
1.0
 40
1.0
 40
1.0
 40
1.0
 10
93.698452783
 20
152.2031402419
 30
0.0
 10
93.6738885647
 20
152.2031402419
 30
0.0
 10
93.6238519803
 20
152.2136830225
 30
0.0
 10
93.5607842451
 20
152.257685471
 30
0.0
 10
93.5188711129
 20
152.3233959521
 30
0.0
 10
93.5085638713
 20
152.374905009
 30
0.0
 10
93.5082565172
 20
152.4006277086
 30
0.0
  0
LINE
  5
2F3
100
AcDbEntity
  8
RUNDUNGEN
100
AcDbLine
 62
7
  6
CONTINUOUS
 10
80.4499409165
 20
140.3767430196
 11
82.3724643084
 21
142.2031402419
  0
SPLINE
  5
2F4
100
AcDbEntity
  8
RUNDUNGEN
100
AcDbSpline
 62
7
  6
CONTINUOUS
 70
0
 71
3
 72
15
 73
11
 74
0
 42
0.0000001
 43
0.0000001
 44
0.0000000001
 40
0.0
 40
0.0
 40
0.0
 40
0.0
 40
0.0768246113
 40
0.1779578928
 40
0.2960695582
 40
0.425843903
 40
0.5635239621
 40
0.7064103367
 40
0.8524587179
 40
1.0
 40
1.0
 40
1.0
 40
1.0
 10
93.594577341
 20
152.1052532745
 30
0.0
 10
93.5465930688
 20
152.0558287966
 30
0.0
 10
93.4325587565
 20
151.9441819034
 30
0.0
 10
93.2454932491
 20
151.7558177533
 30
0.0
 10
93.0239659036
 20
151.5347593007
 30
0.0
 10
92.7795794372
 20
151.2902198703
 30
0.0
 10
92.5193909342
 20
151.0300651154
 30
0.0
 10
92.2488660628
 20
150.7596101369
 30
0.0
 10
91.972314385
 20
150.4826780395
 30
0.0
 10
91.7856613991
 20
150.2970353131
 30
0.0
 10
91.6924643084
 20
150.2031402419
 30
0.0
  0
SPLINE
  5
2F5
100
AcDbEntity
  8
RUNDUNGEN
100
AcDbSpline
 62
7
  6
CONTINUOUS
 70
0
 71
3
 72
9
 73
5
 74
0
 42
0.0000001
 43
0.0000001
 44
0.0000000001
 40
0.0
 40
0.0
 40
0.0
 40
0.0
 40
0.2499811099
 40
1.0
 40
1.0
 40
1.0
 40
1.0
 10
92.9057849803
 20
173.3815127578
 30
0.0
 10
92.9200144972
 20
171.6191855651
 30
0.0
 10
93.0107675355
 20
164.569630769
 30
0.0
 10
93.1755516218
 20
157.5212679187
 30
0.0
 10
93.2374428956
 20
152.2339435215
 30
0.0
  0
SPLINE
  5
2F6
100
AcDbEntity
  8
RUNDUNGEN
100
AcDbSpline
 62
7
  6
CONTINUOUS
 70
0
 71
3
 72
33
 73
29
 74
0
 42
0.0000001
 43
0.0000001
 44
0.0000000001
 40
0.0
 40
0.0
 40
0.0
 40
0.0
 40
0.0603181945
 40
0.1209234802
 40
0.1819022141
 40
0.2432800741
 40
0.3050203317
 40
0.3360006924
 40
0.3670321301
 40
0.3980853319
 40
0.413606733
 40
0.4291073625
 40
0.4445690143
 40
0.4599647631
 40
0.4752548287
 40
0.4829265887
 40
0.4906862469
 40
0.5223898864
 40
0.5388987609
 40
0.5554004719
 40
0.5883058801
 40
0.6210780538
 40
0.6537074784
 40
0.6861855051
 40
0.7506418088
 40
0.8143845713
 40
0.8773083189
 40
1.0
 40
1.0
 40
1.0
 40
1.0
 10
90.989312283
 20
173.8070035201
 30
0.0
 10
90.9808541313
 20
173.7526403035
 30
0.0
 10
90.9683619325
 20
173.6429281135
 30
0.0
 10
90.9608682714
 20
173.4770830704
 30
0.0
 10
90.963094562
 20
173.3101260916
 30
0.0
 10
90.9743435087
 20
173.142514363
 30
0.0
 10
90.9915878115
 20
173.0029095618
 30
0.0
 10
91.0116816524
 20
172.8918069445
 30
0.0
 10
91.0302912842
 20
172.8089590386
 30
0.0
 10
91.0494070771
 20
172.740747376
 30
0.0
 10
91.0678164572
 20
172.6871835519
 30
0.0
 10
91.0836882368
 20
172.6478450813
 30
0.0
 10
91.1023538131
 20
172.6098252704
 30
0.0
 10
91.1249101999
 20
172.574224852
 30
0.0
 10
91.1492344995
 20
172.5482761696
 30
0.0
 10
91.1738912561
 20
172.534377371
 30
0.0
 10
91.2174563812
 20
172.5263104657
 30
0.0
 10
91.2637054774
 20
172.5640002731
 30
0.0
 10
91.2990386903
 20
172.6095889018
 30
0.0
 10
91.3318137071
 20
172.6604868974
 30
0.0
 10
91.3664057414
 20
172.7269175359
 30
0.0
 10
91.4030877468
 20
172.8088178692
 30
0.0
 10
91.4363152852
 20
172.8916881795
 30
0.0
 10
91.47703954
 20
173.00264596
 30
0.0
 10
91.5222891372
 20
173.1420877785
 30
0.0
 10
91.5706276547
 20
173.3096119192
 30
0.0
 10
91.6269419217
 20
173.5299682866
 30
0.0
 10
91.6606151325
 20
173.6962071648
 30
0.0
 10
91.6763618792
 20
173.8070029646
 30
0.0
  0
SPLINE
  5
2F7
100
AcDbEntity
  8
RUNDUNGEN
100
AcDbSpline
 62
7
  6
CONTINUOUS
 70
0
 71
3
 72
17
 73
13
 74
0
 42
0.0000001
 43
0.0000001
 44
0.0000000001
 40
0.0
 40
0.0
 40
0.0
 40
0.0
 40
0.185722657
 40
0.3569788696
 40
0.511018954
 40
0.6459447624
 40
0.7606208321
 40
0.8553271142
 40
0.8959988608
 40
0.9329802048
 40
0.9672330949
 40
1.0
 40
1.0
 40
1.0
 40
1.0
 10
91.6763618792
 20
173.8070029646
 30
0.0
 10
91.7110949245
 20
174.051339519
 30
0.0
 10
91.7898674064
 20
174.5194075345
 30
0.0
 10
91.942753144
 20
175.1815175504
 30
0.0
 10
92.1230875876
 20
175.7665262104
 30
0.0
 10
92.327074263
 20
176.2637095373
 30
0.0
 10
92.5507377092
 20
176.6642013119
 30
0.0
 10
92.7611481281
 20
176.9251954167
 30
0.0
 10
92.9384011675
 20
177.0714829362
 30
0.0
 10
93.0675073168
 20
177.1468471248
 30
0.0
 10
93.1988659439
 20
177.1927061263
 30
0.0
 10
93.2882150138
 20
177.2031284522
 30
0.0
 10
93.3317564934
 20
177.2031402142
 30
0.0
  0
SPLINE
  5
2F8
100
AcDbEntity
  8
RUNDUNGEN
100
AcDbSpline
 62
7
  6
CONTINUOUS
 70
0
 71
3
 72
15
 73
11
 74
0
 42
0.0000001
 43
0.0000001
 44
0.0000000001
 40
0.0
 40
0.0
 40
0.0
 40
0.0
 40
0.1475410245
 40
0.2935890242
 40
0.4364750265
 40
0.5741547998
 40
0.70392904
 40
0.8220413343
 40
0.9231747886
 40
1.0
 40
1.0
 40
1.0
 40
1.0
 10
91.6924643084
 20
142.2031402419
 30
0.0
 10
91.7856626045
 20
142.1092466926
 30
0.0
 10
91.9723138291
 20
141.9236030302
 30
0.0
 10
92.2488644195
 20
141.6466711221
 30
0.0
 10
92.5193894428
 20
141.3762176151
 30
0.0
 10
92.7795766943
 20
141.1160625765
 30
0.0
 10
93.0239644062
 20
140.8715240857
 30
0.0
 10
93.2454901395
 20
140.6504631491
 30
0.0
 10
93.4325599877
 20
140.4621015269
 30
0.0
 10
93.5465912442
 20
140.3504506657
 30
0.0
 10
93.594577341
 20
140.3010272093
 30
0.0
  0
LINE
  5
2F9
100
AcDbEntity
  8
RUNDUNGEN
100
AcDbLine
 62
7
  6
CONTINUOUS
 10
94.2828101682
 20
176.2055648895
 11
103.2979906276
 21
176.2056128431
  0
SPLINE
  5
2FA
100
AcDbEntity
  8
RUNDUNGEN
100
AcDbSpline
 62
7
  6
CONTINUOUS
 70
0
 71
3
 72
16
 73
12
 74
0
 42
0.0000001
 43
0.0000001
 44
0.0000000001
 40
0.0
 40
0.0
 40
0.0
 40
0.0
 40
0.1858647081
 40
0.3571942482
 40
0.5112459306
 40
0.6461448505
 40
0.760781566
 40
0.8554707008
 40
0.9329012941
 40
0.967188714
 40
1.0
 40
1.0
 40
1.0
 40
1.0
 10
92.9057835476
 20
173.381507419
 30
0.0
 10
92.9344822943
 20
173.5848772378
 30
0.0
 10
92.9996866634
 20
173.9744100748
 30
0.0
 10
93.1265989697
 20
174.5253113284
 30
0.0
 10
93.2765805539
 20
175.0118932695
 30
0.0
 10
93.4462264404
 20
175.4251618228
 30
0.0
 10
93.632733866
 20
175.7581974123
 30
0.0
 10
93.8328573989
 20
176.0062520688
 30
0.0
 10
94.0203037093
 20
176.1440675451
 30
0.0
 10
94.1721687516
 20
176.1969245944
 30
0.0
 10
94.2465528975
 20
176.2055726419
 30
0.0
 10
94.2828101181
 20
176.2055864539
 30
0.0
  0
SPLINE
  5
2FB
100
AcDbEntity
  8
RUNDUNGEN
100
AcDbSpline
 62
7
  6
CONTINUOUS
 70
0
 71
3
 72
11
 73
7
 74
0
 42
0.0000001
 43
0.0000001
 44
0.0000000001
 40
0.0
 40
0.0
 40
0.0
 40
0.0
 40
0.2969576928
 40
0.5560062852
 40
0.7859238963
 40
1.0
 40
1.0
 40
1.0
 40
1.0
 10
93.2374545638
 20
152.2339364574
 30
0.0
 10
93.2573642288
 20
152.2596674098
 30
0.0
 10
93.2977617273
 20
152.3056239443
 30
0.0
 10
93.3655346144
 20
152.3596664662
 30
0.0
 10
93.4358965177
 20
152.3929842611
 30
0.0
 10
93.4848026613
 20
152.4006249409
 30
0.0
 10
93.5082565172
 20
152.4006277086
 30
0.0
  0
SPLINE
  5
2FC
100
AcDbEntity
  8
RUNDUNGEN
100
AcDbSpline
 62
7
  6
CONTINUOUS
 70
0
 71
3
 72
9
 73
5
 74
0
 42
0.0000001
 43
0.0000001
 44
0.0000000001
 40
0.0
 40
0.0
 40
0.0
 40
0.0
 40
0.502433611
 40
1.0
 40
1.0
 40
1.0
 40
1.0
 10
93.5082581818
 20
152.4004885256
 30
0.0
 10
95.0863470944
 20
152.4006677759
 30
0.0
 10
98.2272375342
 20
152.4001819833
 30
0.0
 10
101.3681279941
 20
152.4008965815
 30
0.0
 10
102.9309294837
 20
152.400631622
 30
0.0
  0
SPLINE
  5
2FD
100
AcDbEntity
  8
RUNDUNGEN
100
AcDbSpline
 62
7
  6
CONTINUOUS
 70
0
 71
3
 72
9
 73
5
 74
0
 42
0.0000001
 43
0.0000001
 44
0.0000000001
 40
0.0
 40
0.0
 40
0.0
 40
0.0
 40
0.4865728809
 40
1.0
 40
1.0
 40
1.0
 40
1.0
 10
102.9309295298
 20
152.400627758
 30
0.0
 10
102.9848820938
 20
152.4006173639
 30
0.0
 10
103.0961330098
 20
152.386568213
 30
0.0
 10
103.2007866376
 20
152.34708864
 30
0.0
 10
103.2518780573
 20
152.3219745232
 30
0.0
  0
SPLINE
  5
2FE
100
AcDbEntity
  8
RUNDUNGEN
100
AcDbSpline
 62
7
  6
CONTINUOUS
 70
0
 71
3
 72
9
 73
5
 74
0
 42
0.0000001
 43
0.0000001
 44
0.0000000001
 40
0.0
 40
0.0
 40
0.0
 40
0.0
 40
0.2394907193
 40
1.0
 40
1.0
 40
1.0
 40
1.0
 10
103.2518780573
 20
152.3219745232
 30
0.0
 10
103.2674117361
 20
152.314338904
 30
0.0
 10
103.3313367506
 20
152.2805586597
 30
0.0
 10
103.3913624337
 20
152.2396197536
 30
0.0
 10
103.4346527487
 20
152.2057511066
 30
0.0
  0
SPLINE
  5
2FF
100
AcDbEntity
  8
RUNDUNGEN
100
AcDbSpline
 62
7
  6
CONTINUOUS
 70
0
 71
3
 72
9
 73
5
 74
0
 42
0.0000001
 43
0.0000001
 44
0.0000000001
 40
0.0
 40
0.0
 40
0.0
 40
0.0
 40
0.5262623637
 40
1.0
 40
1.0
 40
1.0
 40
1.0
 10
103.7779016715
 20
175.4765365123
 30
0.0
 10
103.7977713015
 20
175.4571633011
 30
0.0
 10
103.8315501406
 20
175.4148658767
 30
0.0
 10
103.843778873
 20
175.3614449501
 30
0.0
 10
103.8438798491
 20
175.3364638121
 30
0.0
  0
SPLINE
  5
300
100
AcDbEntity
  8
RUNDUNGEN
100
AcDbSpline
 62
7
  6
CONTINUOUS
 70
0
 71
3
 72
9
 73
5
 74
0
 42
0.0000001
 43
0.0000001
 44
0.0000000001
 40
0.0
 40
0.0
 40
0.0
 40
0.0
 40
0.249972565
 40
1.0
 40
1.0
 40
1.0
 40
1.0
 10
103.7779016857
 20
175.4765365431
 30
0.0
 10
103.7855223895
 20
173.5370942991
 30
0.0
 10
103.8643418832
 20
165.7786656195
 30
0.0
 10
104.0547634806
 20
158.021994435
 30
0.0
 10
104.1226122801
 20
152.2031669023
 30
0.0
  0
SPLINE
  5
301
100
AcDbEntity
  8
RUNDUNGEN
100
AcDbSpline
 62
7
  6
CONTINUOUS
 70
0
 71
3
 72
10
 73
6
 74
0
 42
0.0000001
 43
0.0000001
 44
0.0000000001
 40
0.0
 40
0.0
 40
0.0
 40
0.0
 40
0.1899230484
 40
0.5358082498
 40
1.0
 40
1.0
 40
1.0
 40
1.0
 10
103.2979906887
 20
176.2055866726
 30
0.0
 10
103.3270273847
 20
176.2055635508
 30
0.0
 10
103.4094493919
 20
176.1852914505
 30
0.0
 10
103.52686484
 20
176.0792706815
 30
0.0
 10
103.590842491
 20
175.9725384628
 30
0.0
 10
103.6228816718
 20
175.9092134864
 30
0.0
  0
SPLINE
  5
302
100
AcDbEntity
  8
RUNDUNGEN
100
AcDbSpline
 62
7
  6
CONTINUOUS
 70
0
 71
3
 72
9
 73
5
 74
0
 42
0.0000001
 43
0.0000001
 44
0.0000000001
 40
0.0
 40
0.0
 40
0.0
 40
0.0
 40
0.2291075847
 40
1.0
 40
1.0
 40
1.0
 40
1.0
 10
103.6228816718
 20
175.9092134864
 30
0.0
 10
103.6328973128
 20
175.8894177172
 30
0.0
 10
103.6744165158
 20
175.8019022989
 30
0.0
 10
103.7079858107
 20
175.7107699396
 30
0.0
 10
103.7308397149
 20
175.6397063257
 30
0.0
  0
SPLINE
  5
303
100
AcDbEntity
  8
RUNDUNGEN
100
AcDbSpline
 62
7
  6
CONTINUOUS
 70
0
 71
3
 72
9
 73
5
 74
0
 42
0.0000001
 43
0.0000001
 44
0.0000000001
 40
0.0
 40
0.0
 40
0.0
 40
0.0
 40
0.2421547126
 40
1.0
 40
1.0
 40
1.0
 40
1.0
 10
103.7308397149
 20
175.6397063257
 30
0.0
 10
103.7350367261
 20
175.6266558297
 30
0.0
 10
103.7519355064
 20
175.5726237291
 30
0.0
 10
103.7671684199
 20
175.5180750963
 30
0.0
 10
103.7779016714
 20
175.4765365431
 30
0.0
  0
SPLINE
  5
304
100
AcDbEntity
  8
RUNDUNGEN
100
AcDbSpline
 62
7
  6
CONTINUOUS
 70
0
 71
3
 72
15
 73
11
 74
0
 42
0.0000001
 43
0.0000001
 44
0.0000000001
 40
0.0
 40
0.0
 40
0.0
 40
0.0
 40
0.0734777324
 40
0.1465378048
 40
0.2908116718
 40
0.4315549623
 40
0.5671316139
 40
0.8134049838
 40
0.9168403683
 40
1.0
 40
1.0
 40
1.0
 40
1.0
 10
91.8278879336
 20
150.5549671669
 30
0.0
 10
91.8737697224
 20
150.5829374528
 30
0.0
 10
91.9607459893
 20
150.6459972702
 30
0.0
 10
92.125150832
 20
150.7808757687
 30
0.0
 10
92.3205331523
 20
150.9553838088
 30
0.0
 10
92.5458335741
 20
151.1647746864
 30
0.0
 10
92.8218584626
 20
151.4291128917
 30
0.0
 10
93.0755596095
 20
151.6773646635
 30
0.0
 10
93.295781214
 20
151.9047616834
 30
0.0
 10
93.3882356232
 20
152.0052219857
 30
0.0
 10
93.4276400041
 20
152.0515452889
 30
0.0
  0
SPLINE
  5
305
100
AcDbEntity
  8
RUNDUNGEN
100
AcDbSpline
 62
7
  6
CONTINUOUS
 70
0
 71
3
 72
16
 73
12
 74
0
 42
0.0000001
 43
0.0000001
 44
0.0000000001
 40
0.0
 40
0.0
 40
0.0
 40
0.0
 40
0.0431997788
 40
0.0719957124
 40
0.1070796889
 40
0.1976040914
 40
0.3151592999
 40
0.4577614635
 40
0.6222848794
 40
0.8048366134
 40
1.0
 40
1.0
 40
1.0
 40
1.0
 10
188.6918861978
 20
176.0884984635
 30
0.0
 10
188.6847643326
 20
176.0794326086
 30
0.0
 10
188.6811291233
 20
176.0584561245
 30
0.0
 10
188.6865964787
 20
176.0305827729
 30
0.0
 10
188.7004989323
 20
175.9915460358
 30
0.0
 10
188.7328571908
 20
175.9349543
 30
0.0
 10
188.7879141263
 20
175.859181268
 30
0.0
 10
188.8614886423
 20
175.7728494982
 30
0.0
 10
188.9515924656
 20
175.6781392976
 30
0.0
 10
189.0559020681
 20
175.5777847243
 30
0.0
 10
189.1310744039
 20
175.510594225
 30
0.0
 10
189.1704771978
 20
175.4765344462
 30
0.0
  0
SPLINE
  5
306
100
AcDbEntity
  8
RUNDUNGEN
100
AcDbSpline
 62
7
  6
CONTINUOUS
 70
0
 71
3
 72
11
 73
7
 74
0
 42
0.0000001
 43
0.0000001
 44
0.0000000001
 40
0.0
 40
0.0
 40
0.0
 40
0.0
 40
0.2215538599
 40
0.4542002857
 40
0.7101605307
 40
1.0
 40
1.0
 40
1.0
 40
1.0
 10
224.8369773293
 20
150.2031402419
 30
0.0
 10
224.8369527803
 20
150.3873606817
 30
0.0
 10
224.7781720299
 20
150.7674784877
 30
0.0
 10
224.5085673766
 20
151.3034685837
 30
0.0
 10
224.041929609
 20
151.7682052976
 30
0.0
 10
223.6207755248
 20
151.9661848247
 30
0.0
 10
223.3882520409
 20
152.0295374642
 30
0.0
  0
SPLINE
  5
307
100
AcDbEntity
  8
RUNDUNGEN
100
AcDbSpline
 62
7
  6
CONTINUOUS
 70
0
 71
3
 72
11
 73
7
 74
0
 42
0.0000001
 43
0.0000001
 44
0.0000000001
 40
0.0
 40
0.0
 40
0.0
 40
0.0
 40
0.289839385
 40
0.5457993969
 40
0.7784458933
 40
1.0
 40
1.0
 40
1.0
 40
1.0
 10
223.3882520409
 20
140.3767430196
 30
0.0
 10
223.6207754316
 20
140.4400957457
 30
0.0
 10
224.0419293565
 20
140.6380749863
 30
0.0
 10
224.5085669446
 20
141.1028114548
 30
0.0
 10
224.7781723177
 20
141.6388014985
 30
0.0
 10
224.8369521076
 20
142.0189195948
 30
0.0
 10
224.8369773293
 20
142.2031402419
 30
0.0
  0
SPLINE
  5
308
100
AcDbEntity
  8
RUNDUNGEN
100
AcDbSpline
 62
7
  6
CONTINUOUS
 70
0
 71
3
 72
30
 73
26
 74
0
 42
0.0000001
 43
0.0000001
 44
0.0000000001
 40
0.0
 40
0.0
 40
0.0
 40
0.0
 40
0.0010633596
 40
0.0041581143
 40
0.0091030489
 40
0.0156891397
 40
0.0237041849
 40
0.0329494903
 40
0.0544456771
 40
0.0790399117
 40
0.1059226789
 40
0.1345261644
 40
0.1644483631
 40
0.2271658235
 40
0.2925421546
 40
0.3596782056
 40
0.4280034134
 40
0.4971307158
 40
0.566785071
 40
0.6367860617
 40
0.7070915683
 40
0.7779077938
 40
0.8498204513
 40
0.9236728938
 40
1.0
 40
1.0
 40
1.0
 40
1.0
 10
201.8369773293
 20
142.2031056206
 30
0.0
 10
201.8369835053
 20
142.2040136878
 30
0.0
 10
201.8383682366
 20
142.1962927226
 30
0.0
 10
201.8398298145
 20
142.1927697223
 30
0.0
 10
201.8432626207
 20
142.1785188514
 30
0.0
 10
201.8474686524
 20
142.1632917677
 30
0.0
 10
201.8528588336
 20
142.1433205637
 30
0.0
 10
201.8616845203
 20
142.111563745
 30
0.0
 10
201.8746411935
 20
142.0660347399
 30
0.0
 10
201.8922582216
 20
142.0062898819
 30
0.0
 10
201.9122219441
 20
141.9408705929
 30
0.0
 10
201.9342132264
 20
141.8713291366
 30
0.0
 10
201.9664877619
 20
141.7729458689
 30
0.0
 10
202.010781388
 20
141.645465003
 30
0.0
 10
202.0696854199
 20
141.489470141
 30
0.0
 10
202.135359239
 20
141.3309929115
 30
0.0
 10
202.2084699534
 20
141.1722520693
 30
0.0
 10
202.2901467961
 20
141.0152794954
 30
0.0
 10
202.3820931399
 20
140.8623519312
 30
0.0
 10
202.4867235733
 20
140.7164313498
 30
0.0
 10
202.6072497076
 20
140.5817237291
 30
0.0
 10
202.7473812752
 20
140.4644390718
 30
0.0
 10
202.9096024402
 20
140.3730147762
 30
0.0
 10
203.0918562923
 20
140.3158383098
 30
0.0
 10
203.2205217457
 20
140.3032304285
 30
0.0
 10
203.2857035944
 20
140.3032301221
 30
0.0
  0
SPLINE
  5
309
100
AcDbEntity
  8
RUNDUNGEN
100
AcDbSpline
 62
7
  6
CONTINUOUS
 70
0
 71
3
 72
30
 73
26
 74
0
 42
0.0000001
 43
0.0000001
 44
0.0000000001
 40
0.0
 40
0.0
 40
0.0
 40
0.0
 40
0.0763270437
 40
0.1501794124
 40
0.2220920175
 40
0.2929082238
 40
0.3632137365
 40
0.4332146812
 40
0.502868928
 40
0.5719962034
 40
0.6403213197
 40
0.7074573526
 40
0.7728336629
 40
0.8355511234
 40
0.8654733171
 40
0.8940768023
 40
0.9209596253
 40
0.9455539415
 40
0.9670501211
 40
0.9762954023
 40
0.9843104382
 40
0.9908965772
 40
0.9958416714
 40
0.9989365206
 40
1.0
 40
1.0
 40
1.0
 40
1.0
 10
203.2857035675
 20
152.1030502016
 30
0.0
 10
203.2205217495
 20
152.1030498595
 30
0.0
 10
203.0918563232
 20
152.0904427989
 30
0.0
 10
202.9096023888
 20
152.0332667025
 30
0.0
 10
202.7473812474
 20
151.9418424006
 30
0.0
 10
202.6072501302
 20
151.8245572374
 30
0.0
 10
202.4867234637
 20
151.689850109
 30
0.0
 10
202.3820930203
 20
151.5439296017
 30
0.0
 10
202.2901461078
 20
151.3910024938
 30
0.0
 10
202.2084693929
 20
151.2340299918
 30
0.0
 10
202.1353584889
 20
151.0752893009
 30
0.0
 10
202.0696849161
 20
150.9168120209
 30
0.0
 10
202.0107809539
 20
150.7608171079
 30
0.0
 10
201.9664874646
 20
150.633336167
 30
0.0
 10
201.934212989
 20
150.5349528473
 30
0.0
 10
201.9122217157
 20
150.4654113151
 30
0.0
 10
201.8922580885
 20
150.3999918528
 30
0.0
 10
201.8746411531
 20
150.3402468179
 30
0.0
 10
201.8616845625
 20
150.2947177571
 30
0.0
 10
201.8528587042
 20
150.2629609615
 30
0.0
 10
201.8474688962
 20
150.2429897466
 30
0.0
 10
201.8432617877
 20
150.2277624784
 30
0.0
 10
201.8398315478
 20
150.2135113006
 30
0.0
 10
201.8383653663
 20
150.209988065
 30
0.0
 10
201.8369854974
 20
150.202266642
 30
0.0
 10
201.8369773293
 20
150.2031747961
 30
0.0
  0
SPLINE
  5
30A
100
AcDbEntity
  8
RUNDUNGEN
100
AcDbSpline
 62
7
  6
CONTINUOUS
 70
0
 71
3
 72
13
 73
9
 74
0
 42
0.0000001
 43
0.0000001
 44
0.0000000001
 40
0.0
 40
0.0
 40
0.0
 40
0.0
 40
0.0621054011
 40
0.1499554416
 40
0.2608212627
 40
0.3908979318
 40
0.6888460232
 40
1.0
 40
1.0
 40
1.0
 40
1.0
 10
223.8321900938
 20
173.807003621
 30
0.0
 10
223.8063865283
 20
173.8075732073
 30
0.0
 10
223.7441237834
 20
173.7997047956
 30
0.0
 10
223.638482441
 20
173.7756559627
 30
0.0
 10
223.5074062197
 20
173.7366235851
 30
0.0
 10
223.2957791277
 20
173.663275643
 30
0.0
 10
223.0110518293
 20
173.5473932594
 30
0.0
 10
222.7817443306
 20
173.4398757989
 30
0.0
 10
222.6663544408
 20
173.3815131293
 30
0.0
  0
SPLINE
  5
30B
100
AcDbEntity
  8
RUNDUNGEN
100
AcDbSpline
 62
7
  6
CONTINUOUS
 70
0
 71
3
 72
15
 73
11
 74
0
 42
0.0000001
 43
0.0000001
 44
0.0000000001
 40
0.0
 40
0.0
 40
0.0
 40
0.0
 40
0.0575538668
 40
0.1314839193
 40
0.2285462562
 40
0.3494093282
 40
0.4915457461
 40
0.6509016623
 40
0.8225122308
 40
1.0
 40
1.0
 40
1.0
 40
1.0
 10
218.6960879946
 20
177.2031297528
 30
0.0
 10
218.6750458704
 20
177.2031297476
 30
0.0
 10
218.6270955868
 20
177.1852146298
 30
0.0
 10
218.5698540472
 20
177.1223722
 30
0.0
 10
218.5181782904
 20
177.0284330293
 30
0.0
 10
218.4731473252
 20
176.904329155
 30
0.0
 10
218.4359183247
 20
176.7542674046
 30
0.0
 10
218.4081824487
 20
176.5833655068
 30
0.0
 10
218.3910583083
 20
176.3981406324
 30
0.0
 10
218.3871211494
 20
176.2704758769
 30
0.0
 10
218.3870719292
 20
176.2055850395
 30
0.0
  0
SPLINE
  5
30C
100
AcDbEntity
  8
RUNDUNGEN
100
AcDbSpline
 62
7
  6
CONTINUOUS
 70
0
 71
3
 72
10
 73
6
 74
0
 42
0.0000001
 43
0.0000001
 44
0.0000000001
 40
0.0
 40
0.0
 40
0.0
 40
0.0
 40
0.6653988159
 40
0.8805160195
 40
1.0
 40
1.0
 40
1.0
 40
1.0
 10
223.3882504311
 20
140.3767430198
 30
0.0
 10
223.3939096701
 20
140.3553827423
 30
0.0
 10
223.3990332353
 20
140.3256749312
 30
0.0
 10
223.3981218154
 20
140.2933873465
 30
0.0
 10
223.3920646354
 20
140.2817162865
 30
0.0
 10
223.3882505904
 20
140.2806219072
 30
0.0
  0
SPLINE
  5
30D
100
AcDbEntity
  8
RUNDUNGEN
100
AcDbSpline
 62
7
  6
CONTINUOUS
 70
0
 71
3
 72
11
 73
7
 74
0
 42
0.0000001
 43
0.0000001
 44
0.0000000001
 40
0.0
 40
0.0
 40
0.0
 40
0.0
 40
0.6608534767
 40
0.7825935658
 40
0.8792137104
 40
1.0
 40
1.0
 40
1.0
 40
1.0
 10
222.8645410649
 20
140.3031402419
 30
0.0
 10
222.8645410568
 20
140.2794169158
 30
0.0
 10
222.8627038097
 20
140.2509969461
 30
0.0
 10
222.8528089197
 20
140.2206605067
 30
0.0
 10
222.8478257855
 20
140.2099964942
 30
0.0
 10
222.841313317
 20
140.2031403683
 30
0.0
 10
222.8369773293
 20
140.2031403683
 30
0.0
  0
SPLINE
  5
30E
100
AcDbEntity
  8
RUNDUNGEN
100
AcDbSpline
 62
7
  6
CONTINUOUS
 70
0
 71
3
 72
11
 73
7
 74
0
 42
0.0000001
 43
0.0000001
 44
0.0000000001
 40
0.0
 40
0.0
 40
0.0
 40
0.0
 40
0.660853444
 40
0.7825935587
 40
0.8792137226
 40
1.0
 40
1.0
 40
1.0
 40
1.0
 10
203.2857026176
 20
140.3032301608
 30
0.0
 10
203.2857026176
 20
140.2794854765
 30
0.0
 10
203.2838637232
 20
140.2510399192
 30
0.0
 10
203.2739599344
 20
140.220676162
 30
0.0
 10
203.2689723176
 20
140.2100025459
 30
0.0
 10
203.2624539882
 20
140.2031402419
 30
0.0
 10
203.2581140971
 20
140.2031402419
 30
0.0
  0
SPLINE
  5
30F
100
AcDbEntity
  8
RUNDUNGEN
100
AcDbSpline
 62
7
  6
CONTINUOUS
 70
0
 71
3
 72
11
 73
7
 74
0
 42
0.0000001
 43
0.0000001
 44
0.0000000001
 40
0.0
 40
0.0
 40
0.0
 40
0.0
 40
0.6608537699
 40
0.7825939179
 40
0.8792140616
 40
1.0
 40
1.0
 40
1.0
 40
1.0
 10
203.2857026176
 20
152.103050164
 30
0.0
 10
203.285702578
 20
152.1267948886
 30
0.0
 10
203.2838636459
 20
152.1552404813
 30
0.0
 10
203.2739598496
 20
152.185604293
 30
0.0
 10
203.2689722435
 20
152.1962779103
 30
0.0
 10
203.2624539374
 20
152.2031402419
 30
0.0
 10
203.2581140532
 20
152.2031402419
 30
0.0
  0
SPLINE
  5
310
100
AcDbEntity
  8
RUNDUNGEN
100
AcDbSpline
 62
7
  6
CONTINUOUS
 70
0
 71
3
 72
11
 73
7
 74
0
 42
0.0000001
 43
0.0000001
 44
0.0000000001
 40
0.0
 40
0.0
 40
0.0
 40
0.0
 40
0.6608534437
 40
0.7825935586
 40
0.8792137226
 40
1.0
 40
1.0
 40
1.0
 40
1.0
 10
222.8645410649
 20
152.1031402419
 30
0.0
 10
222.8645410649
 20
152.1268635943
 30
0.0
 10
222.8627038224
 20
152.1552835968
 30
0.0
 10
222.852808931
 20
152.1856200757
 30
0.0
 10
222.847825795
 20
152.1962841028
 30
0.0
 10
222.8413133216
 20
152.2031402419
 30
0.0
 10
222.8369773293
 20
152.2031402419
 30
0.0
  0
SPLINE
  5
311
100
AcDbEntity
  8
RUNDUNGEN
100
AcDbSpline
 62
7
  6
CONTINUOUS
 70
0
 71
3
 72
10
 73
6
 74
0
 42
0.0000001
 43
0.0000001
 44
0.0000000001
 40
0.0
 40
0.0
 40
0.0
 40
0.0
 40
0.6654072341
 40
0.8805217275
 40
1.0
 40
1.0
 40
1.0
 40
1.0
 10
223.3882520409
 20
152.0295374642
 30
0.0
 10
223.3939120292
 20
152.0508991869
 30
0.0
 10
223.3990358727
 20
152.0806089583
 30
0.0
 10
223.3981249323
 20
152.1128984692
 30
0.0
 10
223.3920662927
 20
152.1245698106
 30
0.0
 10
223.388252013
 20
152.1256635365
 30
0.0
  0
SPLINE
  5
312
100
AcDbEntity
  8
RUNDUNGEN
100
AcDbSpline
 62
7
  6
CONTINUOUS
 70
0
 71
3
 72
15
 73
11
 74
0
 42
0.0000001
 43
0.0000001
 44
0.0000000001
 40
0.0
 40
0.0
 40
0.0
 40
0.0
 40
0.0575575713
 40
0.1314965501
 40
0.2285662398
 40
0.3494327471
 40
0.491568156
 40
0.6509191705
 40
0.8225218691
 40
1.0
 40
1.0
 40
1.0
 40
1.0
 10
190.9501704182
 20
177.2031402311
 30
0.0
 10
190.9291275881
 20
177.2031301522
 30
0.0
 10
190.8811836245
 20
177.1851940937
 30
0.0
 10
190.8239519126
 20
177.1223388871
 30
0.0
 10
190.7722831827
 20
177.0283913567
 30
0.0
 10
190.7272591006
 20
176.9042857891
 30
0.0
 10
190.6900361974
 20
176.7542283788
 30
0.0
 10
190.6623052902
 20
176.5833362252
 30
0.0
 10
190.6451845436
 20
176.3981250271
 30
0.0
 10
190.6412483995
 20
176.2704705898
 30
0.0
 10
190.6411993749
 20
176.2055852684
 30
0.0
  0
SPLINE
  5
313
100
AcDbEntity
  8
RUNDUNGEN
100
AcDbSpline
 62
7
  6
CONTINUOUS
 70
0
 71
3
 72
13
 73
9
 74
0
 42
0.0000001
 43
0.0000001
 44
0.0000000001
 40
0.0
 40
0.0
 40
0.0
 40
0.0
 40
0.1231373361
 40
0.246543997
 40
0.370417804
 40
0.4949623292
 40
0.7458230856
 40
1.0
 40
1.0
 40
1.0
 40
1.0
 10
218.9093172265
 20
177.1989213453
 30
0.0
 10
219.1669582309
 20
177.1887528089
 30
0.0
 10
219.6821129838
 20
177.1316140246
 30
0.0
 10
220.4354563828
 20
176.9369066842
 30
0.0
 10
221.1567584955
 20
176.6367464271
 30
0.0
 10
222.0591605004
 20
176.1031142554
 30
0.0
 10
223.04371045
 20
175.2005622591
 30
0.0
 10
223.6113639707
 20
174.2912603191
 30
0.0
 10
223.8321898945
 20
173.8070035201
 30
0.0
  0
SPLINE
  5
314
100
AcDbEntity
  8
RUNDUNGEN
100
AcDbSpline
 62
7
  6
CONTINUOUS
 70
0
 71
3
 72
12
 73
8
 74
0
 42
0.0000001
 43
0.0000001
 44
0.0000000001
 40
0.0
 40
0.0
 40
0.0
 40
0.0
 40
0.1286063706
 40
0.2258718674
 40
0.3469725849
 40
0.6497288695
 40
1.0
 40
1.0
 40
1.0
 40
1.0
 10
193.8369773293
 20
152.2031402419
 30
0.0
 10
193.8462573681
 20
152.2031402434
 30
0.0
 10
193.8606439199
 20
152.2160023058
 30
0.0
 10
193.8722194936
 20
152.2375221624
 30
0.0
 10
193.8854352645
 20
152.2731325444
 30
0.0
 10
193.8956852922
 20
152.3281875345
 30
0.0
 10
193.8986778264
 20
152.3753532831
 30
0.0
 10
193.8987759368
 20
152.4006281213
 30
0.0
  0
SPLINE
  5
315
100
AcDbEntity
  8
RUNDUNGEN
100
AcDbSpline
 62
7
  6
CONTINUOUS
 70
0
 71
3
 72
12
 73
8
 74
0
 42
0.0000001
 43
0.0000001
 44
0.0000000001
 40
0.0
 40
0.0
 40
0.0
 40
0.0
 40
0.1286063043
 40
0.2258717881
 40
0.3469725028
 40
0.6497288089
 40
1.0
 40
1.0
 40
1.0
 40
1.0
 10
222.4974282184
 20
152.2031402321
 30
0.0
 10
222.5067082482
 20
152.2031402346
 30
0.0
 10
222.5210947818
 20
152.2160022974
 30
0.0
 10
222.532670339
 20
152.2375221417
 30
0.0
 10
222.5458860953
 20
152.2731325113
 30
0.0
 10
222.5561361135
 20
152.3281874817
 30
0.0
 10
222.5591286488
 20
152.3753532142
 30
0.0
 10
222.5592267624
 20
152.400628045
 30
0.0
  0
SPLINE
  5
316
100
AcDbEntity
  8
RUNDUNGEN
100
AcDbSpline
 62
7
  6
CONTINUOUS
 70
0
 71
3
 72
13
 73
9
 74
0
 42
0.0000001
 43
0.0000001
 44
0.0000000001
 40
0.0
 40
0.0
 40
0.0
 40
0.0
 40
0.0312530793
 40
0.0916508936
 40
0.1841889373
 40
0.3069353566
 40
0.6255270521
 40
1.0
 40
1.0
 40
1.0
 40
1.0
 10
222.8369773198
 20
152.2031036185
 30
0.0
 10
222.8390837314
 20
152.2030995677
 30
0.0
 10
222.8438787145
 20
152.2087000314
 30
0.0
 10
222.8476636141
 20
152.2199398237
 30
0.0
 10
222.8521624103
 20
152.2382822054
 30
0.0
 10
222.8574663113
 20
152.2737499424
 30
0.0
 10
222.8619010474
 20
152.3287000963
 30
0.0
 10
222.8631039196
 20
152.375386005
 30
0.0
 10
222.8631453302
 20
152.4006249434
 30
0.0
  0
SPLINE
  5
317
100
AcDbEntity
  8
RUNDUNGEN
100
AcDbSpline
 62
7
  6
CONTINUOUS
 70
0
 71
3
 72
14
 73
10
 74
0
 42
0.0000001
 43
0.0000001
 44
0.0000000001
 40
0.0
 40
0.0
 40
0.0
 40
0.0
 40
0.0525680012
 40
0.1285970805
 40
0.2262757743
 40
0.3465540656
 40
0.4868769472
 40
0.6440738113
 40
1.0
 40
1.0
 40
1.0
 40
1.0
 10
188.2364163448
 20
174.8940341863
 30
0.0
 10
188.2365352834
 20
174.913870812
 30
0.0
 10
188.2559857128
 20
174.9608469581
 30
0.0
 10
188.3080507265
 20
175.0284531466
 30
0.0
 10
188.3928867377
 20
175.1011087201
 30
0.0
 10
188.5033572837
 20
175.1789515116
 30
0.0
 10
188.6384715834
 20
175.2606146869
 30
0.0
 10
188.8596082072
 20
175.370263113
 30
0.0
 10
189.0424757599
 20
175.4358465382
 30
0.0
 10
189.1704764164
 20
175.4765341851
 30
0.0
  0
SPLINE
  5
318
100
AcDbEntity
  8
RUNDUNGEN
100
AcDbSpline
 62
7
  6
CONTINUOUS
 70
0
 71
3
 72
41
 73
37
 74
0
 42
0.0000001
 43
0.0000001
 44
0.0000000001
 40
0.0
 40
0.0
 40
0.0
 40
0.0
 40
0.066486767
 40
0.1332816058
 40
0.2001638885
 40
0.2669745249
 40
0.3335633462
 40
0.3667065891
 40
0.3996898536
 40
0.4324526081
 40
0.4648896504
 40
0.480924963
 40
0.4967761951
 40
0.5123540118
 40
0.5275023345
 40
0.5419033212
 40
0.5486158983
 40
0.5547739187
 40
0.5600504576
 40
0.5639777148
 40
0.5665867921
 40
0.5696573152
 40
0.5739995294
 40
0.5792981059
 40
0.5852326057
 40
0.5915970886
 40
0.6051491216
 40
0.6193967969
 40
0.6340816928
 40
0.6490603735
 40
0.6795916715
 40
0.7420268154
 40
0.8055959406
 40
0.8698771007
 40
0.9346924694
 40
1.0
 40
1.0
 40
1.0
 40
1.0
 10
223.8321898945
 20
173.8070035201
 30
0.0
 10
223.8547339755
 20
173.7575583867
 30
0.0
 10
223.899484493
 20
173.6582362219
 30
0.0
 10
223.9649574114
 20
173.5083027795
 30
0.0
 10
224.0285187759
 20
173.3572606624
 30
0.0
 10
224.0898772882
 20
173.2054916917
 30
0.0
 10
224.139158365
 20
173.0786004672
 30
0.0
 10
224.1776516938
 20
172.9771869919
 30
0.0
 10
224.2060793029
 20
172.9015252636
 30
0.0
 10
224.2341479091
 20
172.8263456075
 30
0.0
 10
224.2574103153
 20
172.7641575627
 30
0.0
 10
224.2760679054
 20
172.7150052182
 30
0.0
 10
224.2900527839
 20
172.6788193614
 30
0.0
 10
224.3041441175
 20
172.6434509587
 30
0.0
 10
224.3184001417
 20
172.6094366379
 30
0.0
 10
224.3306468477
 20
172.5824209618
 30
0.0
 10
224.3408428871
 20
172.5626159909
 30
0.0
 10
224.3482378082
 20
172.5496911235
 30
0.0
 10
224.3556363818
 20
172.5396551434
 30
0.0
 10
224.3622686406
 20
172.5322365048
 30
0.0
 10
224.3712717049
 20
172.5312546854
 30
0.0
 10
224.3760448024
 20
172.5392095362
 30
0.0
 10
224.3787370718
 20
172.5489275817
 30
0.0
 10
224.3806299207
 20
172.5616622004
 30
0.0
 10
224.3816578272
 20
172.5759762909
 30
0.0
 10
224.3822068888
 20
172.5971176952
 30
0.0
 10
224.3815539596
 20
172.6250400736
 30
0.0
 10
224.3794168506
 20
172.65970546
 30
0.0
 10
224.3761986191
 20
172.6954544333
 30
0.0
 10
224.3707249962
 20
172.7443515641
 30
0.0
 10
224.3585627472
 20
172.8317512371
 30
0.0
 10
224.3357096972
 20
172.9576944748
 30
0.0
 10
224.3010209463
 20
173.1093490134
 30
0.0
 10
224.2597328
 20
173.261354882
 30
0.0
 10
224.212212695
 20
173.41301458
 30
0.0
 10
224.1764773541
 20
173.5132203946
 30
0.0
 10
224.1575439636
 20
173.5631279017
 30
0.0
  0
SPLINE
  5
319
100
AcDbEntity
  8
RUNDUNGEN
100
AcDbSpline
 62
7
  6
CONTINUOUS
 70
0
 71
3
 72
11
 73
7
 74
0
 42
0.0000001
 43
0.0000001
 44
0.0000000001
 40
0.0
 40
0.0
 40
0.0
 40
0.0
 40
0.2541309865
 40
0.5054135125
 40
0.7538550845
 40
1.0
 40
1.0
 40
1.0
 40
1.0
 10
224.055426122
 20
173.8070029646
 30
0.0
 10
223.866040513
 20
174.2183652112
 30
0.0
 10
223.3973215412
 20
174.9978071438
 30
0.0
 10
222.4558791177
 20
175.9720959591
 30
0.0
 10
221.3276225436
 20
176.6967883163
 30
0.0
 10
220.4852967925
 20
176.9882506266
 30
0.0
 10
220.0565209822
 20
177.0807167795
 30
0.0
  0
LINE
  5
31A
100
AcDbEntity
  8
RUNDUNGEN
100
AcDbLine
 62
7
  6
CONTINUOUS
 10
222.8645410649
 20
152.1031402419
 11
203.2857035675
 21
152.1030501641
  0
SPLINE
  5
31B
100
AcDbEntity
  8
RUNDUNGEN
100
AcDbSpline
 62
7
  6
CONTINUOUS
 70
0
 71
3
 72
9
 73
5
 74
0
 42
0.0000001
 43
0.0000001
 44
0.0000000001
 40
0.0
 40
0.0
 40
0.0
 40
0.0
 40
0.250026637
 40
1.0
 40
1.0
 40
1.0
 40
1.0
 10
189.1704772174
 20
175.4765341851
 30
0.0
 10
189.1680020509
 20
173.5368596146
 30
0.0
 10
189.142401125
 20
165.7790081278
 30
0.0
 10
189.0805091447
 20
158.0213423252
 30
0.0
 10
189.0584695351
 20
152.2031822045
 30
0.0
  0
SPLINE
  5
31C
100
AcDbEntity
  8
RUNDUNGEN
100
AcDbSpline
 62
7
  6
CONTINUOUS
 70
0
 71
3
 72
9
 73
5
 74
0
 42
0.0000001
 43
0.0000001
 44
0.0000000001
 40
0.0
 40
0.0
 40
0.0
 40
0.0
 40
0.2498350727
 40
1.0
 40
1.0
 40
1.0
 40
1.0
 10
193.8987762407
 20
152.4007062982
 30
0.0
 10
196.2855714805
 20
152.4007980117
 30
0.0
 10
205.8390549694
 20
152.4003511299
 30
0.0
 10
215.3925384542
 20
152.400406657
 30
0.0
 10
222.5592266985
 20
152.4004838612
 30
0.0
  0
LINE
  5
31D
100
AcDbEntity
  8
RUNDUNGEN
100
AcDbLine
 62
7
  6
CONTINUOUS
 10
203.2857035944
 20
140.3032301608
 11
222.8645410649
 21
140.3031402419
  0
SPLINE
  5
31E
100
AcDbEntity
  8
RUNDUNGEN
100
AcDbSpline
 62
7
  6
CONTINUOUS
 70
0
 71
3
 72
9
 73
5
 74
0
 42
0.0000001
 43
0.0000001
 44
0.0000000001
 40
0.0
 40
0.0
 40
0.0
 40
0.0
 40
0.2500171528
 40
1.0
 40
1.0
 40
1.0
 40
1.0
 10
222.6663545881
 20
173.3815040648
 30
0.0
 10
222.6617687345
 20
171.6329605933
 30
0.0
 10
222.6326045754
 20
164.6392961602
 30
0.0
 10
222.5795876441
 20
157.6457571343
 30
0.0
 10
222.559226766
 20
152.4006280449
 30
0.0
  0
SPLINE
  5
31F
100
AcDbEntity
  8
RUNDUNGEN
100
AcDbSpline
 62
7
  6
CONTINUOUS
 70
0
 71
3
 72
24
 73
20
 74
0
 42
0.0000001
 43
0.0000001
 44
0.0000000001
 40
0.0
 40
0.0
 40
0.0
 40
0.0
 40
0.1635004065
 40
0.329578877
 40
0.4117205277
 40
0.4923570768
 40
0.5706561161
 40
0.6456986544
 40
0.7167866601
 40
0.7826630777
 40
0.8414422682
 40
0.8911394661
 40
0.9292492196
 40
0.9436957628
 40
0.9554868813
 40
0.9656506827
 40
0.9757328226
 40
0.9869951823
 40
1.0
 40
1.0
 40
1.0
 40
1.0
 10
222.6663598057
 20
173.3815101632
 30
0.0
 10
222.7686680702
 20
173.3244487963
 30
0.0
 10
222.9739993507
 20
173.2077286425
 30
0.0
 10
223.2238243467
 20
173.0506735696
 30
0.0
 10
223.4198275481
 20
172.9199038639
 30
0.0
 10
223.5625709968
 20
172.8226420262
 30
0.0
 10
223.7021109974
 20
172.7297300686
 30
0.0
 10
223.8369439775
 20
172.6420928558
 30
0.0
 10
223.9618056603
 20
172.5555682825
 30
0.0
 10
224.0771786576
 20
172.4758356419
 30
0.0
 10
224.1825693651
 20
172.4086305779
 30
0.0
 10
224.2732781589
 20
172.3558468304
 30
0.0
 10
224.3413592681
 20
172.3268920987
 30
0.0
 10
224.3871747349
 20
172.3195565439
 30
0.0
 10
224.4135456024
 20
172.3220968319
 30
0.0
 10
224.4346657737
 20
172.3327329513
 30
0.0
 10
224.4487634291
 20
172.3511937546
 30
0.0
 10
224.4561938332
 20
172.3749902256
 30
0.0
 10
224.4573855083
 20
172.3924620574
 30
0.0
 10
224.4572944097
 20
172.401779332
 30
0.0
  0
SPLINE
  5
320
100
AcDbEntity
  8
RUNDUNGEN
100
AcDbSpline
 62
7
  6
CONTINUOUS
 70
0
 71
3
 72
11
 73
7
 74
0
 42
0.0000001
 43
0.0000001
 44
0.0000000001
 40
0.0
 40
0.0
 40
0.0
 40
0.0
 40
0.246248957
 40
0.4942986765
 40
0.7454345723
 40
1.0
 40
1.0
 40
1.0
 40
1.0
 10
218.3870718971
 20
176.2055850398
 30
0.0
 10
218.8303145538
 20
176.2055315972
 30
0.0
 10
219.7254529536
 20
176.073009855
 30
0.0
 10
220.9555443598
 20
175.4928098439
 30
0.0
 10
221.9826072636
 20
174.5794373959
 30
0.0
 10
222.4760671686
 20
173.7983338475
 30
0.0
 10
222.6663597897
 20
173.3815040648
 30
0.0
  0
SPLINE
  5
321
100
AcDbEntity
  8
RUNDUNGEN
100
AcDbSpline
 62
7
  6
CONTINUOUS
 70
0
 71
3
 72
9
 73
5
 74
0
 42
0.0000001
 43
0.0000001
 44
0.0000000001
 40
0.0
 40
0.0
 40
0.0
 40
0.0
 40
0.5036409579
 40
1.0
 40
1.0
 40
1.0
 40
1.0
 10
222.8631389993
 20
152.4006255384
 30
0.0
 10
222.9846139757
 20
152.400575169
 30
0.0
 10
223.2264512942
 20
152.3754302646
 30
0.0
 10
223.4580563039
 20
152.3020198784
 30
0.0
 10
223.5681312003
 20
152.2549447388
 30
0.0
  0
SPLINE
  5
322
100
AcDbEntity
  8
RUNDUNGEN
100
AcDbSpline
 62
7
  6
CONTINUOUS
 70
0
 71
3
 72
11
 73
7
 74
0
 42
0.0000001
 43
0.0000001
 44
0.0000000001
 40
0.0
 40
0.0
 40
0.0
 40
0.0
 40
0.2766872438
 40
0.5334872646
 40
0.77506392
 40
1.0
 40
1.0
 40
1.0
 40
1.0
 10
223.7127104644
 20
152.1855651705
 30
0.0
 10
223.8688592703
 20
152.1022170989
 30
0.0
 10
224.1485161097
 20
151.89789396
 30
0.0
 10
224.466168028
 20
151.5118603564
 30
0.0
 10
224.6787525003
 20
151.0973383898
 30
0.0
 10
224.7621450528
 20
150.8088305969
 30
0.0
 10
224.7897683204
 20
150.667611887
 30
0.0
  0
LINE
  5
323
100
AcDbEntity
  8
RUNDUNGEN
100
AcDbLine
 62
7
  6
CONTINUOUS
 10
222.5592272499
 20
152.4006262703
 11
222.8631390023
 21
152.4006273286
  0
SPLINE
  5
324
100
AcDbEntity
  8
RUNDUNGEN
100
AcDbSpline
 62
7
  6
CONTINUOUS
 70
0
 71
3
 72
11
 73
7
 74
0
 42
0.0000001
 43
0.0000001
 44
0.0000000001
 40
0.0
 40
0.0
 40
0.0
 40
0.0
 40
0.2534979082
 40
0.5042254299
 40
0.7527307456
 40
1.0
 40
1.0
 40
1.0
 40
1.0
 10
189.1704764156
 20
175.4765335884
 30
0.0
 10
189.2588919066
 20
175.5892791847
 30
0.0
 10
189.4598305948
 20
175.7952041635
 30
0.0
 10
189.8200289361
 20
176.0281322712
 30
0.0
 10
190.2201590209
 20
176.172890537
 30
0.0
 10
190.5014408714
 20
176.2055660748
 30
0.0
 10
190.6411993749
 20
176.2055852684
 30
0.0
  0
LINE
  5
325
100
AcDbEntity
  8
RUNDUNGEN
100
AcDbLine
 62
7
  6
CONTINUOUS
 10
190.641199396
 20
176.2056126328
 11
218.3870718804
 21
176.2055625025
  0
SPLINE
  5
326
100
AcDbEntity
  8
RUNDUNGEN
100
AcDbSpline
 62
7
  6
CONTINUOUS
 70
0
 71
3
 72
9
 73
5
 74
0
 42
0.0000001
 43
0.0000001
 44
0.0000000001
 40
0.0
 40
0.0
 40
0.0
 40
0.0
 40
0.6272079908
 40
1.0
 40
1.0
 40
1.0
 40
1.0
 10
224.0554068435
 20
173.8069931971
 30
0.0
 10
224.066999047
 20
173.8072543727
 30
0.0
 10
224.0852085242
 20
173.8073987026
 30
0.0
 10
224.1038821727
 20
173.7977292807
 30
0.0
 10
224.1067948212
 20
173.7914832366
 30
0.0
  0
SPLINE
  5
327
100
AcDbEntity
  8
RUNDUNGEN
100
AcDbSpline
 62
7
  6
CONTINUOUS
 70
0
 71
3
 72
13
 73
9
 74
0
 42
0.0000001
 43
0.0000001
 44
0.0000000001
 40
0.0
 40
0.0
 40
0.0
 40
0.0
 40
0.2342262731
 40
0.4744839475
 40
0.5987085575
 40
0.7269374018
 40
0.8602207864
 40
1.0
 40
1.0
 40
1.0
 40
1.0
 10
102.4858505961
 20
87.9284098579
 30
0.0
 10
102.318487208
 20
87.9275265979
 30
0.0
 10
101.978285516
 20
87.8822664113
 30
0.0
 10
101.5777107142
 20
87.7177419018
 30
0.0
 10
101.2849330502
 20
87.5204794556
 30
0.0
 10
101.0792216135
 20
87.3355522947
 30
0.0
 10
100.896047728
 20
87.113575528
 30
0.0
 10
100.7964890059
 20
86.9445974981
 30
0.0
 10
100.7528599167
 20
86.8547516004
 30
0.0
  0
LINE
  5
328
100
AcDbEntity
  8
RUNDUNGEN
100
AcDbLine
 62
7
  6
CONTINUOUS
 10
93.2374545638
 20
52.15008334
 11
93.2804275187
 21
52.2843534828
  0
SPLINE
  5
329
100
AcDbEntity
  8
RUNDUNGEN
100
AcDbSpline
 62
7
  6
CONTINUOUS
 70
0
 71
3
 72
15
 73
11
 74
0
 42
0.0000001
 43
0.0000001
 44
0.0000000001
 40
0.0
 40
0.0
 40
0.0
 40
0.0
 40
0.1692799562
 40
0.3173974882
 40
0.4496640204
 40
0.5707814373
 40
0.6839696401
 40
0.7919575391
 40
0.8966766389
 40
1.0
 40
1.0
 40
1.0
 40
1.0
 10
104.1334580542
 20
85.6464109359
 30
0.0
 10
104.1918970672
 20
85.8213528302
 30
0.0
 10
104.2489508618
 20
86.1697445518
 30
0.0
 10
104.1803666198
 20
86.6609181151
 30
0.0
 10
104.0073955014
 20
87.0677619715
 30
0.0
 10
103.7661395613
 20
87.3904744076
 30
0.0
 10
103.4803689323
 20
87.634527034
 30
0.0
 10
103.1661815491
 20
87.8053161583
 30
0.0
 10
102.834647542
 20
87.9061470573
 30
0.0
 10
102.6073393384
 20
87.9283916822
 30
0.0
 10
102.494759988
 20
87.9283504868
 30
0.0
  0
LINE
  5
32A
100
AcDbEntity
  8
RUNDUNGEN
100
AcDbLine
 62
7
  6
CONTINUOUS
 10
100.8481883889
 20
86.7138684013
 11
100.8053139411
 21
86.5772501509
  0
LINE
  5
32B
100
AcDbEntity
  8
RUNDUNGEN
100
AcDbLine
 62
7
  6
CONTINUOUS
 10
80.3958953802
 20
52.9284348858
 11
74.7818403854
 21
72.5072981618
  0
SPLINE
  5
32C
100
AcDbEntity
  8
RUNDUNGEN
100
AcDbSpline
 62
7
  6
CONTINUOUS
 70
0
 71
3
 72
17
 73
13
 74
0
 42
0.0000001
 43
0.0000001
 44
0.0000000001
 40
0.0
 40
0.0
 40
0.0
 40
0.0
 40
0.0626058471
 40
0.1252209194
 40
0.1878405225
 40
0.2504588343
 40
0.3756330429
 40
0.5007349136
 40
0.6257555856
 40
0.7506682736
 40
0.8754311458
 40
1.0
 40
1.0
 40
1.0
 40
1.0
 10
74.739053949
 20
72.6759992363
 30
0.0
 10
74.7200512643
 20
72.7614592936
 30
0.0
 10
74.6895634516
 20
72.9341170873
 30
0.0
 10
74.6609471124
 20
73.1952951724
 30
0.0
 10
74.6386608058
 20
73.4570442576
 30
0.0
 10
74.6039598678
 20
73.8054739172
 30
0.0
 10
74.5319344633
 20
74.2381833733
 30
0.0
 10
74.3663931391
 20
74.7390593555
 30
0.0
 10
74.1065150838
 20
75.1991848148
 30
0.0
 10
73.7449919299
 20
75.5866705792
 30
0.0
 10
73.288507817
 20
75.8583719531
 30
0.0
 10
72.9372998236
 20
75.9283999309
 30
0.0
 10
72.7631042355
 20
75.9284002765
 30
0.0
  0
LINE
  5
32D
100
AcDbEntity
  8
RUNDUNGEN
100
AcDbLine
 62
7
  6
CONTINUOUS
 10
72.7631042355
 20
75.9284002765
 11
68.767578125
 21
75.9286299913
  0
SPLINE
  5
32E
100
AcDbEntity
  8
RUNDUNGEN
100
AcDbSpline
 62
7
  6
CONTINUOUS
 70
0
 71
3
 72
13
 73
9
 74
0
 42
0.0000001
 43
0.0000001
 44
0.0000000001
 40
0.0
 40
0.0
 40
0.0
 40
0.0
 40
0.261087988
 40
0.5155756046
 40
0.6397311938
 40
0.7614554808
 40
0.8813899741
 40
1.0
 40
1.0
 40
1.0
 40
1.0
 10
91.6763681432
 20
51.7100053715
 30
0.0
 10
91.7995478291
 20
51.6704333721
 30
0.0
 10
92.0587080714
 20
51.6344619825
 30
0.0
 10
92.3754427329
 20
51.706609661
 30
0.0
 10
92.5924855651
 20
51.8294583496
 30
0.0
 10
92.7301177084
 20
51.9494965397
 30
0.0
 10
92.8378681159
 20
52.0934460736
 30
0.0
 10
92.8873927559
 20
52.2019854537
 30
0.0
 10
92.9057852829
 20
52.2578098011
 30
0.0
  0
SPLINE
  5
32F
100
AcDbEntity
  8
RUNDUNGEN
100
AcDbSpline
 62
7
  6
CONTINUOUS
 70
0
 71
3
 72
13
 73
9
 74
0
 42
0.0000001
 43
0.0000001
 44
0.0000000001
 40
0.0
 40
0.0
 40
0.0
 40
0.0
 40
0.2610882876
 40
0.5155759334
 40
0.6397314436
 40
0.7614556147
 40
0.8813900092
 40
1.0
 40
1.0
 40
1.0
 40
1.0
 10
90.9893122182
 20
51.9332221213
 30
0.0
 10
90.8663961405
 20
51.9736114941
 30
0.0
 10
90.6355845705
 20
52.0968430183
 30
0.0
 10
90.4217471264
 20
52.3413890157
 30
0.0
 10
90.3183660343
 20
52.5683546181
 30
0.0
 10
90.2775783452
 20
52.7463686366
 30
0.0
 10
90.2750213197
 20
52.9261627202
 30
0.0
 10
90.2987558231
 20
53.0430837667
 30
0.0
 10
90.3166902452
 20
53.0990577743
 30
0.0
  0
SPLINE
  5
330
100
AcDbEntity
  8
RUNDUNGEN
100
AcDbSpline
 62
7
  6
CONTINUOUS
 70
0
 71
3
 72
12
 73
8
 74
0
 42
0.0000001
 43
0.0000001
 44
0.0000000001
 40
0.0
 40
0.0
 40
0.0
 40
0.0
 40
0.2781388564
 40
0.5405452333
 40
0.7788531338
 40
0.8909077729
 40
1.0
 40
1.0
 40
1.0
 40
1.0
 10
102.4040451713
 20
87.0208963715
 30
0.0
 10
102.2813711705
 20
87.0604810801
 30
0.0
 10
102.0297097
 20
87.1022804381
 30
0.0
 10
101.666479676
 20
87.0480824889
 30
0.0
 10
101.4121377131
 20
86.9017418464
 30
0.0
 10
101.2748120922
 20
86.7365682695
 30
0.0
 10
101.2299758751
 20
86.6429653907
 30
0.0
 10
101.2141886102
 20
86.5949350173
 30
0.0
  0
LINE
  5
331
100
AcDbEntity
  8
RUNDUNGEN
100
AcDbLine
 62
7
  6
CONTINUOUS
 10
93.4276400041
 20
52.1646294248
 11
93.4916597645
 21
52.3463498112
  0
LINE
  5
332
100
AcDbEntity
  8
RUNDUNGEN
100
AcDbLine
 62
7
  6
CONTINUOUS
 10
93.4916597645
 20
52.3463498112
 11
93.5145755927
 21
52.4112124119
  0
SPLINE
  5
333
100
AcDbEntity
  8
RUNDUNGEN
100
AcDbSpline
 62
7
  6
CONTINUOUS
 70
0
 71
3
 72
11
 73
7
 74
0
 42
0.0000001
 43
0.0000001
 44
0.0000000001
 40
0.0
 40
0.0
 40
0.0
 40
0.0
 40
0.2215538236
 40
0.4542002525
 40
0.7101604566
 40
1.0
 40
1.0
 40
1.0
 40
1.0
 10
82.3724643084
 20
50.9284348858
 30
0.0
 10
82.1882438841
 20
50.9284594348
 30
0.0
 10
81.8081260726
 20
50.9872402203
 30
0.0
 10
81.2721360077
 20
51.2568446984
 30
0.0
 10
80.8073985931
 20
51.7234821223
 30
0.0
 10
80.6094200324
 20
52.1446366901
 30
0.0
 10
80.5460670861
 20
52.3771601742
 30
0.0
  0
LINE
  5
334
100
AcDbEntity
  8
RUNDUNGEN
100
AcDbLine
 62
7
  6
CONTINUOUS
 10
80.5460670861
 20
52.3771601742
 11
80.5277409087
 21
52.4444348741
  0
LINE
  5
335
100
AcDbEntity
  8
RUNDUNGEN
100
AcDbLine
 62
7
  6
CONTINUOUS
 10
80.5277409087
 20
52.4444348741
 11
80.5092357892
 21
52.5123664644
  0
LINE
  5
336
100
AcDbEntity
  8
RUNDUNGEN
100
AcDbLine
 62
7
  6
CONTINUOUS
 10
80.5092357892
 20
52.5123664644
 11
80.3958953802
 21
52.9284348858
  0
SPLINE
  5
337
100
AcDbEntity
  8
RUNDUNGEN
100
AcDbSpline
 62
7
  6
CONTINUOUS
 70
0
 71
3
 72
15
 73
11
 74
0
 42
0.0000001
 43
0.0000001
 44
0.0000000001
 40
0.0
 40
0.0
 40
0.0
 40
0.0
 40
0.1439959017
 40
0.280489269
 40
0.4071078146
 40
0.5255455998
 40
0.6385754257
 40
0.7491833322
 40
0.8651754113
 40
1.0
 40
1.0
 40
1.0
 40
1.0
 10
89.7200253617
 20
52.9286624751
 30
0.0
 10
89.6968855522
 20
52.7689939186
 30
0.0
 10
89.6993120071
 20
52.448932882
 30
0.0
 10
89.8373471864
 20
52.0080458392
 30
0.0
 10
90.0702386681
 20
51.6442893172
 30
0.0
 10
90.360449099
 20
51.3627033904
 30
0.0
 10
90.686752723
 20
51.1570253886
 30
0.0
 10
91.0428336649
 20
51.0168770395
 30
0.0
 10
91.4427791846
 20
50.9404271387
 30
0.0
 10
91.7266578638
 20
50.94553224
 30
0.0
 10
91.8763931259
 20
50.9655003766
 30
0.0
  0
SPLINE
  5
338
100
AcDbEntity
  8
RUNDUNGEN
100
AcDbSpline
 62
7
  6
CONTINUOUS
 70
0
 71
3
 72
11
 73
7
 74
0
 42
0.0000001
 43
0.0000001
 44
0.0000000001
 40
0.0
 40
0.0
 40
0.0
 40
0.0
 40
0.2406892759
 40
0.4786769225
 40
0.7287680693
 40
1.0
 40
1.0
 40
1.0
 40
1.0
 10
91.8763931259
 20
50.9655003766
 30
0.0
 10
92.0331820421
 20
50.9864091622
 30
0.0
 10
92.3414435749
 20
51.0639747286
 30
0.0
 10
92.7701802751
 20
51.2869412692
 30
0.0
 10
93.1466356545
 20
51.62289708
 30
0.0
 10
93.329656383
 20
51.920504503
 30
0.0
 10
93.397430298
 20
52.0853663232
 30
0.0
  0
SPLINE
  5
339
100
AcDbEntity
  8
RUNDUNGEN
100
AcDbSpline
 62
7
  6
CONTINUOUS
 70
0
 71
3
 72
12
 73
8
 74
0
 42
0.0000001
 43
0.0000001
 44
0.0000000001
 40
0.0
 40
0.0
 40
0.0
 40
0.0
 40
0.2781393323
 40
0.5405458093
 40
0.7788533744
 40
0.890907847
 40
1.0
 40
1.0
 40
1.0
 40
1.0
 10
103.0656661083
 20
86.8059387904
 30
0.0
 10
103.1881800101
 20
86.765856763
 30
0.0
 10
103.4163493981
 20
86.6517479504
 30
0.0
 10
103.6783523461
 20
86.3943948241
 30
0.0
 10
103.79810012
 20
86.1265002957
 30
0.0
 10
103.8121090225
 20
85.9121521223
 30
0.0
 10
103.7933620042
 20
85.8100712089
 30
0.0
 10
103.7779016655
 20
85.7619341501
 30
0.0
  0
LINE
  5
33A
100
AcDbEntity
  8
RUNDUNGEN
100
AcDbLine
 62
7
  6
CONTINUOUS
 10
99.1090455487
 20
81.9281720982
 11
89.7967888749
 21
53.2679839966
  0
SPLINE
  5
33B
100
AcDbEntity
  8
RUNDUNGEN
100
AcDbSpline
 62
7
  6
CONTINUOUS
 70
0
 71
3
 72
11
 73
7
 74
0
 42
0.0000001
 43
0.0000001
 44
0.0000000001
 40
0.0
 40
0.0
 40
0.0
 40
0.0
 40
0.2498810392
 40
0.4998708765
 40
0.7499247792
 40
1.0
 40
1.0
 40
1.0
 40
1.0
 10
102.147330338
 20
78.6330679936
 30
0.0
 10
102.2487239896
 20
78.9451257457
 30
0.0
 10
102.5253297548
 20
79.5454647483
 30
0.0
 10
103.0553267078
 20
80.3766740315
 30
0.0
 10
103.6485238178
 20
81.1637613875
 30
0.0
 10
104.0625190845
 20
81.6735273774
 30
0.0
 10
104.2695221421
 20
81.9284348858
 30
0.0
  0
SPLINE
  5
33C
100
AcDbEntity
  8
RUNDUNGEN
100
AcDbSpline
 62
7
  6
CONTINUOUS
 70
0
 71
3
 72
11
 73
7
 74
0
 42
0.0000001
 43
0.0000001
 44
0.0000000001
 40
0.0
 40
0.0
 40
0.0
 40
0.0
 40
0.2783038379
 40
0.5385160386
 40
0.7769890957
 40
1.0
 40
1.0
 40
1.0
 40
1.0
 10
100.6579804313
 20
86.6192888391
 30
0.0
 10
100.6790287278
 20
86.6167226558
 30
0.0
 10
100.7206195928
 20
86.616924773
 30
0.0
 10
100.7783163582
 20
86.6338017163
 30
0.0
 10
100.8239598068
 20
86.6665975223
 30
0.0
 10
100.8428192035
 20
86.697734942
 30
0.0
 10
100.8481843655
 20
86.7138570053
 30
0.0
  0
SPLINE
  5
33D
100
AcDbEntity
  8
RUNDUNGEN
100
AcDbSpline
 62
7
  6
CONTINUOUS
 70
0
 71
3
 72
12
 73
8
 74
0
 42
0.0000001
 43
0.0000001
 44
0.0000000001
 40
0.0
 40
0.0
 40
0.0
 40
0.0
 40
0.3425528293
 40
0.6362283194
 40
0.7556676338
 40
0.8548191521
 40
1.0
 40
1.0
 40
1.0
 40
1.0
 10
93.427640004
 20
52.1646310011
 30
0.0
 10
93.4054887097
 20
52.1706774525
 30
0.0
 10
93.3635796203
 20
52.1792573883
 30
0.0
 10
93.3127192568
 20
52.182230592
 30
0.0
 10
93.2784435175
 20
52.1775811159
 30
0.0
 10
93.2553415814
 20
52.1705658658
 30
0.0
 10
93.2407380561
 20
52.1592045147
 30
0.0
 10
93.2374436409
 20
52.1500474681
 30
0.0
  0
SPLINE
  5
33E
100
AcDbEntity
  8
RUNDUNGEN
100
AcDbSpline
 62
7
  6
CONTINUOUS
 70
0
 71
3
 72
10
 73
6
 74
0
 42
0.0000001
 43
0.0000001
 44
0.0000000001
 40
0.0
 40
0.0
 40
0.0
 40
0.0
 40
0.1194783874
 40
0.3345929986
 40
1.0
 40
1.0
 40
1.0
 40
1.0
 10
80.4499409165
 20
52.3771601742
 30
0.0
 10
80.4510346599
 20
52.373345892
 30
0.0
 10
80.4627060284
 20
52.3672872796
 30
0.0
 10
80.4949955628
 20
52.366376343
 30
0.0
 10
80.5247053547
 20
52.3715002048
 30
0.0
 10
80.5460670861
 20
52.3771602021
 30
0.0
  0
SPLINE
  5
33F
100
AcDbEntity
  8
RUNDUNGEN
100
AcDbSpline
 62
7
  6
CONTINUOUS
 70
0
 71
3
 72
12
 73
8
 74
0
 42
0.0000001
 43
0.0000001
 44
0.0000000001
 40
0.0
 40
0.0
 40
0.0
 40
0.0
 40
0.3032593868
 40
0.5850734916
 40
0.7085853275
 40
0.8180531125
 40
1.0
 40
1.0
 40
1.0
 40
1.0
 10
104.3236573839
 20
85.4666663299
 30
0.0
 10
104.295465893
 20
85.4727910305
 30
0.0
 10
104.2424147371
 20
85.491458063
 30
0.0
 10
104.1852235025
 20
85.5289710366
 30
0.0
 10
104.1522453662
 20
85.565646417
 30
0.0
 10
104.1321289521
 20
85.5996595682
 30
0.0
 10
104.1283614439
 20
85.6298656232
 30
0.0
 10
104.1334568439
 20
85.6464072696
 30
0.0
  0
SPLINE
  5
340
100
AcDbEntity
  8
RUNDUNGEN
100
AcDbSpline
 62
7
  6
CONTINUOUS
 70
0
 71
3
 72
17
 73
13
 74
0
 42
0.0000001
 43
0.0000001
 44
0.0000000001
 40
0.0
 40
0.0
 40
0.0
 40
0.0
 40
0.1288950148
 40
0.2447976001
 40
0.3545563425
 40
0.4149580716
 40
0.5000010293
 40
0.5850428805
 40
0.6454440095
 40
0.7552035817
 40
0.8711058431
 40
1.0
 40
1.0
 40
1.0
 40
1.0
 10
103.065666006
 20
86.8059384755
 30
0.0
 10
103.0841972125
 20
86.8623263559
 30
0.0
 10
103.1064879936
 20
86.9740988745
 30
0.0
 10
103.1026455843
 20
87.1384954556
 30
0.0
 10
103.0627877578
 20
87.2671796207
 30
0.0
 10
102.9933594352
 20
87.3633445489
 30
0.0
 10
102.9008596876
 20
87.4243280681
 30
0.0
 10
102.7901806093
 20
87.4293606809
 30
0.0
 10
102.6774890011
 20
87.3923682733
 30
0.0
 10
102.5696026902
 20
87.3116914804
 30
0.0
 10
102.4698664192
 20
87.1809484
 30
0.0
 10
102.422201361
 20
87.0774213935
 30
0.0
 10
102.4040497876
 20
87.0209105789
 30
0.0
  0
SPLINE
  5
341
100
AcDbEntity
  8
RUNDUNGEN
100
AcDbSpline
 62
7
  6
CONTINUOUS
 70
0
 71
3
 72
17
 73
13
 74
0
 42
0.0000001
 43
0.0000001
 44
0.0000000001
 40
0.0
 40
0.0
 40
0.0
 40
0.0
 40
0.1168792253
 40
0.225020035
 40
0.3340034923
 40
0.3983902209
 40
0.5000094328
 40
0.6016142735
 40
0.6659998834
 40
0.7749825189
 40
0.8831232373
 40
1.0
 40
1.0
 40
1.0
 40
1.0
 10
90.989312283
 20
51.9332223206
 30
0.0
 10
90.9733778688
 20
51.8865268493
 30
0.0
 10
90.9562240867
 20
51.7915135954
 30
0.0
 10
90.9689321469
 20
51.6495465508
 30
0.0
 10
91.0161027194
 20
51.5374832909
 30
0.0
 10
91.0920058392
 20
51.4484748627
 30
0.0
 10
91.1921002258
 20
51.3884367336
 30
0.0
 10
91.3083666264
 20
51.3781791293
 30
0.0
 10
91.4220842321
 20
51.4055741868
 30
0.0
 10
91.5261133617
 20
51.4685100487
 30
0.0
 10
91.6198388348
 20
51.575893937
 30
0.0
 10
91.6618064335
 20
51.6628436599
 30
0.0
 10
91.6763618792
 20
51.7099860931
 30
0.0
  0
LINE
  5
342
100
AcDbEntity
  8
RUNDUNGEN
100
AcDbLine
 62
7
  6
CONTINUOUS
 10
93.6984653074
 20
52.9284734317
 11
93.707709373
 21
52.9569236972
  0
LINE
  5
343
100
AcDbEntity
  8
RUNDUNGEN
100
AcDbLine
 62
7
  6
CONTINUOUS
 10
93.707709373
 20
52.9569236972
 11
100.9563504582
 21
75.2659401116
  0
LINE
  5
344
100
AcDbEntity
  8
RUNDUNGEN
100
AcDbLine
 62
7
  6
CONTINUOUS
 10
100.9563504582
 20
75.2659401116
 11
101.0049948405
 21
75.4156518923
  0
LINE
  5
345
100
AcDbEntity
  8
RUNDUNGEN
100
AcDbLine
 62
7
  6
CONTINUOUS
 10
101.0049948405
 20
75.4156518923
 11
102.0596537993
 21
78.6615558226
  0
LINE
  5
346
100
AcDbEntity
  8
RUNDUNGEN
100
AcDbLine
 62
7
  6
CONTINUOUS
 10
102.0596537993
 20
78.6615558226
 11
103.1210648132
 21
81.9282469902
  0
SPLINE
  5
347
100
AcDbEntity
  8
RUNDUNGEN
100
AcDbSpline
 62
7
  6
CONTINUOUS
 70
0
 71
3
 72
10
 73
6
 74
0
 42
0.0000001
 43
0.0000001
 44
0.0000000001
 40
0.0
 40
0.0
 40
0.0
 40
0.0
 40
0.1724282544
 40
0.4095142527
 40
1.0
 40
1.0
 40
1.0
 40
1.0
 10
91.6763618792
 20
51.7099860931
 30
0.0
 10
91.7680293143
 20
52.0068676412
 30
0.0
 10
91.9909622997
 20
52.7103350972
 30
0.0
 10
92.5423927271
 20
54.4258593429
 30
0.0
 10
93.0030514848
 20
55.84419468
 30
0.0
 10
93.3318592258
 20
56.8561569923
 30
0.0
  0
SPLINE
  5
348
100
AcDbEntity
  8
RUNDUNGEN
100
AcDbSpline
 62
7
  6
CONTINUOUS
 70
0
 71
3
 72
10
 73
6
 74
0
 42
0.0000001
 43
0.0000001
 44
0.0000000001
 40
0.0
 40
0.0
 40
0.0
 40
0.0
 40
0.5904857751
 40
0.8275716916
 40
1.0
 40
1.0
 40
1.0
 40
1.0
 10
92.6748212107
 20
57.0696327452
 30
0.0
 10
92.3460162278
 20
56.057671287
 30
0.0
 10
91.8850214082
 20
54.6394477749
 30
0.0
 10
91.3227815741
 20
52.9274387628
 30
0.0
 10
91.0896529284
 20
52.2272853689
 30
0.0
 10
90.989312283
 20
51.9332223206
 30
0.0
  0
SPLINE
  5
349
100
AcDbEntity
  8
RUNDUNGEN
100
AcDbSpline
 62
7
  6
CONTINUOUS
 70
0
 71
3
 72
10
 73
6
 74
0
 42
0.0000001
 43
0.0000001
 44
0.0000000001
 40
0.0
 40
0.0
 40
0.0
 40
0.0
 40
0.172574522
 40
0.4097572915
 40
1.0
 40
1.0
 40
1.0
 40
1.0
 10
92.9057835476
 20
52.2578053433
 30
0.0
 10
92.9815146761
 20
52.5056233013
 30
0.0
 10
93.1665545287
 20
53.0924303323
 30
0.0
 10
93.6251664725
 20
54.5222362781
 30
0.0
 10
94.0089324424
 20
55.7039171304
 30
0.0
 10
94.2828101181
 20
56.5468243908
 30
0.0
  0
LINE
  5
34A
100
AcDbEntity
  8
RUNDUNGEN
100
AcDbLine
 62
7
  6
CONTINUOUS
 10
101.9950843243
 20
75.9284348878
 11
104.2695221421
 21
81.9284348858
  0
LINE
  5
34B
100
AcDbEntity
  8
RUNDUNGEN
100
AcDbLine
 62
7
  6
CONTINUOUS
 10
103.7779016857
 20
85.7619341436
 11
104.1334568527
 21
85.6464072667
  0
SPLINE
  5
34C
100
AcDbEntity
  8
RUNDUNGEN
100
AcDbSpline
 62
7
  6
CONTINUOUS
 70
0
 71
3
 72
9
 73
5
 74
0
 42
0.0000001
 43
0.0000001
 44
0.0000000001
 40
0.0
 40
0.0
 40
0.0
 40
0.0
 40
0.2832809747
 40
1.0
 40
1.0
 40
1.0
 40
1.0
 10
103.2979906887
 20
84.2926968394
 30
0.0
 10
103.343091469
 20
84.4315028367
 30
0.0
 10
103.5024804075
 20
84.9214378075
 30
0.0
 10
103.6620334807
 20
85.411322878
 30
0.0
 10
103.7779016714
 20
85.7619340995
 30
0.0
  0
SPLINE
  5
34D
100
AcDbEntity
  8
RUNDUNGEN
100
AcDbSpline
 62
7
  6
CONTINUOUS
 70
0
 71
3
 72
11
 73
7
 74
0
 42
0.0000001
 43
0.0000001
 44
0.0000000001
 40
0.0
 40
0.0
 40
0.0
 40
0.0
 40
0.2276819495
 40
0.4638296567
 40
0.7169290138
 40
1.0
 40
1.0
 40
1.0
 40
1.0
 10
102.494759988
 20
87.9283504868
 30
0.0
 10
102.3292932872
 20
87.9282509777
 30
0.0
 10
101.9902945712
 20
87.878515309
 30
0.0
 10
101.5120962563
 20
87.6532009628
 30
0.0
 10
101.0944690562
 20
87.2645858355
 30
0.0
 10
100.9095152074
 20
86.9102352026
 30
0.0
 10
100.848188351
 20
86.7138684137
 30
0.0
  0
LINE
  5
34E
100
AcDbEntity
  8
RUNDUNGEN
100
AcDbLine
 62
7
  6
CONTINUOUS
 10
101.2141886706
 20
86.5949349977
 11
100.8481846175
 21
86.7138569234
  0
SPLINE
  5
34F
100
AcDbEntity
  8
RUNDUNGEN
100
AcDbSpline
 62
7
  6
CONTINUOUS
 70
0
 71
3
 72
15
 73
11
 74
0
 42
0.0000001
 43
0.0000001
 44
0.0000000001
 40
0.0
 40
0.0
 40
0.0
 40
0.0
 40
0.1636375639
 40
0.3090578559
 40
0.4405260394
 40
0.5620396162
 40
0.6766751009
 40
0.7866926986
 40
0.8939870843
 40
1.0
 40
1.0
 40
1.0
 40
1.0
 10
104.3236573839
 20
85.4666663382
 30
0.0
 10
104.3871504736
 20
85.6511379054
 30
0.0
 10
104.4511058338
 20
86.0219387686
 30
0.0
 10
104.3785430962
 20
86.5490081551
 30
0.0
 10
104.1881779827
 20
86.9899363365
 30
0.0
 10
103.9196363481
 20
87.3413115354
 30
0.0
 10
103.6001676828
 20
87.6075449668
 30
0.0
 10
103.2479891341
 20
87.794012843
 30
0.0
 10
102.8761200334
 20
87.9040624866
 30
0.0
 10
102.6211511185
 20
87.9284763734
 30
0.0
 10
102.494759988
 20
87.9284348858
 30
0.0
  0
LINE
  5
350
100
AcDbEntity
  8
RUNDUNGEN
100
AcDbLine
 62
7
  6
CONTINUOUS
 10
101.6898441896
 20
84.8150211582
 11
92.6748211499
 21
57.0696327649
  0
LINE
  5
351
100
AcDbEntity
  8
RUNDUNGEN
100
AcDbLine
 62
7
  6
CONTINUOUS
 10
93.3318592882
 20
56.856156972
 11
102.3468327348
 21
84.601391957
  0
SPLINE
  5
352
100
AcDbEntity
  8
RUNDUNGEN
100
AcDbSpline
 62
7
  6
CONTINUOUS
 70
0
 71
3
 72
15
 73
11
 74
0
 42
0.0000001
 43
0.0000001
 44
0.0000000001
 40
0.0
 40
0.0
 40
0.0
 40
0.0
 40
0.1216967516
 40
0.2403676645
 40
0.3642903897
 40
0.5000083356
 40
0.6357236713
 40
0.7596420831
 40
0.8783155751
 40
1.0
 40
1.0
 40
1.0
 40
1.0
 10
90.3166890577
 20
53.0990524093
 30
0.0
 10
90.2624800368
 20
52.93473099
 30
0.0
 10
90.2187782004
 20
52.5858218412
 30
0.0
 10
90.3486344095
 20
52.0726938041
 30
0.0
 10
90.6740858577
 20
51.6269880865
 30
0.0
 10
91.1743539907
 20
51.3337343073
 30
0.0
 10
91.7514476789
 20
51.2769547989
 30
0.0
 10
92.2767045429
 20
51.4462718105
 30
0.0
 10
92.6833479928
 20
51.7850676906
 30
0.0
 10
92.8530595329
 20
52.0930198464
 30
0.0
 10
92.9057835045
 20
52.2578053574
 30
0.0
  0
LINE
  5
353
100
AcDbEntity
  8
RUNDUNGEN
100
AcDbLine
 62
7
  6
CONTINUOUS
 10
92.9057849803
 20
52.2578098994
 11
93.2374428956
 21
52.1500477103
  0
SPLINE
  5
354
100
AcDbEntity
  8
RUNDUNGEN
100
AcDbSpline
 62
7
  6
CONTINUOUS
 70
0
 71
3
 72
16
 73
12
 74
0
 42
0.0000001
 43
0.0000001
 44
0.0000000001
 40
0.0
 40
0.0
 40
0.0
 40
0.0
 40
0.1506323547
 40
0.2228366759
 40
0.2918132716
 40
0.4198288373
 40
0.537003109
 40
0.6467734439
 40
0.7528073253
 40
0.864634805
 40
1.0
 40
1.0
 40
1.0
 40
1.0
 10
89.9182846981
 20
52.9022732158
 30
0.0
 10
89.8974385903
 20
52.7441626348
 30
0.0
 10
89.8991123781
 20
52.5042213006
 30
0.0
 10
89.9647632272
 20
52.2016916749
 30
0.0
 10
90.0602055802
 20
51.9323904619
 30
0.0
 10
90.2284322141
 20
51.6415521112
 30
0.0
 10
90.4860319992
 20
51.3640242298
 30
0.0
 10
90.7767128383
 20
51.1602990413
 30
0.0
 10
91.0962969093
 20
51.019825995
 30
0.0
 10
91.464422845
 20
50.9408477492
 30
0.0
 10
91.7297729672
 20
50.9479086203
 30
0.0
 10
91.8712553369
 20
50.9707549945
 30
0.0
  0
SPLINE
  5
355
100
AcDbEntity
  8
RUNDUNGEN
100
AcDbSpline
 62
7
  6
CONTINUOUS
 70
0
 71
3
 72
11
 73
7
 74
0
 42
0.0000001
 43
0.0000001
 44
0.0000000001
 40
0.0
 40
0.0
 40
0.0
 40
0.0
 40
0.2324123488
 40
0.4655467129
 40
0.7175551563
 40
1.0
 40
1.0
 40
1.0
 40
1.0
 10
91.8712553369
 20
50.9707549945
 30
0.0
 10
92.0160423266
 20
50.9941349941
 30
0.0
 10
92.3013472251
 20
51.0789387722
 30
0.0
 10
92.6921543326
 20
51.3169939901
 30
0.0
 10
93.0294670415
 20
51.6727671725
 30
0.0
 10
93.1832945257
 20
51.9802761065
 30
0.0
 10
93.2374544807
 20
52.150083367
 30
0.0
  0
SPLINE
  5
356
100
AcDbEntity
  8
RUNDUNGEN
100
AcDbSpline
 62
7
  6
CONTINUOUS
 70
0
 71
3
 72
10
 73
6
 74
0
 42
0.0000001
 43
0.0000001
 44
0.0000000001
 40
0.0
 40
0.0
 40
0.0
 40
0.0
 40
0.5902428612
 40
0.8274255586
 40
1.0
 40
1.0
 40
1.0
 40
1.0
 10
91.7236672323
 20
57.378340318
 30
0.0
 10
91.4497903507
 20
56.5354324246
 30
0.0
 10
91.0656892431
 20
55.3538601521
 30
0.0
 10
90.5962974333
 20
53.9275565631
 30
0.0
 10
90.4010837456
 20
53.3440553416
 30
0.0
 10
90.3166890084
 20
53.0990524253
 30
0.0
  0
LINE
  5
357
100
AcDbEntity
  8
RUNDUNGEN
100
AcDbLine
 62
7
  6
CONTINUOUS
 10
90.3166906985
 20
53.099057627
 11
89.986985164
 21
53.2061854491
  0
ELLIPSE
  5
358
100
AcDbEntity
  8
0
100
AcDbEllipse
 62
7
  6
CONTINUOUS
 10
95.1746728674
 20
146.2031402419
 30
0.0
 11
0.0
 21
2.745
 31
0.0
 40
0.3249196962
 41
0.0
 42
3.1415926536
  0
ELLIPSE
  5
359
100
AcDbEntity
  8
0
100
AcDbEllipse
 62
7
  6
CONTINUOUS
 10
79.0746312741
 20
146.2031402419
 30
0.0
 11
0.0
 21
2.745
 31
0.0
 40
0.2867453858
 41
-3.1415926536
 42
0.0
  0
ELLIPSE
  5
35A
100
AcDbEntity
  8
0
100
AcDbEllipse
 62
7
  6
CONTINUOUS
 10
97.6148197861
 20
146.2031402419
 30
0.0
 11
0.0
 21
2.745
 31
0.0
 40
0.3249196962
 41
-3.1415926536
 42
0.0
  0
ELLIPSE
  5
35B
100
AcDbEntity
  8
0
100
AcDbEllipse
 62
7
  6
CONTINUOUS
 10
76.9211734271
 20
146.2031402419
 30
0.0
 11
0.0
 21
2.745
 31
0.0
 40
0.2867453858
 41
0.0
 42
3.1415926536
  0
ENDSEC
  0
SECTION
  2
OBJECTS
  0
DICTIONARY
  5
C
100
AcDbDictionary
280
0
281
1
  3
ACAD_GROUP
350
D
  3
ACAD_MLINESTYLE
350
17
  3
ACAD_LAYOUT
350
1A
  3
ACAD_PLOTSETTINGS
350
19
  3
ACAD_PLOTSTYLENAME
350
E
  0
DICTIONARY
  5
D
102
{ACAD_REACTORS
330
C
102
}
100
AcDbDictionary
280
0
281
1
  0
ACDBDICTIONARYWDFLT
  5
E
102
{ACAD_REACTORS
330
C
102
}
100
AcDbDictionary
281
1
  3
Normal
350
F
100
AcDbDictionaryWithDefault
340
F
  0
DICTIONARY
  5
17
102
{ACAD_REACTORS
330
C
102
}
100
AcDbDictionary
280
0
281
1
  3
Standard
350
18
  0
DICTIONARY
  5
19
102
{ACAD_REACTORS
330
C
102
}
100
AcDbDictionary
281
1
  0
DICTIONARY
  5
1A
102
{ACAD_REACTORS
330
C
102
}
100
AcDbDictionary
281
1
  3
Model
350
35C
  3
Layout1
350
35D
  0
ACDBPLACEHOLDER
  5
F
102
{ACAD_REACTORS
330
E
102
}
  0
MLINESTYLE
  5
18
102
{ACAD_REACTORS
330
17
102
}
100
AcDbMlineStyle
  2
STANDARD
 70
0
  3

 62
256
 51
90.0
 52
90.0
 71
2
 49
0.5
 62
256
  6
BYLAYER
 49
-0.5
 62
256
  6
BYLAYER
  0
LAYOUT
  5
35C
102
{ACAD_REACTORS
330
1A
102
}
100
AcDbPlotSettings
  1

  2
none_device
  4
ISO_A4_(297.00_x_210.00_MM)
  6

 40
0.0
 41
0.0
 42
0.0
 43
0.0
 44
297.0
 45
210.0
 46
0.0
 47
0.0
 48
0.0
 49
0.0
140
0.0
141
0.0
142
1.0
143
1.0
 70
1024
 72
1
 73
0
 74
0
  7

 75
0
147
1.0
148
0.0
149
0.0
100
AcDbLayout
  1
Model
 70
0
 71
0
 10
0.0
 20
0.0
 11
297.0
 21
210.0
 12
0.0
 22
0.0
 32
0.0
 14
0.0
 24
0.0
 34
0.0
 15
0.0
 25
0.0
 35
0.0
146
0.0
 13
0.0
 23
0.0
 33
0.0
 16
1.0
 26
0.0
 36
0.0
 17
0.0
 27
1.0
 37
0.0
 76
0
330
20E
345
0
346
0
  0
LAYOUT
  5
35D
102
{ACAD_REACTORS
330
1A
102
}
100
AcDbPlotSettings
  1

  2
none_device
  4
ISO_A4_(297.00_x_210.00_MM)
  6

 40
0.0
 41
0.0
 42
0.0
 43
0.0
 44
297.0
 45
210.0
 46
0.0
 47
0.0
 48
0.0
 49
0.0
140
0.0
141
0.0
142
1.0
143
1.0
 70
0
 72
1
 73
0
 74
0
  7

 75
0
147
1.0
148
0.0
149
0.0
100
AcDbLayout
  1
Layout1
 70
0
 71
1
 10
0.0
 20
0.0
 11
297.0
 21
210.0
 12
0.0
 22
0.0
 32
0.0
 14
0.0
 24
0.0
 34
0.0
 15
0.0
 25
0.0
 35
0.0
146
0.0
 13
0.0
 23
0.0
 33
0.0
 16
1.0
 26
0.0
 36
0.0
 17
0.0
 27
1.0
 37
0.0
 76
0
330
20F
345
0
346
0
  0
ENDSEC
  0
EOF
