  0
SECTION
  2
HEADER
  9
$ACADVER
  1
AC1018
  9
$ACADMAINTVER
 70
     0
  9
$DWGCODEPAGE
  3
ANSI_1252
  9
$INSBASE
 10
0.0
 20
0.0
 30
0.0
  9
$EXTMIN
 10
69.84411190053282
 20
-7.6008333333333
 30
0.0
  9
$EXTMAX
 10
366.8441119005328
 20
202.3991666666667
 30
0.0
  9
$LIMMIN
 10
69.84411190053282
 20
-7.6008333333333
  9
$LIMMAX
 10
366.8441119005328
 20
202.3991666666667
  9
$ORTHOMODE
 70
     1
  9
$REGENMODE
 70
     1
  9
$FILLMODE
 70
     1
  9
$QTEXTMODE
 70
     0
  9
$MIRRTEXT
 70
     0
  9
$LTSCALE
 40
1.0
  9
$ATTMODE
 70
     1
  9
$TEXTSIZE
 40
2.5
  9
$TRACEWID
 40
1.0
  9
$TEXTSTYLE
  7
Standard
  9
$CLAYER
  8
0
  9
$CELTYPE
  6
ByLayer
  9
$CECOLOR
 62
   256
  9
$CELTSCALE
 40
1.0
  9
$DISPSILH
 70
     0
  9
$DIMSCALE
 40
1.0
  9
$DIMASZ
 40
0.5
  9
$DIMEXO
 40
0.0625
  9
$DIMDLI
 40
0.38
  9
$DIMRND
 40
0.0000001
  9
$DIMDLE
 40
0.0
  9
$DIMEXE
 40
0.18
  9
$DIMTP
 40
0.0
  9
$DIMTM
 40
0.0
  9
$DIMTXT
 40
1.8
  9
$DIMCEN
 40
0.09
  9
$DIMTSZ
 40
0.0
  9
$DIMTOL
 70
     0
  9
$DIMLIM
 70
     0
  9
$DIMTIH
 70
     1
  9
$DIMTOH
 70
     1
  9
$DIMSE1
 70
     0
  9
$DIMSE2
 70
     0
  9
$DIMTAD
 70
     0
  9
$DIMZIN
 70
     0
  9
$DIMBLK
  1

  9
$DIMASO
 70
     1
  9
$DIMSHO
 70
     1
  9
$DIMPOST
  1
mm
  9
$DIMAPOST
  1

  9
$DIMALT
 70
     0
  9
$DIMALTD
 70
     2
  9
$DIMALTF
 40
25.4
  9
$DIMLFAC
 40
1.0
  9
$DIMTOFL
 70
     0
  9
$DIMTVP
 40
0.0
  9
$DIMTIX
 70
     0
  9
$DIMSOXD
 70
     0
  9
$DIMSAH
 70
     0
  9
$DIMBLK1
  1

  9
$DIMBLK2
  1

  9
$DIMSTYLE
  2
Standard
  9
$DIMCLRD
 70
     0
  9
$DIMCLRE
 70
     0
  9
$DIMCLRT
 70
   150
  9
$DIMTFAC
 40
1.0
  9
$DIMGAP
 40
0.09
  9
$DIMJUST
 70
     0
  9
$DIMSD1
 70
     0
  9
$DIMSD2
 70
     0
  9
$DIMTOLJ
 70
     1
  9
$DIMTZIN
 70
     0
  9
$DIMALTZ
 70
     0
  9
$DIMALTTZ
 70
     0
  9
$DIMUPT
 70
     0
  9
$DIMDEC
 70
     1
  9
$DIMTDEC
 70
     4
  9
$DIMALTU
 70
     2
  9
$DIMALTTD
 70
     2
  9
$DIMTXSTY
  7
_TCW_TXTSTY_1
  9
$DIMAUNIT
 70
     0
  9
$DIMADEC
 70
     4
  9
$DIMALTRND
 40
0.01
  9
$DIMAZIN
 70
     0
  9
$DIMDSEP
 70
    46
  9
$DIMATFIT
 70
     3
  9
$DIMFRAC
 70
     0
  9
$DIMLDRBLK
  1

  9
$DIMLUNIT
 70
     2
  9
$DIMLWD
 70
    -2
  9
$DIMLWE
 70
    -2
  9
$DIMTMOVE
 70
     0
  9
$LUNITS
 70
     2
  9
$LUPREC
 70
     4
  9
$SKETCHINC
 40
1.0
  9
$FILLETRAD
 40
0.0
  9
$AUNITS
 70
     0
  9
$AUPREC
 70
     0
  9
$MENU
  1
.
  9
$ELEVATION
 40
0.0
  9
$PELEVATION
 40
0.0
  9
$THICKNESS
 40
0.0
  9
$LIMCHECK
 70
     0
  9
$CHAMFERA
 40
0.5
  9
$CHAMFERB
 40
0.5
  9
$CHAMFERC
 40
1.0
  9
$CHAMFERD
 40
0.0
  9
$SKPOLY
 70
     0
  9
$TDCREATE
 40
2454839.659687303
  9
$TDUCREATE
 40
2454839.618020636
  9
$TDUPDATE
 40
2454839.659687315
  9
$TDUUPDATE
 40
2454839.618020648
  9
$TDINDWG
 40
0.0
  9
$TDUSRTIMER
 40
0.0
  9
$USRTIMER
 70
     1
  9
$ANGBASE
 50
0.0
  9
$ANGDIR
 70
     0
  9
$PDMODE
 70
     0
  9
$PDSIZE
 40
0.0
  9
$PLINEWID
 40
0.0
  9
$SPLFRAME
 70
     0
  9
$SPLINETYPE
 70
     6
  9
$SPLINESEGS
 70
     8
  9
$HANDSEED
  5
22D
  9
$SURFTAB1
 70
     6
  9
$SURFTAB2
 70
     6
  9
$SURFTYPE
 70
     6
  9
$SURFU
 70
     6
  9
$SURFV
 70
     6
  9
$UCSBASE
  2

  9
$UCSNAME
  2

  9
$UCSORG
 10
536.2886968247745
 20
111.5341802214558
 30
188.1360814034975
  9
$UCSXDIR
 10
1.0
 20
0.0
 30
0.0
  9
$UCSYDIR
 10
0.0
 20
1.0
 30
-0.00000000000003
  9
$UCSORTHOREF
  2

  9
$UCSORTHOVIEW
 70
     0
  9
$UCSORGTOP
 10
0.0
 20
0.0
 30
0.0
  9
$UCSORGBOTTOM
 10
0.0
 20
0.0
 30
0.0
  9
$UCSORGLEFT
 10
0.0
 20
0.0
 30
0.0
  9
$UCSORGRIGHT
 10
0.0
 20
0.0
 30
0.0
  9
$UCSORGFRONT
 10
0.0
 20
0.0
 30
0.0
  9
$UCSORGBACK
 10
0.0
 20
0.0
 30
0.0
  9
$PUCSBASE
  2

  9
$PUCSNAME
  2

  9
$PUCSORG
 10
0.0
 20
0.0
 30
0.0
  9
$PUCSXDIR
 10
1.0
 20
0.0
 30
0.0
  9
$PUCSYDIR
 10
0.0
 20
1.0
 30
0.0
  9
$PUCSORTHOREF
  2

  9
$PUCSORTHOVIEW
 70
     0
  9
$PUCSORGTOP
 10
0.0
 20
0.0
 30
0.0
  9
$PUCSORGBOTTOM
 10
0.0
 20
0.0
 30
0.0
  9
$PUCSORGLEFT
 10
0.0
 20
0.0
 30
0.0
  9
$PUCSORGRIGHT
 10
0.0
 20
0.0
 30
0.0
  9
$PUCSORGFRONT
 10
0.0
 20
0.0
 30
0.0
  9
$PUCSORGBACK
 10
0.0
 20
0.0
 30
0.0
  9
$USERI1
 70
     0
  9
$USERI2
 70
     0
  9
$USERI3
 70
     0
  9
$USERI4
 70
     0
  9
$USERI5
 70
     0
  9
$USERR1
 40
0.0
  9
$USERR2
 40
0.0
  9
$USERR3
 40
0.0
  9
$USERR4
 40
0.0
  9
$USERR5
 40
0.0
  9
$WORLDVIEW
 70
     1
  9
$SHADEDGE
 70
     3
  9
$SHADEDIF
 70
    70
  9
$TILEMODE
 70
     1
  9
$MAXACTVP
 70
    64
  9
$PINSBASE
 10
0.0
 20
0.0
 30
0.0
  9
$PLIMCHECK
 70
     0
  9
$PEXTMIN
 10
0.0
 20
0.0
 30
0.0
  9
$PEXTMAX
 10
0.0
 20
0.0
 30
0.0
  9
$PLIMMIN
 10
0.0
 20
0.0
  9
$PLIMMAX
 10
0.0
 20
0.0
  9
$UNITMODE
 70
     0
  9
$VISRETAIN
 70
     1
  9
$PLINEGEN
 70
     0
  9
$PSLTSCALE
 70
     1
  9
$TREEDEPTH
 70
  3020
  9
$CMLSTYLE
  2
Standard
  9
$CMLJUST
 70
     0
  9
$CMLSCALE
 40
1.0
  9
$PROXYGRAPHICS
 70
     1
  9
$MEASUREMENT
 70
     0
  9
$CELWEIGHT
370
    -1
  9
$ENDCAPS
280
     0
  9
$JOINSTYLE
280
     0
  9
$LWDISPLAY
290
     0
  9
$INSUNITS
 70
     1
  9
$HYPERLINKBASE
  1

  9
$STYLESHEET
  1

  9
$XEDIT
290
     1
  9
$CEPSNTYPE
380
     0
  9
$PSTYLEMODE
290
     1
  9
$FINGERPRINTGUID
  2
{2975916F-EEC3-4262-9384-F0BFEED5ABB6}
  9
$VERSIONGUID
  2
{FAEB1C32-E019-11D5-929B-00C0DF256EC4}
  9
$EXTNAMES
290
     1
  9
$PSVPSCALE
 40
0.0
  9
$OLESTARTUP
290
     0
  9
$SORTENTS
280
   127
  9
$INDEXCTL
280
     0
  9
$HIDETEXT
280
     1
  9
$XCLIPFRAME
290
     0
  9
$HALOGAP
280
     0
  9
$OBSCOLOR
 70
   257
  9
$OBSLTYPE
280
     0
  9
$INTERSECTIONDISPLAY
280
     0
  9
$INTERSECTIONCOLOR
 70
   257
  9
$DIMASSOC
280
     2
  9
$PROJECTNAME
  1

  0
ENDSEC
  0
SECTION
  2
CLASSES
  0
CLASS
  1
ACDBDICTIONARYWDFLT
  2
AcDbDictionaryWithDefault
  3
ObjectDBX Classes
 90
        0
 91
        3
280
     0
281
     0
  0
CLASS
  1
VISUALSTYLE
  2
AcDbVisualStyle
  3
ObjectDBX Classes
 90
     4095
 91
        3
280
     0
281
     0
  0
CLASS
  1
TCOPTIONALDATA
  2
TcOptionalData
  3
ExTcadCustObjs|Description: TurboCAD extension data object
 90
        0
 91
        3
280
     0
281
     0
  0
ENDSEC
  0
SECTION
  2
TABLES
  0
TABLE
  2
VPORT
  5
8
330
0
100
AcDbSymbolTable
 70
     1
  0
VPORT
  5
29
330
8
100
AcDbSymbolTableRecord
100
AcDbViewportTableRecord
  2
*Active
 70
     0
 10
0.0
 20
0.0
 11
1.0
 21
1.0
 12
0.0
 22
0.0
 13
0.0
 23
0.0
 14
10.0
 24
10.0
 15
10.0
 25
10.0
 16
0.0
 26
0.0
 36
1.0
 17
100.8839475856567
 27
-56.99139453079874
 37
0.0
 40
330.7734424637715
 41
1.972704714640199
 42
50.0
 43
0.0
 44
0.0
 50
0.0
 51
0.0
 71
     0
 72
   100
 73
     1
 74
     3
 75
     0
 76
     0
 77
     0
 78
     0
281
     0
 65
     1
110
0.0
120
0.0
130
0.0
111
1.0
121
0.0
131
0.0
112
0.0
122
1.0
132
0.0
 79
     0
146
0.0
  0
ENDTAB
  0
TABLE
  2
LTYPE
  5
5
330
0
100
AcDbSymbolTable
 70
    17
  0
LTYPE
  5
14
330
5
100
AcDbSymbolTableRecord
100
AcDbLinetypeTableRecord
  2
ByBlock
 70
     0
  3

 72
    65
 73
     0
 40
0.0
  0
LTYPE
  5
15
330
5
100
AcDbSymbolTableRecord
100
AcDbLinetypeTableRecord
  2
ByLayer
 70
     0
  3

 72
    65
 73
     0
 40
0.0
  0
LTYPE
  5
16
330
5
100
AcDbSymbolTableRecord
100
AcDbLinetypeTableRecord
  2
Continuous
 70
     0
  3
Solid line
 72
    65
 73
     0
 40
0.0
  0
LTYPE
  5
40
330
5
100
AcDbSymbolTableRecord
100
AcDbLinetypeTableRecord
  2
Durchgehend
 70
     0
  3
Durchgehend
 72
    65
 73
     0
 40
0.0
  0
LTYPE
  5
41
330
5
100
AcDbSymbolTableRecord
100
AcDbLinetypeTableRecord
  2
Rand
 70
     0
  3
Rand
 72
    65
 73
     6
 40
1.75
 49
0.5
 74
     0
 49
-0.25
 74
     0
 49
0.5
 74
     0
 49
-0.25
 74
     0
 49
0.0
 74
     0
 49
-0.25
 74
     0
  0
LTYPE
  5
42
330
5
100
AcDbSymbolTableRecord
100
AcDbLinetypeTableRecord
  2
Mitte
 70
     0
  3
Mitte
 72
    65
 73
     4
 40
2.0
 49
1.25
 74
     0
 49
-0.25
 74
     0
 49
0.25
 74
     0
 49
-0.25
 74
     0
  0
LTYPE
  5
43
330
5
100
AcDbSymbolTableRecord
100
AcDbLinetypeTableRecord
  2
Strichpunkt
 70
     0
  3
Strichpunkt
 72
    65
 73
     4
 40
1.0
 49
0.5
 74
     0
 49
-0.25
 74
     0
 49
0.0
 74
     0
 49
-0.25
 74
     0
  0
LTYPE
  5
44
330
5
100
AcDbSymbolTableRecord
100
AcDbLinetypeTableRecord
  2
Gestrichelt
 70
     0
  3
Gestrichelt
 72
    65
 73
     2
 40
0.75
 49
0.5
 74
     0
 49
-0.25
 74
     0
  0
LTYPE
  5
45
330
5
100
AcDbSymbolTableRecord
100
AcDbLinetypeTableRecord
  2
Teilen
 70
     0
  3
Teilen
 72
    65
 73
     6
 40
1.25
 49
0.5
 74
     0
 49
-0.25
 74
     0
 49
0.0
 74
     0
 49
-0.25
 74
     0
 49
0.0
 74
     0
 49
-0.25
 74
     0
  0
LTYPE
  5
46
330
5
100
AcDbSymbolTableRecord
100
AcDbLinetypeTableRecord
  2
Punkt
 70
     0
  3
Punkt
 72
    65
 73
     2
 40
0.25
 49
0.0
 74
     0
 49
-0.25
 74
     0
  0
LTYPE
  5
47
330
5
100
AcDbSymbolTableRecord
100
AcDbLinetypeTableRecord
  2
Verdeckt
 70
     0
  3
Verdeckt
 72
    65
 73
     2
 40
0.375
 49
0.25
 74
     0
 49
-0.125
 74
     0
  0
LTYPE
  5
48
330
5
100
AcDbSymbolTableRecord
100
AcDbLinetypeTableRecord
  2
$INVISIBLE
 70
     0
  3
$INVISIBLE
 72
    65
 73
     2
 40
200.0
 49
-100.0
 74
     0
 49
-100.0
 74
     0
  0
LTYPE
  5
49
330
5
100
AcDbSymbolTableRecord
100
AcDbLinetypeTableRecord
  2
HIDDEN
 70
     0
  3
HIDDEN
 72
    65
 73
     2
 40
9.524999999999999
 49
6.35
 74
     0
 49
-3.175
 74
     0
  0
LTYPE
  5
4A
330
5
100
AcDbSymbolTableRecord
100
AcDbLinetypeTableRecord
  2
DOT
 70
     0
  3
DOT
 72
    65
 73
     2
 40
0.25
 49
0.0
 74
     0
 49
-0.25
 74
     0
  0
LTYPE
  5
4B
330
5
100
AcDbSymbolTableRecord
100
AcDbLinetypeTableRecord
  2
CENTER
 70
     0
  3
CENTER
 72
    65
 73
     4
 40
50.8
 49
31.75
 74
     0
 49
-6.35
 74
     0
 49
6.35
 74
     0
 49
-6.35
 74
     0
  0
LTYPE
  5
4C
330
5
100
AcDbSymbolTableRecord
100
AcDbLinetypeTableRecord
  2
DASHDOT
 70
     0
  3
DASHDOT
 72
    65
 73
     4
 40
1.0
 49
0.5
 74
     0
 49
-0.25
 74
     0
 49
0.0
 74
     0
 49
-0.25
 74
     0
  0
LTYPE
  5
4D
330
5
100
AcDbSymbolTableRecord
100
AcDbLinetypeTableRecord
  2
DASHED
 70
     0
  3
DASHED
 72
    65
 73
     2
 40
0.75
 49
0.5
 74
     0
 49
-0.25
 74
     0
  0
LTYPE
  5
4E
330
5
100
AcDbSymbolTableRecord
100
AcDbLinetypeTableRecord
  2
$SNAPEXT
 70
     0
  3
$SNAPEXT
 72
    65
 73
     2
 40
0.04
 49
0.02
 74
     0
 49
-0.02
 74
     0
  0
LTYPE
  5
4F
330
5
100
AcDbSymbolTableRecord
100
AcDbLinetypeTableRecord
  2
$AUXILIARY
 70
     0
  3
$AUXILIARY
 72
    65
 73
     2
 40
0.1
 49
0.05
 74
     0
 49
-0.05
 74
     0
  0
ENDTAB
  0
TABLE
  2
LAYER
  5
2
330
0
100
AcDbSymbolTable
 70
     3
  0
LAYER
  5
10
330
2
100
AcDbSymbolTableRecord
100
AcDbLayerTableRecord
  2
0
 70
     0
 62
     7
  6
Continuous
370
     0
390
F
  0
LAYER
  5
50
330
2
100
AcDbSymbolTableRecord
100
AcDbLayerTableRecord
  2
Main lines
 70
     0
 62
     1
420
 16711680
  6
Continuous
370
    50
390
F
  0
LAYER
  5
59
330
2
100
AcDbSymbolTableRecord
100
AcDbLayerTableRecord
  2
ASHADE
 70
     0
 62
     7
  6
Continuous
370
    -3
390
F
  0
ENDTAB
  0
TABLE
  2
STYLE
  5
3
330
0
100
AcDbSymbolTable
 70
     6
  0
STYLE
  5
11
330
3
100
AcDbSymbolTableRecord
100
AcDbTextStyleTableRecord
  2
Standard
 70
     0
 40
0.0
 41
1.0
 50
0.0
 71
     0
 42
0.2
  3
txt
  4

  0
STYLE
  5
53
330
3
100
AcDbSymbolTableRecord
100
AcDbTextStyleTableRecord
  2
ISO Proportional
 70
     0
 40
0.0
 41
1.0
 50
0.0
 71
     0
 42
2.5
  3
ISOCP.SHX
  4

  0
STYLE
  5
54
330
3
100
AcDbSymbolTableRecord
100
AcDbTextStyleTableRecord
  2

 70
     1
 40
0.0
 41
1.0
 50
0.0
 71
     0
 42
2.5
  3
LTYPESHP.SHX
  4

  0
STYLE
  5
55
330
3
100
AcDbSymbolTableRecord
100
AcDbTextStyleTableRecord
  2
YUSIMPLE
 70
     0
 40
0.0
 41
1.0
 50
0.0
 71
     0
 42
2.5
  3
YUSIMPLE.SHX
  4

  0
STYLE
  5
56
330
3
100
AcDbSymbolTableRecord
100
AcDbTextStyleTableRecord
  2
_TCW_TXTSTY_1
 70
     0
 40
0.0
 41
1.0
 50
0.0
 71
     0
 42
0.6000000238418579
  3
TXT.SHX
  4

  0
STYLE
  5
58
330
3
100
AcDbSymbolTableRecord
100
AcDbTextStyleTableRecord
  2
ASHADE
 70
     0
 40
0.2
 41
1.0
 50
0.0
 71
     0
 42
2.5
  3
simplex.shx
  4

  0
ENDTAB
  0
TABLE
  2
VIEW
  5
6
330
0
100
AcDbSymbolTable
 70
     2
  0
VIEW
  5
51
330
6
100
AcDbSymbolTableRecord
100
AcDbViewTableRecord
  2
Ansicht_0
 70
     0
 40
210.0
 10
148.5
 20
105.0
 41
297.0
 11
0.0
 21
0.0
 31
1.0
 12
0.0
 22
0.0
 32
0.0
 42
50.0
 43
0.0
 44
0.0
 50
0.0
 71
     0
281
     0
 72
     0
  0
VIEW
  5
52
330
6
100
AcDbSymbolTableRecord
100
AcDbViewTableRecord
  2
View_1
 70
     0
 40
201.393107068014
 10
717.1860183610022
 20
392.4295019556221
 41
280.2283967588442
 11
0.0
 21
0.0
 31
1.0
 12
0.0
 22
0.0
 32
0.0
 42
50.0
 43
0.0
 44
0.0
 50
0.0
 71
     0
281
     0
 72
     0
  0
ENDTAB
  0
TABLE
  2
UCS
  5
7
330
0
100
AcDbSymbolTable
 70
     0
  0
ENDTAB
  0
TABLE
  2
APPID
  5
9
330
0
100
AcDbSymbolTable
 70
     3
  0
APPID
  5
12
330
9
100
AcDbSymbolTableRecord
100
AcDbRegAppTableRecord
  2
ACAD
 70
     0
  0
APPID
  5
3F
330
9
100
AcDbSymbolTableRecord
100
AcDbRegAppTableRecord
  2
TCAD
 70
     0
  0
APPID
  5
78
330
9
100
AcDbSymbolTableRecord
100
AcDbRegAppTableRecord
  2
AVE_RENDER
 70
     0
  0
ENDTAB
  0
TABLE
  2
DIMSTYLE
  5
A
330
0
100
AcDbSymbolTable
 70
     2
100
AcDbDimStyleTable
  0
DIMSTYLE
105
27
330
A
100
AcDbSymbolTableRecord
100
AcDbDimStyleTableRecord
  2
Standard
 70
     0
  3
mm
 41
0.5
 45
0.0000001
140
1.8
148
0.01
178
   150
179
     4
271
     1
340
56
  0
DIMSTYLE
105
57
330
A
100
AcDbSymbolTableRecord
100
AcDbDimStyleTableRecord
  2
ISO-25
 70
     0
 41
2.5
 42
0.625
 43
3.75
 44
1.25
 45
0.0000001
 73
     0
 74
     0
 77
     1
 78
     8
140
2.5
143
0.03937007874016
147
0.625
148
0.0000001
171
     3
172
     1
178
     1
179
     2
271
     2
272
     2
274
     3
283
     0
284
     8
340
56
  0
ENDTAB
  0
TABLE
  2
BLOCK_RECORD
  5
1
330
0
100
AcDbSymbolTable
 70
     5
  0
BLOCK_RECORD
  5
1F
330
1
100
AcDbSymbolTableRecord
100
AcDbBlockTableRecord
  2
*Model_Space
340
22
  0
BLOCK_RECORD
  5
1B
330
1
100
AcDbSymbolTableRecord
100
AcDbBlockTableRecord
  2
*Paper_Space
340
1E
  0
BLOCK_RECORD
  5
3B
330
1
100
AcDbSymbolTableRecord
100
AcDbBlockTableRecord
  2
*Paper_Space1
340
3C
  0
BLOCK_RECORD
  5
5A
330
1
100
AcDbSymbolTableRecord
100
AcDbBlockTableRecord
  2
OVERHEAD
340
0
102
{BLKREFS
331
77
331
84
331
90
331
9C
331
A8
331
B4
102
}
  0
BLOCK_RECORD
  5
C0
330
1
100
AcDbSymbolTableRecord
100
AcDbBlockTableRecord
  2
DIRECT
340
0
102
{BLKREFS
331
D4
102
}
  0
BLOCK_RECORD
  5
E0
330
1
100
AcDbSymbolTableRecord
100
AcDbBlockTableRecord
  2
SH_SPOT
340
0
102
{BLKREFS
331
108
102
}
  0
ENDTAB
  0
ENDSEC
  0
SECTION
  2
BLOCKS
  0
BLOCK
  5
20
330
1F
100
AcDbEntity
  8
0
100
AcDbBlockBegin
  2
*Model_Space
 70
     0
 71
     0
 10
0.0
 20
0.0
 30
0.0
  3
*Model_Space
  1

  0
ENDBLK
  5
21
330
1F
100
AcDbEntity
  8
0
100
AcDbBlockEnd
  0
BLOCK
  5
1C
330
1B
100
AcDbEntity
 67
     1
  8
0
100
AcDbBlockBegin
  2
*Paper_Space
 70
     0
 71
     0
 10
0.0
 20
0.0
 30
0.0
  3
*Paper_Space
  1

  0
ENDBLK
  5
1D
330
1B
100
AcDbEntity
 67
     1
  8
0
100
AcDbBlockEnd
  0
BLOCK
  5
3D
330
3B
100
AcDbEntity
  8
0
100
AcDbBlockBegin
  2
*Paper_Space1
 70
     0
 71
     0
 10
0.0
 20
0.0
 30
0.0
  3
*Paper_Space1
  1

  0
VIEWPORT
  5
229
330
3B
100
AcDbEntity
  8
0
100
AcDbViewport
 10
218.3441119005328
 20
97.3991666666667
 30
0.0
 40
297.0
 41
210.0
 68
     1
 69
     1
 12
218.3441119005328
 22
97.3991666666667
 13
0.0
 23
0.0
 14
10.0
 24
10.0
 15
10.0
 25
10.0
 16
0.0
 26
0.0
 36
1.0
 17
0.0
 27
0.0
 37
0.0
 42
50.0
 43
0.0
 44
0.0
 45
210.0
 50
0.0
 51
0.0
 72
  1000
 90
    32800
  1

281
     0
 71
     1
 74
     0
110
0.0
120
0.0
130
0.0
111
1.0
121
0.0
131
0.0
112
0.0
122
1.0
132
0.0
 79
     0
146
0.0
170
     0
  0
VIEWPORT
  5
22A
330
3B
100
AcDbEntity
  8
0
  6
Durchgehend
100
AcDbViewport
 10
140.0218848823794
 20
101.9028953504165
 30
0.0
 40
280.2283957583874
 41
201.3931063490108
 68
     2
 69
     2
 12
717.186022139866
 22
392.4295042396324
 13
0.0
 23
0.0
 14
0.5
 24
0.5
 15
0.0
 25
0.0
 16
0.0
 26
0.0
 36
1.0
 17
0.0
 27
0.0
 37
0.0
 42
50.0
 43
0.0
 44
0.0
 45
201.393107068014
 50
0.0
 51
0.0
 72
   100
 90
   557152
  1

281
     0
 71
     1
 74
     0
110
0.0
120
0.0
130
0.0
111
1.0
121
0.0
131
0.0
112
0.0
122
1.0
132
0.0
 79
     0
146
0.0
170
     0
  0
ENDBLK
  5
3E
330
3B
100
AcDbEntity
  8
0
100
AcDbBlockEnd
  0
BLOCK
  5
75
330
5A
100
AcDbEntity
  8
0
100
AcDbBlockBegin
  2
OVERHEAD
 70
     2
 71
     0
 10
0.0
 20
0.0
 30
0.0
  3
OVERHEAD
  1

  0
ATTDEF
  5
5B
330
5A
100
AcDbEntity
  8
ASHADE
  6
Continuous
 62
     1
420
 16711680
100
AcDbText
 10
0.0
 20
-0.1
 30
0.0
 40
0.2
  1

  7
ASHADE
 72
     1
 11
0.0
 21
-0.1
 31
0.0
100
AcDbAttributeDefinition
  3
Light Name
  2
SNAME
 70
     0
  0
ATTDEF
  5
5C
330
5A
100
AcDbEntity
  8
ASHADE
  6
Continuous
 62
     7
100
AcDbText
 10
0.0
 20
0.28
 30
0.0
 40
0.01
  1

100
AcDbAttributeDefinition
  3

  2
GNAME
 70
     1
  0
ATTDEF
  5
5D
330
5A
100
AcDbEntity
  8
ASHADE
  6
Continuous
 62
     7
100
AcDbText
 10
0.0
 20
0.265
 30
0.0
 40
0.01
  1

100
AcDbAttributeDefinition
  3
Look-at X
  2
LAX
 70
     1
  0
ATTDEF
  5
5E
330
5A
100
AcDbEntity
  8
ASHADE
  6
Continuous
 62
     7
100
AcDbText
 10
0.0
 20
0.25
 30
0.0
 40
0.01
  1

100
AcDbAttributeDefinition
  3
Look-at Y
  2
LAY
 70
     1
  0
ATTDEF
  5
5F
330
5A
100
AcDbEntity
  8
ASHADE
  6
Continuous
 62
     7
100
AcDbText
 10
0.0
 20
0.235
 30
0.0
 40
0.01
  1

100
AcDbAttributeDefinition
  3
Look-at Z
  2
LAZ
 70
     1
  0
ATTDEF
  5
60
330
5A
100
AcDbEntity
  8
ASHADE
  6
Continuous
 62
     7
100
AcDbText
 10
0.0
 20
0.22
 30
0.0
 40
0.01
  1
1
100
AcDbAttributeDefinition
  3
Light Intensity
  2
INTENSITY
 70
     1
  0
ATTDEF
  5
61
330
5A
100
AcDbEntity
  8
ASHADE
  6
Continuous
 62
     7
100
AcDbText
 10
0.0
 20
0.205
 30
0.0
 40
0.01
  1
1,1,1
100
AcDbAttributeDefinition
  3
Light Color (RGB)
  2
COLOR
 70
     1
  0
ATTDEF
  5
62
330
5A
100
AcDbEntity
  8
ASHADE
  6
Continuous
 62
     7
100
AcDbText
 10
0.0
 20
0.19
 30
0.0
 40
0.01
  1
0
100
AcDbAttributeDefinition
  3
Depth Map Size
  2
CONEA
 70
     1
  0
ATTDEF
  5
63
330
5A
100
AcDbEntity
  8
ASHADE
  6
Continuous
 62
     7
100
AcDbText
 10
0.0
 20
0.175
 30
0.0
 40
0.01
  1
-1
100
AcDbAttributeDefinition
  3
*not used*
  2
CONED
 70
     1
  0
ATTDEF
  5
64
330
5A
100
AcDbEntity
  8
ASHADE
  6
Continuous
 62
     7
100
AcDbText
 10
0.0
 20
0.16
 30
0.0
 40
0.01
  1
-1
100
AcDbAttributeDefinition
  3
*not used*
  2
BEAMD
 70
     1
  0
ARC
  5
65
330
5A
100
AcDbEntity
  8
ASHADE
  6
Continuous
 62
     7
100
AcDbCircle
 10
0.0
 20
0.0
 30
0.0
 40
0.3
100
AcDbArc
 50
205.679289
 51
334.320711
  0
ARC
  5
66
330
5A
100
AcDbEntity
  8
ASHADE
  6
Continuous
 62
     7
100
AcDbCircle
 10
0.0
 20
0.0
 30
0.0
 40
0.3
100
AcDbArc
 50
25.679289
 51
154.320711
  0
LINE
  5
67
330
5A
100
AcDbEntity
  8
ASHADE
  6
Continuous
 62
     7
100
AcDbLine
 10
-0.27037
 20
-0.13
 30
0.0
 11
-0.315432
 21
-0.151667
 31
0.0
  0
LINE
  5
68
330
5A
100
AcDbEntity
  8
ASHADE
  6
Continuous
 62
     7
100
AcDbLine
 10
-0.204141
 20
-0.219832
 30
0.0
 11
-0.272188
 21
-0.29311
 31
0.0
  0
LINE
  5
69
330
5A
100
AcDbEntity
  8
ASHADE
  6
Continuous
 62
     7
100
AcDbLine
 10
-0.109659
 20
-0.27924
 30
0.0
 11
-0.127936
 21
-0.32578
 31
0.0
  0
LINE
  5
6A
330
5A
100
AcDbEntity
  8
ASHADE
  6
Continuous
 62
     7
100
AcDbLine
 10
0.0
 20
-0.3
 30
0.0
 11
0.0
 21
-0.4
 31
0.0
  0
LINE
  5
6B
330
5A
100
AcDbEntity
  8
ASHADE
  6
Continuous
 62
     7
100
AcDbLine
 10
0.109659
 20
-0.27924
 30
0.0
 11
0.127936
 21
-0.32578
 31
0.0
  0
LINE
  5
6C
330
5A
100
AcDbEntity
  8
ASHADE
  6
Continuous
 62
     7
100
AcDbLine
 10
0.204141
 20
-0.219832
 30
0.0
 11
0.272188
 21
-0.29311
 31
0.0
  0
LINE
  5
6D
330
5A
100
AcDbEntity
  8
ASHADE
  6
Continuous
 62
     7
100
AcDbLine
 10
0.27037
 20
-0.13
 30
0.0
 11
0.315432
 21
-0.151667
 31
0.0
  0
LINE
  5
6E
330
5A
100
AcDbEntity
  8
ASHADE
  6
Continuous
 62
     7
100
AcDbLine
 10
-0.109659
 20
0.27924
 30
0.0
 11
-0.127936
 21
0.32578
 31
0.0
  0
LINE
  5
6F
330
5A
100
AcDbEntity
  8
ASHADE
  6
Continuous
 62
     7
100
AcDbLine
 10
-0.204141
 20
0.219832
 30
0.0
 11
-0.272188
 21
0.29311
 31
0.0
  0
LINE
  5
70
330
5A
100
AcDbEntity
  8
ASHADE
  6
Continuous
 62
     7
100
AcDbLine
 10
-0.27037
 20
0.13
 30
0.0
 11
-0.315432
 21
0.151667
 31
0.0
  0
LINE
  5
71
330
5A
100
AcDbEntity
  8
ASHADE
  6
Continuous
 62
     7
100
AcDbLine
 10
0.27037
 20
0.13
 30
0.0
 11
0.315432
 21
0.151667
 31
0.0
  0
LINE
  5
72
330
5A
100
AcDbEntity
  8
ASHADE
  6
Continuous
 62
     7
100
AcDbLine
 10
0.204141
 20
0.219832
 30
0.0
 11
0.272188
 21
0.29311
 31
0.0
  0
LINE
  5
73
330
5A
100
AcDbEntity
  8
ASHADE
  6
Continuous
 62
     7
100
AcDbLine
 10
0.109659
 20
0.27924
 30
0.0
 11
0.127936
 21
0.32578
 31
0.0
  0
LINE
  5
74
330
5A
100
AcDbEntity
  8
ASHADE
  6
Continuous
 62
     7
100
AcDbLine
 10
0.0
 20
0.3
 30
0.0
 11
0.0
 21
0.4
 31
0.0
  0
ENDBLK
  5
76
330
5A
100
AcDbEntity
  8
0
100
AcDbBlockEnd
  0
BLOCK
  5
D2
330
C0
100
AcDbEntity
  8
0
100
AcDbBlockBegin
  2
DIRECT
 70
     2
 71
     0
 10
0.0
 20
0.0
 30
0.0
  3
DIRECT
  1

  0
ATTDEF
  5
C1
330
C0
100
AcDbEntity
  8
ASHADE
  6
Continuous
 62
     1
420
 16711680
100
AcDbText
 10
0.0
 20
-0.1
 30
0.0
 40
0.2
  1

  7
ASHADE
 72
     1
 11
0.0
 21
-0.1
 31
0.0
100
AcDbAttributeDefinition
  3
Light Name
  2
SNAME
 70
     0
  0
ATTDEF
  5
C2
330
C0
100
AcDbEntity
  8
ASHADE
  6
Continuous
 62
     7
100
AcDbText
 10
0.0
 20
0.28
 30
0.0
 40
0.01
  1

100
AcDbAttributeDefinition
  3

  2
GNAME
 70
     1
  0
ATTDEF
  5
C3
330
C0
100
AcDbEntity
  8
ASHADE
  6
Continuous
 62
     7
100
AcDbText
 10
0.0
 20
0.265
 30
0.0
 40
0.01
  1

100
AcDbAttributeDefinition
  3
Look-at X
  2
LAX
 70
     1
  0
ATTDEF
  5
C4
330
C0
100
AcDbEntity
  8
ASHADE
  6
Continuous
 62
     7
100
AcDbText
 10
0.0
 20
0.25
 30
0.0
 40
0.01
  1

100
AcDbAttributeDefinition
  3
Look-at Y
  2
LAY
 70
     1
  0
ATTDEF
  5
C5
330
C0
100
AcDbEntity
  8
ASHADE
  6
Continuous
 62
     7
100
AcDbText
 10
0.0
 20
0.235
 30
0.0
 40
0.01
  1

100
AcDbAttributeDefinition
  3
Look-at Z
  2
LAZ
 70
     1
  0
ATTDEF
  5
C6
330
C0
100
AcDbEntity
  8
ASHADE
  6
Continuous
 62
     7
100
AcDbText
 10
0.0
 20
0.22
 30
0.0
 40
0.01
  1
1
100
AcDbAttributeDefinition
  3
Light Intensity
  2
INTENSITY
 70
     1
  0
ATTDEF
  5
C7
330
C0
100
AcDbEntity
  8
ASHADE
  6
Continuous
 62
     7
100
AcDbText
 10
0.0
 20
0.205
 30
0.0
 40
0.01
  1
1,1,1
100
AcDbAttributeDefinition
  3
Light Color (RGB)
  2
COLOR
 70
     1
  0
ATTDEF
  5
C8
330
C0
100
AcDbEntity
  8
ASHADE
  6
Continuous
 62
     7
100
AcDbText
 10
0.0
 20
0.19
 30
0.0
 40
0.01
  1
0
100
AcDbAttributeDefinition
  3
Depth Map Size
  2
CONEA
 70
     1
  0
ATTDEF
  5
C9
330
C0
100
AcDbEntity
  8
ASHADE
  6
Continuous
 62
     7
100
AcDbText
 10
0.0
 20
0.175
 30
0.0
 40
0.01
  1
-1
100
AcDbAttributeDefinition
  3
*not used*
  2
CONED
 70
     1
  0
ATTDEF
  5
CA
330
C0
100
AcDbEntity
  8
ASHADE
  6
Continuous
 62
     7
100
AcDbText
 10
0.0
 20
0.16
 30
0.0
 40
0.01
  1
-1
100
AcDbAttributeDefinition
  3
*not used*
  2
BEAMD
 70
     1
  0
ARC
  5
CB
330
C0
100
AcDbEntity
  8
ASHADE
  6
Continuous
 62
     7
100
AcDbCircle
 10
0.0
 20
0.0
 30
0.0
 40
0.3
100
AcDbArc
 50
205.679289
 51
334.320711
  0
ARC
  5
CC
330
C0
100
AcDbEntity
  8
ASHADE
  6
Continuous
 62
     7
100
AcDbCircle
 10
0.0
 20
0.0
 30
0.0
 40
0.3
100
AcDbArc
 50
25.679289
 51
154.320711
  0
LINE
  5
CD
330
C0
100
AcDbEntity
  8
ASHADE
  6
Continuous
 62
     7
100
AcDbLine
 10
0.21
 20
0.214243
 30
0.0
 11
0.21
 21
0.5
 31
0.0
  0
LINE
  5
CE
330
C0
100
AcDbEntity
  8
ASHADE
  6
Continuous
 62
     7
100
AcDbLine
 10
0.11
 20
0.279106
 30
0.0
 11
0.11
 21
0.5
 31
0.0
  0
LINE
  5
CF
330
C0
100
AcDbEntity
  8
ASHADE
  6
Continuous
 62
     7
100
AcDbLine
 10
0.0
 20
0.3
 30
0.0
 11
0.0
 21
0.5
 31
0.0
  0
LINE
  5
D0
330
C0
100
AcDbEntity
  8
ASHADE
  6
Continuous
 62
     7
100
AcDbLine
 10
-0.11
 20
0.279106
 30
0.0
 11
-0.11
 21
0.5
 31
0.0
  0
LINE
  5
D1
330
C0
100
AcDbEntity
  8
ASHADE
  6
Continuous
 62
     7
100
AcDbLine
 10
-0.21
 20
0.214243
 30
0.0
 11
-0.21
 21
0.5
 31
0.0
  0
ENDBLK
  5
D3
330
C0
100
AcDbEntity
  8
0
100
AcDbBlockEnd
  0
BLOCK
  5
106
330
E0
100
AcDbEntity
  8
0
100
AcDbBlockBegin
  2
SH_SPOT
 70
     2
 71
     0
 10
0.0
 20
0.0
 30
0.0
  3
SH_SPOT
  1

  0
ATTDEF
  5
E1
330
E0
100
AcDbEntity
  8
ASHADE
  6
Continuous
 62
     1
420
 16711680
100
AcDbText
 10
0.0
 20
-0.1
 30
0.0
 40
0.2
  1

  7
ASHADE
 72
     1
 11
0.0
 21
-0.1
 31
0.0
100
AcDbAttributeDefinition
  3
Light Name
  2
SNAME
 70
     0
  0
ATTDEF
  5
E2
330
E0
100
AcDbEntity
  8
ASHADE
  6
Continuous
 62
     7
 60
     1
100
AcDbText
 10
0.0
 20
-0.15
 30
0.0
 40
0.01
  1

100
AcDbAttributeDefinition
  3

  2
GNAME
 70
     0
  0
ATTDEF
  5
E3
330
E0
100
AcDbEntity
  8
ASHADE
  6
Continuous
 62
     7
 60
     1
100
AcDbText
 10
0.0
 20
-0.165
 30
0.0
 40
0.01
  1

100
AcDbAttributeDefinition
  3
Look-at X
  2
LAX
 70
     0
  0
ATTDEF
  5
E4
330
E0
100
AcDbEntity
  8
ASHADE
  6
Continuous
 62
     7
 60
     1
100
AcDbText
 10
0.0
 20
-0.18
 30
0.0
 40
0.01
  1

100
AcDbAttributeDefinition
  3
Look-at Y
  2
LAY
 70
     0
  0
ATTDEF
  5
E5
330
E0
100
AcDbEntity
  8
ASHADE
  6
Continuous
 62
     7
 60
     1
100
AcDbText
 10
0.0
 20
-0.195
 30
0.0
 40
0.01
  1

100
AcDbAttributeDefinition
  3
Look-at Z
  2
LAZ
 70
     0
  0
ATTDEF
  5
E6
330
E0
100
AcDbEntity
  8
ASHADE
  6
Continuous
 62
     7
 60
     1
100
AcDbText
 10
0.0
 20
-0.21
 30
0.0
 40
0.01
  1
1
100
AcDbAttributeDefinition
  3
Light Intensity
  2
INTENSITY
 70
     0
  0
ATTDEF
  5
E7
330
E0
100
AcDbEntity
  8
ASHADE
  6
Continuous
 62
     7
 60
     1
100
AcDbText
 10
0.0
 20
-0.225
 30
0.0
 40
0.01
  1
1,1,1
100
AcDbAttributeDefinition
  3
Light Color (RGB)
  2
COLOR
 70
     0
  0
ATTDEF
  5
E8
330
E0
100
AcDbEntity
  8
ASHADE
  6
Continuous
 62
     7
 60
     1
100
AcDbText
 10
0.0
 20
-0.24
 30
0.0
 40
0.01
  1
0
100
AcDbAttributeDefinition
  3
Depth Map Size
  2
ZSIZE
 70
     0
  0
ATTDEF
  5
E9
330
E0
100
AcDbEntity
  8
ASHADE
  6
Continuous
 62
     7
 60
     1
100
AcDbText
 10
0.0
 20
-0.255
 30
0.0
 40
0.01
  1
-1
100
AcDbAttributeDefinition
  3
*not used*
  2
BIASMIN
 70
     0
  0
ATTDEF
  5
EA
330
E0
100
AcDbEntity
  8
ASHADE
  6
Continuous
 62
     7
 60
     1
100
AcDbText
 10
0.0
 20
-0.27
 30
0.0
 40
0.01
  1
-1
100
AcDbAttributeDefinition
  3
*not used*
  2
BIASMAX
 70
     0
  0
ATTDEF
  5
EB
330
E0
100
AcDbEntity
  8
ASHADE
  6
Continuous
 62
     7
 60
     1
100
AcDbText
 10
0.0
 20
-0.285
 30
0.0
 40
0.01
  1
10.0
100
AcDbAttributeDefinition
  3
Cone Angle
  2
CONEAN
 70
     0
  0
ATTDEF
  5
EC
330
E0
100
AcDbEntity
  8
ASHADE
  6
Continuous
 62
     7
 60
     1
100
AcDbText
 10
0.0
 20
-0.3
 30
0.0
 40
0.01
  1
0.0
100
AcDbAttributeDefinition
  3
Cone Delta
  2
CONEDE
 70
     0
  0
ATTDEF
  5
ED
330
E0
100
AcDbEntity
  8
ASHADE
  6
Continuous
 62
     7
 60
     1
100
AcDbText
 10
0.0
 20
-0.315
 30
0.0
 40
0.01
  1
0.0
100
AcDbAttributeDefinition
  3
Beam Distribution
  2
BIAMDI
 70
     0
  0
LINE
  5
EE
330
E0
100
AcDbEntity
  8
ASHADE
  6
Continuous
 62
     7
100
AcDbLine
 10
-0.25
 20
-0.13
 30
0.0
 11
-0.25
 21
-0.34
 31
0.0
  0
LINE
  5
EF
330
E0
100
AcDbEntity
  8
ASHADE
  6
Continuous
 62
     7
100
AcDbLine
 10
-0.25
 20
-0.34
 30
0.0
 11
0.25
 21
-0.34
 31
0.0
  0
LINE
  5
F0
330
E0
100
AcDbEntity
  8
ASHADE
  6
Continuous
 62
     7
100
AcDbLine
 10
0.25
 20
-0.34
 30
0.0
 11
0.25
 21
-0.13
 31
0.0
  0
LINE
  5
F1
330
E0
100
AcDbEntity
  8
ASHADE
  6
Continuous
 62
     7
100
AcDbLine
 10
0.25
 20
0.13
 30
0.0
 11
0.25
 21
0.26
 31
0.0
  0
LINE
  5
F2
330
E0
100
AcDbEntity
  8
ASHADE
  6
Continuous
 62
     7
100
AcDbLine
 10
0.25
 20
0.26
 30
0.0
 11
-0.25
 21
0.26
 31
0.0
  0
LINE
  5
F3
330
E0
100
AcDbEntity
  8
ASHADE
  6
Continuous
 62
     7
100
AcDbLine
 10
-0.25
 20
0.26
 30
0.0
 11
-0.25
 21
0.13
 31
0.0
  0
LINE
  5
F4
330
E0
100
AcDbEntity
  8
ASHADE
  6
Continuous
 62
     7
100
AcDbLine
 10
-0.21
 20
0.26
 30
0.0
 11
-0.301304
 21
0.46
 31
0.0
  0
LINE
  5
F5
330
E0
100
AcDbEntity
  8
ASHADE
  6
Continuous
 62
     7
100
AcDbLine
 10
-0.104545
 20
0.26
 30
0.0
 11
-0.15
 21
0.46
 31
0.0
  0
LINE
  5
F6
330
E0
100
AcDbEntity
  8
ASHADE
  6
Continuous
 62
     7
100
AcDbLine
 10
0.0
 20
0.26
 30
0.0
 11
0.0
 21
0.46
 31
0.0
  0
LINE
  5
F7
330
E0
100
AcDbEntity
  8
ASHADE
  6
Continuous
 62
     7
100
AcDbLine
 10
0.104545
 20
0.26
 30
0.0
 11
0.15
 21
0.46
 31
0.0
  0
LINE
  5
F8
330
E0
100
AcDbEntity
  8
ASHADE
  6
Continuous
 62
     7
100
AcDbLine
 10
0.21
 20
0.26
 30
0.0
 11
0.301304
 21
0.46
 31
0.0
  0
LINE
  5
F9
330
E0
100
AcDbEntity
  8
ASHADE
  6
Continuous
 62
     7
100
AcDbLine
 10
-0.29
 20
-0.18
 30
0.0
 11
-0.29
 21
-0.22
 31
0.0
  0
LINE
  5
FA
330
E0
100
AcDbEntity
  8
ASHADE
  6
Continuous
 62
     7
100
AcDbLine
 10
0.29
 20
-0.18
 30
0.0
 11
0.29
 21
-0.22
 31
0.0
  0
LINE
  5
FB
330
E0
100
AcDbEntity
  8
ASHADE
  6
Continuous
 62
     7
100
AcDbLine
 10
0.29
 20
0.22
 30
0.0
 11
0.29
 21
0.18
 31
0.0
  0
LINE
  5
FC
330
E0
100
AcDbEntity
  8
ASHADE
  6
Continuous
 62
     7
100
AcDbLine
 10
-0.29
 20
0.22
 30
0.0
 11
-0.29
 21
0.18
 31
0.0
  0
LINE
  5
FD
330
E0
100
AcDbEntity
  8
ASHADE
  6
Continuous
 62
     7
100
AcDbLine
 10
-0.29
 20
-0.22
 30
0.0
 11
-0.25
 21
-0.22
 31
0.0
  0
LINE
  5
FE
330
E0
100
AcDbEntity
  8
ASHADE
  6
Continuous
 62
     7
100
AcDbLine
 10
-0.25
 20
-0.18
 30
0.0
 11
-0.29
 21
-0.18
 31
0.0
  0
LINE
  5
FF
330
E0
100
AcDbEntity
  8
ASHADE
  6
Continuous
 62
     7
100
AcDbLine
 10
0.29
 20
-0.22
 30
0.0
 11
0.25
 21
-0.22
 31
0.0
  0
LINE
  5
100
330
E0
100
AcDbEntity
  8
ASHADE
  6
Continuous
 62
     7
100
AcDbLine
 10
0.25
 20
-0.18
 30
0.0
 11
0.29
 21
-0.18
 31
0.0
  0
LINE
  5
101
330
E0
100
AcDbEntity
  8
ASHADE
  6
Continuous
 62
     7
100
AcDbLine
 10
0.29
 20
0.18
 30
0.0
 11
0.25
 21
0.18
 31
0.0
  0
LINE
  5
102
330
E0
100
AcDbEntity
  8
ASHADE
  6
Continuous
 62
     7
100
AcDbLine
 10
0.25
 20
0.22
 30
0.0
 11
0.29
 21
0.22
 31
0.0
  0
LINE
  5
103
330
E0
100
AcDbEntity
  8
ASHADE
  6
Continuous
 62
     7
100
AcDbLine
 10
-0.29
 20
0.18
 30
0.0
 11
-0.25
 21
0.18
 31
0.0
  0
LINE
  5
104
330
E0
100
AcDbEntity
  8
ASHADE
  6
Continuous
 62
     7
100
AcDbLine
 10
-0.25
 20
0.22
 30
0.0
 11
-0.29
 21
0.22
 31
0.0
  0
ATTDEF
  5
105
330
E0
100
AcDbEntity
  8
ASHADE
  6
Continuous
 62
     7
 60
     1
100
AcDbText
 10
0.0
 20
-0.33
 30
0.0
 40
0.01
  1
0,0,0
100
AcDbAttributeDefinition
  3
Look-from XYZ
  2
LFXYZ
 70
     0
  0
ENDBLK
  5
107
330
E0
100
AcDbEntity
  8
0
100
AcDbBlockEnd
  0
ENDSEC
  0
SECTION
  2
ENTITIES
  0
INSERT
  5
77
330
1F
100
AcDbEntity
  8
0
 60
     1
100
AcDbBlockReference
 66
     1
  2
OVERHEAD
 10
140.2891550348922
 20
104.4047626918939
 30
-36.12170267016183
1001
AVE_RENDER
1002
{
1070
     0
1000
LIGHT_0
1011
141.2891550348922
1021
104.4047626918939
1031
-36.12170267016183
1041
1.0
1010
0.5019607843137255
1020
0.5019607843137255
1030
0.5019607843137255
1002
{
1070
     1
1070
     0
1040
0.0
1040
0.0
1040
3.0
1002
}
1002
{
1070
     9
1070
    21
1070
    15
1070
     0
1040
37.62
1040
122.37
1002
}
1002
}
1001
TCAD
1000
TCW_LIGTH
1002
{
1070
     1
1002
}
  0
ATTRIB
  5
79
330
77
100
AcDbEntity
  8
ASHADE
  6
Continuous
 62
     1
420
 16711680
100
AcDbText
 10
139.7177264634637
 20
104.3047626918939
 30
-36.12170267016183
 40
0.2
  1
LIGHT_0
  7
ASHADE
 72
     1
 11
140.2891550348922
 21
104.3047626918939
 31
-36.12170267016183
100
AcDbAttribute
  2
SNAME
 70
     0
  0
ATTRIB
  5
7A
330
77
100
AcDbEntity
  8
ASHADE
  6
Continuous
 62
     7
 60
     1
100
AcDbText
 10
140.2891550348922
 20
104.4047626918939
 30
0.0
 40
0.01
  1

100
AcDbAttribute
  2
GNAME
 70
     0
  0
ATTRIB
  5
7B
330
77
100
AcDbEntity
  8
ASHADE
  6
Continuous
 62
     7
 60
     1
100
AcDbText
 10
140.2891550348922
 20
104.4047626918939
 30
0.0
 40
0.01
  1

100
AcDbAttribute
  2
LAX
 70
     0
  0
ATTRIB
  5
7C
330
77
100
AcDbEntity
  8
ASHADE
  6
Continuous
 62
     7
 60
     1
100
AcDbText
 10
140.2891550348922
 20
104.4047626918939
 30
0.0
 40
0.01
  1

100
AcDbAttribute
  2
LAY
 70
     0
  0
ATTRIB
  5
7D
330
77
100
AcDbEntity
  8
ASHADE
  6
Continuous
 62
     7
 60
     1
100
AcDbText
 10
140.2891550348922
 20
104.4047626918939
 30
0.0
 40
0.01
  1

100
AcDbAttribute
  2
LAZ
 70
     0
  0
ATTRIB
  5
7E
330
77
100
AcDbEntity
  8
ASHADE
  6
Continuous
 62
     7
 60
     1
100
AcDbText
 10
140.2891550348922
 20
104.4047626918939
 30
0.0
 40
0.01
  1
1
100
AcDbAttribute
  2
INTENSITY
 70
     0
  0
ATTRIB
  5
7F
330
77
100
AcDbEntity
  8
ASHADE
  6
Continuous
 62
     7
 60
     1
100
AcDbText
 10
140.2891550348922
 20
104.4047626918939
 30
0.0
 40
0.01
  1
1,1,1
100
AcDbAttribute
  2
COLOR
 70
     0
  0
ATTRIB
  5
80
330
77
100
AcDbEntity
  8
ASHADE
  6
Continuous
 62
     7
 60
     1
100
AcDbText
 10
140.2891550348922
 20
104.4047626918939
 30
0.0
 40
0.01
  1
0
100
AcDbAttribute
  2
CONEA
 70
     0
  0
ATTRIB
  5
81
330
77
100
AcDbEntity
  8
ASHADE
  6
Continuous
 62
     7
 60
     1
100
AcDbText
 10
140.2891550348922
 20
104.4047626918939
 30
0.0
 40
0.01
  1
-1
100
AcDbAttribute
  2
CONED
 70
     0
  0
ATTRIB
  5
82
330
77
100
AcDbEntity
  8
ASHADE
  6
Continuous
 62
     7
 60
     1
100
AcDbText
 10
140.2891550348922
 20
104.4047626918939
 30
0.0
 40
0.01
  1
-1
100
AcDbAttribute
  2
BEAMD
 70
     0
  0
SEQEND
  5
83
330
77
100
AcDbEntity
  8
0
 60
     1
  0
INSERT
  5
84
330
1F
100
AcDbEntity
  8
0
 60
     1
100
AcDbBlockReference
 66
     1
  2
OVERHEAD
 10
201.0056485451751
 20
84.36872729576855
 30
-36.84793505203445
1001
AVE_RENDER
1002
{
1070
     0
1000
LIGHT_1
1011
202.0056485451751
1021
84.36872729576855
1031
-36.84793505203445
1041
1.0
1010
0.5019607843137255
1020
0.5019607843137255
1030
0.5019607843137255
1002
{
1070
     1
1070
     0
1040
0.0
1040
0.0
1040
3.0
1002
}
1002
{
1070
     9
1070
    21
1070
    15
1070
     0
1040
37.62
1040
122.37
1002
}
1002
}
1001
TCAD
1000
TCW_LIGTH
1002
{
1070
     1
1002
}
  0
ATTRIB
  5
85
330
84
100
AcDbEntity
  8
ASHADE
  6
Continuous
 62
     1
420
 16711680
100
AcDbText
 10
200.4342199737465
 20
84.26872729576856
 30
-36.84793505203445
 40
0.2
  1
LIGHT_1
  7
ASHADE
 72
     1
 11
201.0056485451751
 21
84.26872729576856
 31
-36.84793505203445
100
AcDbAttribute
  2
SNAME
 70
     0
  0
ATTRIB
  5
86
330
84
100
AcDbEntity
  8
ASHADE
  6
Continuous
 62
     7
 60
     1
100
AcDbText
 10
201.0056485451751
 20
84.36872729576855
 30
0.0
 40
0.01
  1

100
AcDbAttribute
  2
GNAME
 70
     0
  0
ATTRIB
  5
87
330
84
100
AcDbEntity
  8
ASHADE
  6
Continuous
 62
     7
 60
     1
100
AcDbText
 10
201.0056485451751
 20
84.36872729576855
 30
0.0
 40
0.01
  1

100
AcDbAttribute
  2
LAX
 70
     0
  0
ATTRIB
  5
88
330
84
100
AcDbEntity
  8
ASHADE
  6
Continuous
 62
     7
 60
     1
100
AcDbText
 10
201.0056485451751
 20
84.36872729576855
 30
0.0
 40
0.01
  1

100
AcDbAttribute
  2
LAY
 70
     0
  0
ATTRIB
  5
89
330
84
100
AcDbEntity
  8
ASHADE
  6
Continuous
 62
     7
 60
     1
100
AcDbText
 10
201.0056485451751
 20
84.36872729576855
 30
0.0
 40
0.01
  1

100
AcDbAttribute
  2
LAZ
 70
     0
  0
ATTRIB
  5
8A
330
84
100
AcDbEntity
  8
ASHADE
  6
Continuous
 62
     7
 60
     1
100
AcDbText
 10
201.0056485451751
 20
84.36872729576855
 30
0.0
 40
0.01
  1
1
100
AcDbAttribute
  2
INTENSITY
 70
     0
  0
ATTRIB
  5
8B
330
84
100
AcDbEntity
  8
ASHADE
  6
Continuous
 62
     7
 60
     1
100
AcDbText
 10
201.0056485451751
 20
84.36872729576855
 30
0.0
 40
0.01
  1
1,1,1
100
AcDbAttribute
  2
COLOR
 70
     0
  0
ATTRIB
  5
8C
330
84
100
AcDbEntity
  8
ASHADE
  6
Continuous
 62
     7
 60
     1
100
AcDbText
 10
201.0056485451751
 20
84.36872729576855
 30
0.0
 40
0.01
  1
0
100
AcDbAttribute
  2
CONEA
 70
     0
  0
ATTRIB
  5
8D
330
84
100
AcDbEntity
  8
ASHADE
  6
Continuous
 62
     7
 60
     1
100
AcDbText
 10
201.0056485451751
 20
84.36872729576855
 30
0.0
 40
0.01
  1
-1
100
AcDbAttribute
  2
CONED
 70
     0
  0
ATTRIB
  5
8E
330
84
100
AcDbEntity
  8
ASHADE
  6
Continuous
 62
     7
 60
     1
100
AcDbText
 10
201.0056485451751
 20
84.36872729576855
 30
0.0
 40
0.01
  1
-1
100
AcDbAttribute
  2
BEAMD
 70
     0
  0
SEQEND
  5
8F
330
84
100
AcDbEntity
  8
0
 60
     1
  0
INSERT
  5
90
330
1F
100
AcDbEntity
  8
0
 60
     1
100
AcDbBlockReference
 66
     1
  2
OVERHEAD
 10
113.0557081722466
 20
16.65363348442807
 30
107.9992891292011
1001
AVE_RENDER
1002
{
1070
     0
1000
LIGHT_2
1011
114.0557081722466
1021
16.65363348442807
1031
107.9992891292011
1041
1.0
1010
0.5019607843137255
1020
0.5019607843137255
1030
0.5019607843137255
1002
{
1070
     1
1070
     0
1040
0.0
1040
0.0
1040
3.0
1002
}
1002
{
1070
     9
1070
    21
1070
    15
1070
     0
1040
37.62
1040
122.37
1002
}
1002
}
1001
TCAD
1000
TCW_LIGTH
1002
{
1070
     1
1002
}
  0
ATTRIB
  5
91
330
90
100
AcDbEntity
  8
ASHADE
  6
Continuous
 62
     1
420
 16711680
100
AcDbText
 10
112.484279600818
 20
16.55363348442807
 30
107.9992891292011
 40
0.2
  1
LIGHT_2
  7
ASHADE
 72
     1
 11
113.0557081722466
 21
16.55363348442807
 31
107.9992891292011
100
AcDbAttribute
  2
SNAME
 70
     0
  0
ATTRIB
  5
92
330
90
100
AcDbEntity
  8
ASHADE
  6
Continuous
 62
     7
 60
     1
100
AcDbText
 10
113.0557081722466
 20
16.65363348442807
 30
0.0
 40
0.01
  1

100
AcDbAttribute
  2
GNAME
 70
     0
  0
ATTRIB
  5
93
330
90
100
AcDbEntity
  8
ASHADE
  6
Continuous
 62
     7
 60
     1
100
AcDbText
 10
113.0557081722466
 20
16.65363348442807
 30
0.0
 40
0.01
  1

100
AcDbAttribute
  2
LAX
 70
     0
  0
ATTRIB
  5
94
330
90
100
AcDbEntity
  8
ASHADE
  6
Continuous
 62
     7
 60
     1
100
AcDbText
 10
113.0557081722466
 20
16.65363348442807
 30
0.0
 40
0.01
  1

100
AcDbAttribute
  2
LAY
 70
     0
  0
ATTRIB
  5
95
330
90
100
AcDbEntity
  8
ASHADE
  6
Continuous
 62
     7
 60
     1
100
AcDbText
 10
113.0557081722466
 20
16.65363348442807
 30
0.0
 40
0.01
  1

100
AcDbAttribute
  2
LAZ
 70
     0
  0
ATTRIB
  5
96
330
90
100
AcDbEntity
  8
ASHADE
  6
Continuous
 62
     7
 60
     1
100
AcDbText
 10
113.0557081722466
 20
16.65363348442807
 30
0.0
 40
0.01
  1
1
100
AcDbAttribute
  2
INTENSITY
 70
     0
  0
ATTRIB
  5
97
330
90
100
AcDbEntity
  8
ASHADE
  6
Continuous
 62
     7
 60
     1
100
AcDbText
 10
113.0557081722466
 20
16.65363348442807
 30
0.0
 40
0.01
  1
1,1,1
100
AcDbAttribute
  2
COLOR
 70
     0
  0
ATTRIB
  5
98
330
90
100
AcDbEntity
  8
ASHADE
  6
Continuous
 62
     7
 60
     1
100
AcDbText
 10
113.0557081722466
 20
16.65363348442807
 30
0.0
 40
0.01
  1
0
100
AcDbAttribute
  2
CONEA
 70
     0
  0
ATTRIB
  5
99
330
90
100
AcDbEntity
  8
ASHADE
  6
Continuous
 62
     7
 60
     1
100
AcDbText
 10
113.0557081722466
 20
16.65363348442807
 30
0.0
 40
0.01
  1
-1
100
AcDbAttribute
  2
CONED
 70
     0
  0
ATTRIB
  5
9A
330
90
100
AcDbEntity
  8
ASHADE
  6
Continuous
 62
     7
 60
     1
100
AcDbText
 10
113.0557081722466
 20
16.65363348442807
 30
0.0
 40
0.01
  1
-1
100
AcDbAttribute
  2
BEAMD
 70
     0
  0
SEQEND
  5
9B
330
90
100
AcDbEntity
  8
0
 60
     1
  0
INSERT
  5
9C
330
1F
100
AcDbEntity
  8
0
 60
     1
100
AcDbBlockReference
 66
     1
  2
OVERHEAD
 10
173.7722016825294
 20
-3.382401911697229
 30
107.2730567473285
1001
AVE_RENDER
1002
{
1070
     0
1000
LIGHT_3
1011
174.7722016825294
1021
-3.382401911697229
1031
107.2730567473285
1041
1.0
1010
0.5019607843137255
1020
0.5019607843137255
1030
0.5019607843137255
1002
{
1070
     1
1070
     0
1040
0.0
1040
0.0
1040
3.0
1002
}
1002
{
1070
     9
1070
    21
1070
    15
1070
     0
1040
37.62
1040
122.37
1002
}
1002
}
1001
TCAD
1000
TCW_LIGTH
1002
{
1070
     1
1002
}
  0
ATTRIB
  5
9D
330
9C
100
AcDbEntity
  8
ASHADE
  6
Continuous
 62
     1
420
 16711680
100
AcDbText
 10
173.2007731111009
 20
-3.48240191169723
 30
107.2730567473285
 40
0.2
  1
LIGHT_3
  7
ASHADE
 72
     1
 11
173.7722016825294
 21
-3.48240191169723
 31
107.2730567473285
100
AcDbAttribute
  2
SNAME
 70
     0
  0
ATTRIB
  5
9E
330
9C
100
AcDbEntity
  8
ASHADE
  6
Continuous
 62
     7
 60
     1
100
AcDbText
 10
173.7722016825294
 20
-3.382401911697229
 30
0.0
 40
0.01
  1

100
AcDbAttribute
  2
GNAME
 70
     0
  0
ATTRIB
  5
9F
330
9C
100
AcDbEntity
  8
ASHADE
  6
Continuous
 62
     7
 60
     1
100
AcDbText
 10
173.7722016825294
 20
-3.382401911697229
 30
0.0
 40
0.01
  1

100
AcDbAttribute
  2
LAX
 70
     0
  0
ATTRIB
  5
A0
330
9C
100
AcDbEntity
  8
ASHADE
  6
Continuous
 62
     7
 60
     1
100
AcDbText
 10
173.7722016825294
 20
-3.382401911697229
 30
0.0
 40
0.01
  1

100
AcDbAttribute
  2
LAY
 70
     0
  0
ATTRIB
  5
A1
330
9C
100
AcDbEntity
  8
ASHADE
  6
Continuous
 62
     7
 60
     1
100
AcDbText
 10
173.7722016825294
 20
-3.382401911697229
 30
0.0
 40
0.01
  1

100
AcDbAttribute
  2
LAZ
 70
     0
  0
ATTRIB
  5
A2
330
9C
100
AcDbEntity
  8
ASHADE
  6
Continuous
 62
     7
 60
     1
100
AcDbText
 10
173.7722016825294
 20
-3.382401911697229
 30
0.0
 40
0.01
  1
1
100
AcDbAttribute
  2
INTENSITY
 70
     0
  0
ATTRIB
  5
A3
330
9C
100
AcDbEntity
  8
ASHADE
  6
Continuous
 62
     7
 60
     1
100
AcDbText
 10
173.7722016825294
 20
-3.382401911697229
 30
0.0
 40
0.01
  1
1,1,1
100
AcDbAttribute
  2
COLOR
 70
     0
  0
ATTRIB
  5
A4
330
9C
100
AcDbEntity
  8
ASHADE
  6
Continuous
 62
     7
 60
     1
100
AcDbText
 10
173.7722016825294
 20
-3.382401911697229
 30
0.0
 40
0.01
  1
0
100
AcDbAttribute
  2
CONEA
 70
     0
  0
ATTRIB
  5
A5
330
9C
100
AcDbEntity
  8
ASHADE
  6
Continuous
 62
     7
 60
     1
100
AcDbText
 10
173.7722016825294
 20
-3.382401911697229
 30
0.0
 40
0.01
  1
-1
100
AcDbAttribute
  2
CONED
 70
     0
  0
ATTRIB
  5
A6
330
9C
100
AcDbEntity
  8
ASHADE
  6
Continuous
 62
     7
 60
     1
100
AcDbText
 10
173.7722016825294
 20
-3.382401911697229
 30
0.0
 40
0.01
  1
-1
100
AcDbAttribute
  2
BEAMD
 70
     0
  0
SEQEND
  5
A7
330
9C
100
AcDbEntity
  8
0
 60
     1
  0
INSERT
  5
A8
330
1F
100
AcDbEntity
  8
0
 60
     1
100
AcDbBlockReference
 66
     1
  2
OVERHEAD
 10
0.0
 20
0.0
 30
0.0
1001
AVE_RENDER
1002
{
1070
     0
1000
LIGHT_4
1011
1.0
1021
0.0
1031
0.0
1041
1.0
1010
0.5019607843137255
1020
0.5019607843137255
1030
0.5019607843137255
1002
{
1070
     1
1070
     0
1040
0.0
1040
0.0
1040
3.0
1002
}
1002
{
1070
     9
1070
    21
1070
    15
1070
     0
1040
37.62
1040
122.37
1002
}
1002
}
1001
TCAD
1000
TCW_LIGTH
1002
{
1070
     1
1002
}
  0
ATTRIB
  5
A9
330
A8
100
AcDbEntity
  8
ASHADE
  6
Continuous
 62
     1
420
 16711680
100
AcDbText
 10
-0.5714285714285715
 20
-0.1
 30
0.0
 40
0.2
  1
LIGHT_4
  7
ASHADE
 72
     1
 11
0.0
 21
-0.1
 31
0.0
100
AcDbAttribute
  2
SNAME
 70
     0
  0
ATTRIB
  5
AA
330
A8
100
AcDbEntity
  8
ASHADE
  6
Continuous
 62
     7
 60
     1
100
AcDbText
 10
0.0
 20
0.0
 30
0.0
 40
0.01
  1

100
AcDbAttribute
  2
GNAME
 70
     0
  0
ATTRIB
  5
AB
330
A8
100
AcDbEntity
  8
ASHADE
  6
Continuous
 62
     7
 60
     1
100
AcDbText
 10
0.0
 20
0.0
 30
0.0
 40
0.01
  1

100
AcDbAttribute
  2
LAX
 70
     0
  0
ATTRIB
  5
AC
330
A8
100
AcDbEntity
  8
ASHADE
  6
Continuous
 62
     7
 60
     1
100
AcDbText
 10
0.0
 20
0.0
 30
0.0
 40
0.01
  1

100
AcDbAttribute
  2
LAY
 70
     0
  0
ATTRIB
  5
AD
330
A8
100
AcDbEntity
  8
ASHADE
  6
Continuous
 62
     7
 60
     1
100
AcDbText
 10
0.0
 20
0.0
 30
0.0
 40
0.01
  1

100
AcDbAttribute
  2
LAZ
 70
     0
  0
ATTRIB
  5
AE
330
A8
100
AcDbEntity
  8
ASHADE
  6
Continuous
 62
     7
 60
     1
100
AcDbText
 10
0.0
 20
0.0
 30
0.0
 40
0.01
  1
1
100
AcDbAttribute
  2
INTENSITY
 70
     0
  0
ATTRIB
  5
AF
330
A8
100
AcDbEntity
  8
ASHADE
  6
Continuous
 62
     7
 60
     1
100
AcDbText
 10
0.0
 20
0.0
 30
0.0
 40
0.01
  1
1,1,1
100
AcDbAttribute
  2
COLOR
 70
     0
  0
ATTRIB
  5
B0
330
A8
100
AcDbEntity
  8
ASHADE
  6
Continuous
 62
     7
 60
     1
100
AcDbText
 10
0.0
 20
0.0
 30
0.0
 40
0.01
  1
0
100
AcDbAttribute
  2
CONEA
 70
     0
  0
ATTRIB
  5
B1
330
A8
100
AcDbEntity
  8
ASHADE
  6
Continuous
 62
     7
 60
     1
100
AcDbText
 10
0.0
 20
0.0
 30
0.0
 40
0.01
  1
-1
100
AcDbAttribute
  2
CONED
 70
     0
  0
ATTRIB
  5
B2
330
A8
100
AcDbEntity
  8
ASHADE
  6
Continuous
 62
     7
 60
     1
100
AcDbText
 10
0.0
 20
0.0
 30
0.0
 40
0.01
  1
-1
100
AcDbAttribute
  2
BEAMD
 70
     0
  0
SEQEND
  5
B3
330
A8
100
AcDbEntity
  8
0
 60
     1
  0
INSERT
  5
B4
330
1F
100
AcDbEntity
  8
0
 60
     1
100
AcDbBlockReference
 66
     1
  2
OVERHEAD
 10
0.0
 20
0.0
 30
0.0
1001
AVE_RENDER
1002
{
1070
     0
1000
LIGHT_5
1011
1.0
1021
0.0
1031
0.0
1041
1.0
1010
0.2509803921568627
1020
0.2509803921568627
1030
0.2509803921568627
1002
{
1070
     1
1070
     0
1040
0.0
1040
0.0
1040
3.0
1002
}
1002
{
1070
     9
1070
    21
1070
    15
1070
     0
1040
37.62
1040
122.37
1002
}
1002
}
1001
TCAD
1000
TCW_LIGTH
1002
{
1070
     1
1002
}
  0
ATTRIB
  5
B5
330
B4
100
AcDbEntity
  8
ASHADE
  6
Continuous
 62
     1
420
 16711680
100
AcDbText
 10
-0.5714285714285715
 20
-0.1
 30
0.0
 40
0.2
  1
LIGHT_5
  7
ASHADE
 72
     1
 11
0.0
 21
-0.1
 31
0.0
100
AcDbAttribute
  2
SNAME
 70
     0
  0
ATTRIB
  5
B6
330
B4
100
AcDbEntity
  8
ASHADE
  6
Continuous
 62
     7
 60
     1
100
AcDbText
 10
0.0
 20
0.0
 30
0.0
 40
0.01
  1

100
AcDbAttribute
  2
GNAME
 70
     0
  0
ATTRIB
  5
B7
330
B4
100
AcDbEntity
  8
ASHADE
  6
Continuous
 62
     7
 60
     1
100
AcDbText
 10
0.0
 20
0.0
 30
0.0
 40
0.01
  1

100
AcDbAttribute
  2
LAX
 70
     0
  0
ATTRIB
  5
B8
330
B4
100
AcDbEntity
  8
ASHADE
  6
Continuous
 62
     7
 60
     1
100
AcDbText
 10
0.0
 20
0.0
 30
0.0
 40
0.01
  1

100
AcDbAttribute
  2
LAY
 70
     0
  0
ATTRIB
  5
B9
330
B4
100
AcDbEntity
  8
ASHADE
  6
Continuous
 62
     7
 60
     1
100
AcDbText
 10
0.0
 20
0.0
 30
0.0
 40
0.01
  1

100
AcDbAttribute
  2
LAZ
 70
     0
  0
ATTRIB
  5
BA
330
B4
100
AcDbEntity
  8
ASHADE
  6
Continuous
 62
     7
 60
     1
100
AcDbText
 10
0.0
 20
0.0
 30
0.0
 40
0.01
  1
1
100
AcDbAttribute
  2
INTENSITY
 70
     0
  0
ATTRIB
  5
BB
330
B4
100
AcDbEntity
  8
ASHADE
  6
Continuous
 62
     7
 60
     1
100
AcDbText
 10
0.0
 20
0.0
 30
0.0
 40
0.01
  1
1,1,1
100
AcDbAttribute
  2
COLOR
 70
     0
  0
ATTRIB
  5
BC
330
B4
100
AcDbEntity
  8
ASHADE
  6
Continuous
 62
     7
 60
     1
100
AcDbText
 10
0.0
 20
0.0
 30
0.0
 40
0.01
  1
0
100
AcDbAttribute
  2
CONEA
 70
     0
  0
ATTRIB
  5
BD
330
B4
100
AcDbEntity
  8
ASHADE
  6
Continuous
 62
     7
 60
     1
100
AcDbText
 10
0.0
 20
0.0
 30
0.0
 40
0.01
  1
-1
100
AcDbAttribute
  2
CONED
 70
     0
  0
ATTRIB
  5
BE
330
B4
100
AcDbEntity
  8
ASHADE
  6
Continuous
 62
     7
 60
     1
100
AcDbText
 10
0.0
 20
0.0
 30
0.0
 40
0.01
  1
-1
100
AcDbAttribute
  2
BEAMD
 70
     0
  0
SEQEND
  5
BF
330
B4
100
AcDbEntity
  8
0
 60
     1
  0
INSERT
  5
D4
330
1F
100
AcDbEntity
  8
0
 60
     1
100
AcDbBlockReference
 66
     1
  2
DIRECT
 10
368.8062712708546
 20
914.2077099377161
 30
659.7339691407215
 41
0.9999999999999998
 42
0.9999999999999998
210
-0.3009239042821732
220
-0.2148675255087674
230
0.9291268752507984
1001
AVE_RENDER
1002
{
1070
     0
1000
LIGHT_6
1011
891.5501056819234
1021
183.4183406607615
1031
1041.228467893874
1041
1.0
1010
0.5019607843137255
1020
0.5019607843137255
1030
0.5019607843137255
1002
{
1070
     1
1070
     0
1040
0.0
1040
0.0
1040
3.0
1002
}
1002
{
1070
     9
1070
    21
1070
    15
1070
     0
1040
37.62
1040
122.37
1002
}
1002
}
1001
TCAD
1000
TCW_LIGTH
1002
{
1070
     0
1002
}
  0
ATTRIB
  5
D5
330
D4
100
AcDbEntity
  8
ASHADE
  6
Continuous
 62
     1
420
 16711680
100
AcDbText
 10
368.2348426994259
 20
914.1077099377165
 30
659.7339691407216
 40
0.2
  1
LIGHT_6
  7
ASHADE
 72
     1
 11
368.8062712708545
 21
914.1077099377165
 31
659.7339691407216
210
-0.3009239042821732
220
-0.2148675255087674
230
0.9291268752507985
100
AcDbAttribute
  2
SNAME
 70
     0
  0
ATTRIB
  5
D6
330
D4
100
AcDbEntity
  8
ASHADE
  6
Continuous
 62
     7
 60
     1
100
AcDbText
 10
368.8062712708544
 20
914.2077099377163
 30
0.0
 40
0.01
  1

210
-0.3009239042821732
220
-0.2148675255087674
230
0.9291268752507985
100
AcDbAttribute
  2
GNAME
 70
     0
  0
ATTRIB
  5
D7
330
D4
100
AcDbEntity
  8
ASHADE
  6
Continuous
 62
     7
 60
     1
100
AcDbText
 10
368.8062712708544
 20
914.2077099377163
 30
0.0
 40
0.01
  1

210
-0.3009239042821732
220
-0.2148675255087674
230
0.9291268752507985
100
AcDbAttribute
  2
LAX
 70
     0
  0
ATTRIB
  5
D8
330
D4
100
AcDbEntity
  8
ASHADE
  6
Continuous
 62
     7
 60
     1
100
AcDbText
 10
368.8062712708544
 20
914.2077099377163
 30
0.0
 40
0.01
  1

210
-0.3009239042821732
220
-0.2148675255087674
230
0.9291268752507985
100
AcDbAttribute
  2
LAY
 70
     0
  0
ATTRIB
  5
D9
330
D4
100
AcDbEntity
  8
ASHADE
  6
Continuous
 62
     7
 60
     1
100
AcDbText
 10
368.8062712708544
 20
914.2077099377163
 30
0.0
 40
0.01
  1

210
-0.3009239042821732
220
-0.2148675255087674
230
0.9291268752507985
100
AcDbAttribute
  2
LAZ
 70
     0
  0
ATTRIB
  5
DA
330
D4
100
AcDbEntity
  8
ASHADE
  6
Continuous
 62
     7
 60
     1
100
AcDbText
 10
368.8062712708544
 20
914.2077099377163
 30
0.0
 40
0.01
  1
1
210
-0.3009239042821732
220
-0.2148675255087674
230
0.9291268752507985
100
AcDbAttribute
  2
INTENSITY
 70
     0
  0
ATTRIB
  5
DB
330
D4
100
AcDbEntity
  8
ASHADE
  6
Continuous
 62
     7
 60
     1
100
AcDbText
 10
368.8062712708544
 20
914.2077099377163
 30
0.0
 40
0.01
  1
1,1,1
210
-0.3009239042821732
220
-0.2148675255087674
230
0.9291268752507985
100
AcDbAttribute
  2
COLOR
 70
     0
  0
ATTRIB
  5
DC
330
D4
100
AcDbEntity
  8
ASHADE
  6
Continuous
 62
     7
 60
     1
100
AcDbText
 10
368.8062712708544
 20
914.2077099377163
 30
0.0
 40
0.01
  1
0
210
-0.3009239042821732
220
-0.2148675255087674
230
0.9291268752507985
100
AcDbAttribute
  2
CONEA
 70
     0
  0
ATTRIB
  5
DD
330
D4
100
AcDbEntity
  8
ASHADE
  6
Continuous
 62
     7
 60
     1
100
AcDbText
 10
368.8062712708544
 20
914.2077099377163
 30
0.0
 40
0.01
  1
-1
210
-0.3009239042821732
220
-0.2148675255087674
230
0.9291268752507985
100
AcDbAttribute
  2
CONED
 70
     0
  0
ATTRIB
  5
DE
330
D4
100
AcDbEntity
  8
ASHADE
  6
Continuous
 62
     7
 60
     1
100
AcDbText
 10
368.8062712708544
 20
914.2077099377163
 30
0.0
 40
0.01
  1
-1
210
-0.3009239042821732
220
-0.2148675255087674
230
0.9291268752507985
100
AcDbAttribute
  2
BEAMD
 70
     0
  0
SEQEND
  5
DF
330
D4
100
AcDbEntity
  8
0
 60
     1
  0
INSERT
  5
108
330
1F
100
AcDbEntity
  8
0
 60
     1
100
AcDbBlockReference
 66
     1
  2
SH_SPOT
 10
64.93939127355011
 20
229.7637626846896
 30
50.16617519274369
 42
1.0
 50
0.0000000000000127
210
-0.1090219380841564
220
-0.1404222275660849
230
0.9840710416538803
1001
AVE_RENDER
1002
{
1070
     0
1000
LIGHT_7
1011
370.451023378601
1021
371.2547724909829
1031
144.9955133672632
1041
1.0
1010
0.5019607843137255
1020
0.5019607843137255
1030
0.5019607843137255
1002
{
1070
     1
1070
     0
1040
0.0
1040
0.0
1040
3.0
1002
}
1002
{
1070
     9
1070
    21
1070
    15
1070
     0
1040
37.62
1040
122.37
1002
}
1002
}
1001
TCAD
1000
TCW_LIGTH
1002
{
1070
     0
1002
}
  0
ATTRIB
  5
109
330
108
100
AcDbEntity
  8
ASHADE
  6
Continuous
 62
     1
420
 16711680
100
AcDbText
 10
-90.11942751734854
 20
226.6266108709981
 30
10.03736483567375
 40
0.2
  1
LIGHT_7
 50
0.0000000000000127
  7
ASHADE
 72
     1
 11
-89.54799894591997
 21
226.6266108709981
 31
10.03736483567375
210
-0.1090219380841564
220
-0.1404222275660849
230
0.9840710416538803
100
AcDbAttribute
  2
SNAME
 70
     0
  0
ATTRIB
  5
10A
330
108
100
AcDbEntity
  8
ASHADE
  6
Continuous
 62
     7
 60
     1
100
AcDbText
 10
-89.60932451693412
 20
226.7043411117018
 30
0.0
 40
0.01
  1

 50
0.0000000000000127
210
-0.1090219380841564
220
-0.1404222275660849
230
0.9840710416538803
100
AcDbAttribute
  2
GNAME
 70
     0
  0
ATTRIB
  5
10B
330
108
100
AcDbEntity
  8
ASHADE
  6
Continuous
 62
     7
 60
     1
100
AcDbText
 10
-89.60932451693412
 20
226.7043411117018
 30
0.0
 40
0.01
  1

 50
0.0000000000000127
210
-0.1090219380841564
220
-0.1404222275660849
230
0.9840710416538803
100
AcDbAttribute
  2
LAX
 70
     0
  0
ATTRIB
  5
10C
330
108
100
AcDbEntity
  8
ASHADE
  6
Continuous
 62
     7
 60
     1
100
AcDbText
 10
-89.60932451693412
 20
226.7043411117018
 30
0.0
 40
0.01
  1

 50
0.0000000000000127
210
-0.1090219380841564
220
-0.1404222275660849
230
0.9840710416538803
100
AcDbAttribute
  2
LAY
 70
     0
  0
ATTRIB
  5
10D
330
108
100
AcDbEntity
  8
ASHADE
  6
Continuous
 62
     7
 60
     1
100
AcDbText
 10
-89.60932451693412
 20
226.7043411117018
 30
0.0
 40
0.01
  1

 50
0.0000000000000127
210
-0.1090219380841564
220
-0.1404222275660849
230
0.9840710416538803
100
AcDbAttribute
  2
LAZ
 70
     0
  0
ATTRIB
  5
10E
330
108
100
AcDbEntity
  8
ASHADE
  6
Continuous
 62
     7
 60
     1
100
AcDbText
 10
-89.60932451693412
 20
226.7043411117018
 30
0.0
 40
0.01
  1
1
 50
0.0000000000000127
210
-0.1090219380841564
220
-0.1404222275660849
230
0.9840710416538803
100
AcDbAttribute
  2
INTENSITY
 70
     0
  0
ATTRIB
  5
10F
330
108
100
AcDbEntity
  8
ASHADE
  6
Continuous
 62
     7
 60
     1
100
AcDbText
 10
-89.60932451693412
 20
226.7043411117018
 30
0.0
 40
0.01
  1
1,1,1
 50
0.0000000000000127
210
-0.1090219380841564
220
-0.1404222275660849
230
0.9840710416538803
100
AcDbAttribute
  2
COLOR
 70
     0
  0
ATTRIB
  5
110
330
108
100
AcDbEntity
  8
ASHADE
  6
Continuous
 62
     7
 60
     1
100
AcDbText
 10
-89.60932451693412
 20
226.7043411117018
 30
0.0
 40
0.01
  1
0
 50
0.0000000000000127
210
-0.1090219380841564
220
-0.1404222275660849
230
0.9840710416538803
100
AcDbAttribute
  2
ZSIZE
 70
     0
  0
ATTRIB
  5
111
330
108
100
AcDbEntity
  8
ASHADE
  6
Continuous
 62
     7
 60
     1
100
AcDbText
 10
-89.60932451693412
 20
226.7043411117018
 30
0.0
 40
0.01
  1
-1
 50
0.0000000000000127
210
-0.1090219380841564
220
-0.1404222275660849
230
0.9840710416538803
100
AcDbAttribute
  2
BIASMIN
 70
     0
  0
ATTRIB
  5
112
330
108
100
AcDbEntity
  8
ASHADE
  6
Continuous
 62
     7
 60
     1
100
AcDbText
 10
-89.60932451693412
 20
226.7043411117018
 30
0.0
 40
0.01
  1
-1
 50
0.0000000000000127
210
-0.1090219380841564
220
-0.1404222275660849
230
0.9840710416538803
100
AcDbAttribute
  2
BIASMAX
 70
     0
  0
ATTRIB
  5
113
330
108
100
AcDbEntity
  8
ASHADE
  6
Continuous
 62
     7
 60
     1
100
AcDbText
 10
-89.60932451693412
 20
226.7043411117018
 30
0.0
 40
0.01
  1
10.0
 50
0.0000000000000127
210
-0.1090219380841564
220
-0.1404222275660849
230
0.9840710416538803
100
AcDbAttribute
  2
CONEAN
 70
     0
  0
ATTRIB
  5
114
330
108
100
AcDbEntity
  8
ASHADE
  6
Continuous
 62
     7
 60
     1
100
AcDbText
 10
-89.60932451693412
 20
226.7043411117018
 30
0.0
 40
0.01
  1
0.0
 50
0.0000000000000127
210
-0.1090219380841564
220
-0.1404222275660849
230
0.9840710416538803
100
AcDbAttribute
  2
CONEDE
 70
     0
  0
ATTRIB
  5
115
330
108
100
AcDbEntity
  8
ASHADE
  6
Continuous
 62
     7
 60
     1
100
AcDbText
 10
-89.60932451693412
 20
226.7043411117018
 30
0.0
 40
0.01
  1
0.0
 50
0.0000000000000127
210
-0.1090219380841564
220
-0.1404222275660849
230
0.9840710416538803
100
AcDbAttribute
  2
BEAMDI
 70
     0
  0
ATTRIB
  5
116
330
108
100
AcDbEntity
  8
ASHADE
  6
Continuous
 62
     7
 60
     1
100
AcDbText
 10
-89.60932451693412
 20
226.7043411117018
 30
0.0
 40
0.01
  1
0,0,0
 50
0.0000000000000127
210
-0.1090219380841564
220
-0.1404222275660849
230
0.9840710416538803
100
AcDbAttribute
  2
LFXYZ
 70
     0
  0
SEQEND
  5
117
330
108
100
AcDbEntity
  8
0
 60
     1
  0
LINE
  5
11A
102
{ACAD_XDICTIONARY
360
118
102
}
330
1F
100
AcDbEntity
  8
Main lines
100
AcDbLine
 10
42.05427633432265
 20
6.237179661060082
 30
188.1360814035004
 11
42.05427633432265
 21
30.23693966106006
 31
188.1360814034998
  0
LINE
  5
11D
102
{ACAD_XDICTIONARY
360
11B
102
}
330
1F
100
AcDbEntity
  8
Main lines
100
AcDbLine
 10
40.04839033432273
 20
18.23717966106014
 30
188.1360814035001
 11
35.49956033432267
 21
30.23717966106014
 31
188.1360814034998
  0
LINE
  5
120
102
{ACAD_XDICTIONARY
360
11E
102
}
330
1F
100
AcDbEntity
  8
Main lines
100
AcDbLine
 10
39.08447833432268
 20
19.43340566105994
 30
188.1360814035001
 11
40.04839233432273
 21
18.23717966106014
 31
188.1360814035001
  0
LINE
  5
123
102
{ACAD_XDICTIONARY
360
121
102
}
330
1F
100
AcDbEntity
  8
Main lines
100
AcDbLine
 10
30.90155233432262
 20
6.237179661060082
 30
188.1360814035004
 11
20.97798033432275
 21
43.27245566105998
 31
188.1360814034994
  0
LINE
  5
126
102
{ACAD_XDICTIONARY
360
124
102
}
330
1F
100
AcDbEntity
  8
Main lines
100
AcDbLine
 10
5.054276334322708
 20
21.30941566106011
 30
188.1360814035
 11
5.054276334322708
 21
12.76177766106011
 31
188.1360814035003
  0
LINE
  5
129
102
{ACAD_XDICTIONARY
360
127
102
}
330
1F
100
AcDbEntity
  8
Main lines
100
AcDbLine
 10
-20.22145566567735
 20
27.23717966106014
 30
188.1360814034998
 11
-16.94572366567729
 21
18.23717966106014
 31
188.1360814035001
  0
LINE
  5
12C
102
{ACAD_XDICTIONARY
360
12A
102
}
330
1F
100
AcDbEntity
  8
Main lines
100
AcDbLine
 10
-24.94572366567729
 20
6.237179661060082
 30
188.1360814035004
 11
-24.94572366567729
 21
30.23717966106014
 31
188.1360814034998
  0
LINE
  5
12F
102
{ACAD_XDICTIONARY
360
12D
102
}
330
1F
100
AcDbEntity
  8
Main lines
100
AcDbLine
 10
-28.94572366567729
 20
6.237179661060082
 30
188.1360814035004
 11
-28.94572366567729
 21
30.23717966106014
 31
188.1360814034998
  0
LINE
  5
132
102
{ACAD_XDICTIONARY
360
130
102
}
330
1F
100
AcDbEntity
  8
Main lines
100
AcDbLine
 10
-32.94572366567729
 20
2.237179661060082
 30
188.1360814035006
 11
-32.94572366567729
 21
34.23717966106014
 31
188.1360814034996
  0
LINE
  5
135
102
{ACAD_XDICTIONARY
360
133
102
}
330
1F
100
AcDbEntity
  8
Main lines
100
AcDbLine
 10
30.90155233432262
 20
6.237179661060082
 30
188.1360814035004
 11
42.05427633432265
 21
6.237179661060082
 31
188.1360814035004
  0
LINE
  5
138
102
{ACAD_XDICTIONARY
360
136
102
}
330
1F
100
AcDbEntity
  8
Main lines
100
AcDbLine
 10
-7.841043665677375
 20
6.237179661060082
 30
188.1360814035004
 11
-24.94572366567729
 21
6.237179661060082
 31
188.1360814035004
  0
LINE
  5
13B
102
{ACAD_XDICTIONARY
360
139
102
}
330
1F
100
AcDbEntity
  8
Main lines
100
AcDbLine
 10
2.089552334322775
 20
8.898075661060119
 30
188.1360814035004
 11
-22.7692476656772
 21
2.237179661060082
 31
188.1360814035006
  0
ARC
  5
13E
102
{ACAD_XDICTIONARY
360
13C
102
}
330
1F
100
AcDbEntity
  8
Main lines
100
AcDbCircle
 10
1.054276334322708
 20
12.76177766106011
 30
188.1360814035003
 40
3.999999999999933
100
AcDbArc
 50
-75.00000000000155
 51
0.0
  0
LINE
  5
141
102
{ACAD_XDICTIONARY
360
13F
102
}
330
1F
100
AcDbEntity
  8
Main lines
100
AcDbLine
 10
-22.7692476656772
 20
2.237179661060082
 30
188.1360814035006
 11
-32.94572366567729
 21
2.237179661060082
 31
188.1360814035006
  0
LINE
  5
144
102
{ACAD_XDICTIONARY
360
142
102
}
330
1F
100
AcDbEntity
  8
Main lines
100
AcDbLine
 10
-24.94572366567729
 20
6.237179661060082
 30
188.1360814035004
 11
-28.94572366567729
 21
6.237179661060082
 31
188.1360814035004
  0
LINE
  5
147
102
{ACAD_XDICTIONARY
360
145
102
}
330
1F
100
AcDbEntity
  8
Main lines
100
AcDbLine
 10
-16.94572366567729
 20
18.23717966106014
 30
188.1360814035001
 11
-20.22145566567735
 21
9.237179661060082
 31
188.1360814035004
  0
LINE
  5
14A
102
{ACAD_XDICTIONARY
360
148
102
}
330
1F
100
AcDbEntity
  8
Main lines
100
AcDbLine
 10
-20.22145566567735
 20
9.237179661060082
 30
188.1360814035004
 11
-24.94572366567729
 21
9.237179661060082
 31
188.1360814035004
  0
LINE
  5
14D
102
{ACAD_XDICTIONARY
360
14B
102
}
330
1F
100
AcDbEntity
  8
Main lines
100
AcDbLine
 10
-28.94572366567729
 20
6.237179661060082
 30
188.1360814035004
 11
-32.94572366567729
 21
6.237179661060082
 31
188.1360814035004
  0
LINE
  5
150
102
{ACAD_XDICTIONARY
360
14E
102
}
330
1F
100
AcDbEntity
  8
Main lines
100
AcDbLine
 10
-32.94572366567729
 20
9.237179661060082
 30
188.1360814035004
 11
-28.94572366567729
 21
9.237179661060082
 31
188.1360814035004
  0
LINE
  5
153
102
{ACAD_XDICTIONARY
360
151
102
}
330
1F
100
AcDbEntity
  8
Main lines
100
AcDbLine
 10
17.11427633432265
 20
46.23717966106014
 30
188.1360814034993
 11
-4.203483665677254
 21
46.23717966106014
 31
188.1360814034993
  0
LINE
  5
156
102
{ACAD_XDICTIONARY
360
154
102
}
330
1F
100
AcDbEntity
  8
Main lines
100
AcDbLine
 10
14.89427633432263
 20
80.23717966106014
 30
188.1360814034983
 11
-3.745723665677247
 21
80.23717966106014
 31
188.1360814034983
  0
LINE
  5
159
102
{ACAD_XDICTIONARY
360
157
102
}
330
1F
100
AcDbEntity
  8
Main lines
100
AcDbLine
 10
18.69850233432282
 20
77.47324766106007
 30
188.1360814034984
 11
33.59740233432268
 21
31.61914566106006
 31
188.1360814034997
  0
LINE
  5
15C
102
{ACAD_XDICTIONARY
360
15A
102
}
330
1F
100
AcDbEntity
  8
Main lines
100
AcDbLine
 10
38.13455033432257
 20
20.66827366106017
 30
188.1360814035
 11
39.08447833432268
 21
19.43340566105994
 31
188.1360814035001
  0
LINE
  5
15F
102
{ACAD_XDICTIONARY
360
15D
102
}
330
1F
100
AcDbEntity
  8
Main lines
100
AcDbLine
 10
35.49951633432266
 20
30.23717966106014
 30
188.1360814034998
 11
42.05427633432265
 21
30.23717966106014
 31
188.1360814034998
  0
LINE
  5
162
102
{ACAD_XDICTIONARY
360
160
102
}
330
1F
100
AcDbEntity
  8
Main lines
100
AcDbLine
 10
34.04643033432268
 20
30.23717966106014
 30
188.1360814034998
 11
35.80325033432263
 21
24.83024766106004
 31
188.1360814034999
  0
LINE
  5
165
102
{ACAD_XDICTIONARY
360
163
102
}
330
1F
100
AcDbEntity
  8
Main lines
100
AcDbLine
 10
35.80324633432275
 20
24.83025966106001
 30
188.1360814034999
 11
36.4334443343227
 21
23.33888766106006
 31
188.1360814035
  0
LINE
  5
168
102
{ACAD_XDICTIONARY
360
166
102
}
330
1F
100
AcDbEntity
  8
Main lines
100
AcDbLine
 10
36.4334443343227
 20
23.33888766106006
 30
188.1360814035
 11
37.23462833432274
 21
21.96236966106002
 31
188.1360814035
  0
LINE
  5
16B
102
{ACAD_XDICTIONARY
360
169
102
}
330
1F
100
AcDbEntity
  8
Main lines
100
AcDbLine
 10
37.23462833432274
 20
21.96236966106002
 30
188.1360814035
 11
38.13455033432257
 21
20.66827366106017
 31
188.1360814035
  0
ARC
  5
16E
102
{ACAD_XDICTIONARY
360
16C
102
}
330
1F
100
AcDbEntity
  8
Main lines
100
AcDbCircle
 10
17.11427633432265
 20
42.23717966106014
 30
188.1360814034994
 40
3.999999999999873
100
AcDbArc
 50
14.99999999999865
 51
90.0
  0
ARC
  5
171
102
{ACAD_XDICTIONARY
360
16F
102
}
330
1F
100
AcDbEntity
  8
Main lines
100
AcDbCircle
 10
14.89427633432263
 20
76.23717966106014
 30
188.1360814034985
 40
3.999999999999904
100
AcDbArc
 50
17.99999999999978
 51
90.0
  0
LINE
  5
174
102
{ACAD_XDICTIONARY
360
172
102
}
330
1F
100
AcDbEntity
  8
Main lines
100
AcDbLine
 10
-19.11939766567718
 20
37.13462966106007
 30
188.1360814034996
 11
-7.590769665677385
 21
77.33972966105998
 31
188.1360814034984
  0
LINE
  5
177
102
{ACAD_XDICTIONARY
360
175
102
}
330
1F
100
AcDbEntity
  8
Main lines
100
AcDbLine
 10
-11.77933766567742
 20
30.23717966106014
 30
188.1360814034998
 11
-24.94572366567729
 21
30.23717966106014
 31
188.1360814034998
  0
LINE
  5
17A
102
{ACAD_XDICTIONARY
360
178
102
}
330
1F
100
AcDbEntity
  8
Main lines
100
AcDbLine
 10
-22.7692476656772
 20
34.23717966106014
 30
188.1360814034996
 11
2.422356334322672
 21
25.06818566106003
 31
188.1360814034999
  0
LINE
  5
17D
102
{ACAD_XDICTIONARY
360
17B
102
}
330
1F
100
AcDbEntity
  8
Main lines
100
AcDbLine
 10
-7.974049665677398
 20
43.57240766106005
 30
188.1360814034994
 11
-12.59160766567732
 21
30.53282166105996
 31
188.1360814034998
  0
ARC
  5
180
102
{ACAD_XDICTIONARY
360
17E
102
}
330
1F
100
AcDbEntity
  8
Main lines
100
AcDbCircle
 10
1.054276334322708
 20
21.30941566106011
 30
188.1360814035
 40
4.0
100
AcDbArc
 50
0.0
 51
69.99999999999935
  0
ARC
  5
183
102
{ACAD_XDICTIONARY
360
181
102
}
330
1F
100
AcDbEntity
  8
Main lines
100
AcDbCircle
 10
-4.203483665677254
 20
42.23717966106014
 30
188.1360814034994
 40
4.0
100
AcDbArc
 50
90.0
 51
160.5000000000028
  0
LINE
  5
186
102
{ACAD_XDICTIONARY
360
184
102
}
330
1F
100
AcDbEntity
  8
Main lines
100
AcDbLine
 10
-24.94572366567729
 20
30.23717966106014
 30
188.1360814034998
 11
-28.94572366567729
 21
30.23717966106014
 31
188.1360814034998
  0
LINE
  5
189
102
{ACAD_XDICTIONARY
360
187
102
}
330
1F
100
AcDbEntity
  8
Main lines
100
AcDbLine
 10
-22.7692476656772
 20
34.23717966106014
 30
188.1360814034996
 11
-32.94572366567729
 21
34.23717966106014
 31
188.1360814034996
  0
LINE
  5
18C
102
{ACAD_XDICTIONARY
360
18A
102
}
330
1F
100
AcDbEntity
  8
Main lines
100
AcDbLine
 10
-24.94572366567729
 20
27.23717966106014
 30
188.1360814034998
 11
-20.22145566567735
 21
27.23717966106014
 31
188.1360814034998
  0
ARC
  5
18F
102
{ACAD_XDICTIONARY
360
18D
102
}
330
1F
100
AcDbEntity
  8
Main lines
100
AcDbCircle
 10
-22.96444366567732
 20
38.23717966106014
 30
188.1360814034995
 40
3.999999999999952
100
AcDbArc
 50
-87.22748300000082
 51
-16.00000000000125
  0
LINE
  5
192
102
{ACAD_XDICTIONARY
360
190
102
}
330
1F
100
AcDbEntity
  8
Main lines
100
AcDbLine
 10
-32.94572366567729
 20
27.23717966106014
 30
188.1360814034998
 11
-28.94572366567729
 21
27.23717966106014
 31
188.1360814034998
  0
LINE
  5
195
102
{ACAD_XDICTIONARY
360
193
102
}
330
1F
100
AcDbEntity
  8
Main lines
100
AcDbLine
 10
-28.94572366567729
 20
30.23717966106014
 30
188.1360814034998
 11
-32.94572366567729
 21
30.23717966106014
 31
188.1360814034998
  0
ARC
  5
198
102
{ACAD_XDICTIONARY
360
196
102
}
330
1F
100
AcDbEntity
  8
Main lines
100
AcDbCircle
 10
-3.745723665677247
 20
76.23717966106014
 30
188.1360814034985
 40
4.0
100
AcDbArc
 50
90.0
 51
164.0000000000019
  0
LINE
  5
19B
102
{ACAD_XDICTIONARY
360
199
102
}
330
1F
100
AcDbEntity
  8
Main lines
100
AcDbLine
 10
34.04643033432268
 20
30.23717966106014
 30
188.1360814034998
 11
35.80325033432263
 21
24.83024766106004
 31
188.1360814034999
  0
LINE
  5
19E
102
{ACAD_XDICTIONARY
360
19C
102
}
330
1F
100
AcDbEntity
  8
Main lines
100
AcDbLine
 10
40.04839033432273
 20
18.23717966106014
 30
188.1360814035001
 11
35.49956033432267
 21
30.23717966106014
 31
188.1360814034998
  0
ARC
  5
1A1
102
{ACAD_XDICTIONARY
360
19F
102
}
330
1F
100
AcDbEntity
  8
Main lines
100
AcDbCircle
 10
35.49951633432266
 20
32.23717966106014
 30
188.1360814034997
 40
2.000000000000095
100
AcDbArc
 50
-161.9999999999964
 51
-90.0
  0
LINE
  5
1A4
102
{ACAD_XDICTIONARY
360
1A2
102
}
330
1F
100
AcDbEntity
  8
Main lines
100
AcDbLine
 10
33.59740233432268
 20
31.61914566106006
 30
188.1360814034997
 11
34.04643033432268
 21
30.23717966106014
 31
188.1360814034998
  0
LINE
  5
1A7
102
{ACAD_XDICTIONARY
360
1A5
102
}
330
1F
100
AcDbEntity
  8
Main lines
100
AcDbLine
 10
-68.78618597218235
 20
2.237179661060026
 30
188.1360814035006
 11
-110.7861859721824
 21
2.237179661060026
 31
188.1360814035006
  0
LINE
  5
1AA
102
{ACAD_XDICTIONARY
360
1A8
102
}
330
1F
100
AcDbEntity
  8
Main lines
100
AcDbLine
 10
-108.7861859721824
 20
9.237179661060026
 30
188.1360814035004
 11
-92.78618597218235
 21
9.237179661060026
 31
188.1360814035004
  0
LINE
  5
1AD
102
{ACAD_XDICTIONARY
360
1AB
102
}
330
1F
100
AcDbEntity
  8
Main lines
100
AcDbLine
 10
-92.78618597218235
 20
27.23717966106003
 30
188.1360814034998
 11
-108.7861859721824
 21
27.23717966106003
 31
188.1360814034998
  0
LINE
  5
1B0
102
{ACAD_XDICTIONARY
360
1AE
102
}
330
1F
100
AcDbEntity
  8
Main lines
100
AcDbLine
 10
-92.78618597218235
 20
34.23717966106003
 30
188.1360814034996
 11
-110.7861859721824
 21
34.23717966106003
 31
188.1360814034996
  0
CIRCLE
  5
1B3
102
{ACAD_XDICTIONARY
360
1B1
102
}
330
1F
100
AcDbEntity
  8
Main lines
100
AcDbCircle
 10
-80.78618597218235
 20
18.23717966106003
 30
188.1360814035001
 40
5.392157999999938
  0
CIRCLE
  5
1B6
102
{ACAD_XDICTIONARY
360
1B4
102
}
330
1F
100
AcDbEntity
  8
Main lines
100
AcDbCircle
 10
-80.78618597218235
 20
18.23717966106003
 30
188.1360814035001
 40
12.0
  0
LINE
  5
1B9
102
{ACAD_XDICTIONARY
360
1B7
102
}
330
1F
100
AcDbEntity
  8
Main lines
100
AcDbLine
 10
-68.78618597218235
 20
2.237179661060026
 30
188.1360814035006
 11
-68.78618597218235
 21
76.23717966106003
 31
188.1360814034985
  0
LINE
  5
1BC
102
{ACAD_XDICTIONARY
360
1BA
102
}
330
1F
100
AcDbEntity
  8
Main lines
100
AcDbLine
 10
-92.78618597218235
 20
9.237179661060026
 30
188.1360814035004
 11
-92.78618597218235
 21
76.23717966106003
 31
188.1360814034985
  0
LINE
  5
1BF
102
{ACAD_XDICTIONARY
360
1BD
102
}
330
1F
100
AcDbEntity
  8
Main lines
100
AcDbLine
 10
-75.39402997218247
 20
67.84502366106003
 30
188.1360814034987
 11
-75.39402997218247
 21
52.62933566106003
 31
188.1360814034991
  0
LINE
  5
1C2
102
{ACAD_XDICTIONARY
360
1C0
102
}
330
1F
100
AcDbEntity
  8
Main lines
100
AcDbLine
 10
-86.17834397218246
 20
52.62933566106003
 30
188.1360814034991
 11
-86.17834397218246
 21
67.84502366106003
 31
188.1360814034987
  0
ARC
  5
1C5
102
{ACAD_XDICTIONARY
360
1C3
102
}
330
1F
100
AcDbEntity
  8
Main lines
100
AcDbCircle
 10
-80.78618597218235
 20
52.62933566106003
 30
188.1360814034991
 40
5.392158000000052
100
AcDbArc
 50
180.0
 51
270.0
  0
LINE
  5
1C8
102
{ACAD_XDICTIONARY
360
1C6
102
}
330
1F
100
AcDbEntity
  8
Main lines
100
AcDbLine
 10
-81.87411397218227
 20
31.57676366105997
 30
188.1360814034997
 11
-79.7001999721823
 21
31.57692166106003
 31
188.1360814034997
  0
LINE
  5
1CB
102
{ACAD_XDICTIONARY
360
1C9
102
}
330
1F
100
AcDbEntity
  8
Main lines
100
AcDbLine
 10
-71.69768797218251
 20
28.26805166106007
 30
188.1360814034998
 11
-70.11015597218227
 21
26.67576366106002
 31
188.1360814034999
  0
LINE
  5
1CE
102
{ACAD_XDICTIONARY
360
1CC
102
}
330
1F
100
AcDbEntity
  8
Main lines
100
AcDbLine
 10
-70.11015597218227
 20
26.67576366106002
 30
188.1360814034999
 11
-68.78618597218235
 21
24.83024766106004
 31
188.1360814034999
  0
LINE
  5
1D1
102
{ACAD_XDICTIONARY
360
1CF
102
}
330
1F
100
AcDbEntity
  8
Main lines
100
AcDbLine
 10
-75.46635797218244
 20
30.56901166105999
 30
188.1360814034998
 11
-73.49980797218234
 21
29.57358366106004
 31
188.1360814034998
  0
LINE
  5
1D4
102
{ACAD_XDICTIONARY
360
1D2
102
}
330
1F
100
AcDbEntity
  8
Main lines
100
AcDbLine
 10
-73.49980797218234
 20
29.57358366106004
 30
188.1360814034998
 11
-71.69768797218251
 21
28.26805166106007
 31
188.1360814034998
  0
LINE
  5
1D7
102
{ACAD_XDICTIONARY
360
1D5
102
}
330
1F
100
AcDbEntity
  8
Main lines
100
AcDbLine
 10
-77.54907397218233
 20
31.23973166106006
 30
188.1360814034997
 11
-75.46635797218244
 21
30.56901166105999
 31
188.1360814034998
  0
LINE
  5
1DA
102
{ACAD_XDICTIONARY
360
1D8
102
}
330
1F
100
AcDbEntity
  8
Main lines
100
AcDbLine
 10
-79.7001999721823
 20
31.57692166106003
 30
188.1360814034997
 11
-77.54907397218233
 21
31.23973166106006
 31
188.1360814034997
  0
ARC
  5
1DD
102
{ACAD_XDICTIONARY
360
1DB
102
}
330
1F
100
AcDbEntity
  8
Main lines
100
AcDbCircle
 10
-80.78618597218235
 20
52.62933566106003
 30
188.1360814034991
 40
5.392157999999938
100
AcDbArc
 50
-90.0
 51
0.0
  0
LINE
  5
1E0
102
{ACAD_XDICTIONARY
360
1DE
102
}
330
1F
100
AcDbEntity
  8
Main lines
100
AcDbLine
 10
-92.78618597218235
 20
24.83024766106004
 30
188.1360814034999
 11
-91.4624079721824
 21
26.67552566106005
 31
188.1360814034999
  0
LINE
  5
1E3
102
{ACAD_XDICTIONARY
360
1E1
102
}
330
1F
100
AcDbEntity
  8
Main lines
100
AcDbLine
 10
-88.0730419721823
 20
29.57325966105995
 30
188.1360814034998
 11
-86.10720597218244
 21
30.56849166106005
 31
188.1360814034998
  0
LINE
  5
1E6
102
{ACAD_XDICTIONARY
360
1E4
102
}
330
1F
100
AcDbEntity
  8
Main lines
100
AcDbLine
 10
-91.4624079721824
 20
26.67552566106005
 30
188.1360814034999
 11
-89.87477197218243
 21
28.26795166105998
 31
188.1360814034998
  0
LINE
  5
1E9
102
{ACAD_XDICTIONARY
360
1E7
102
}
330
1F
100
AcDbEntity
  8
Main lines
100
AcDbLine
 10
-89.87477197218243
 20
28.26795166105998
 30
188.1360814034998
 11
-88.0730419721823
 21
29.57325966105995
 31
188.1360814034998
  0
LINE
  5
1EC
102
{ACAD_XDICTIONARY
360
1EA
102
}
330
1F
100
AcDbEntity
  8
Main lines
100
AcDbLine
 10
-86.10720597218244
 20
30.56849166106005
 30
188.1360814034998
 11
-84.0252699721824
 21
31.23923966106005
 31
188.1360814034997
  0
LINE
  5
1EF
102
{ACAD_XDICTIONARY
360
1ED
102
}
330
1F
100
AcDbEntity
  8
Main lines
100
AcDbLine
 10
-84.0252699721824
 20
31.23923966106005
 30
188.1360814034997
 11
-81.87411397218227
 21
31.57676366105997
 31
188.1360814034997
  0
ARC
  5
1F2
102
{ACAD_XDICTIONARY
360
1F0
102
}
330
1F
100
AcDbEntity
  8
Main lines
100
AcDbCircle
 10
-80.78618597218235
 20
67.84502366106003
 30
188.1360814034987
 40
5.392158000000052
100
AcDbArc
 50
90.0
 51
180.0
  0
LINE
  5
1F5
102
{ACAD_XDICTIONARY
360
1F3
102
}
330
1F
100
AcDbEntity
  8
Main lines
100
AcDbLine
 10
-68.98195997218238
 20
77.47324766106007
 30
188.1360814034984
 11
-92.59041397218232
 21
77.47324766106007
 31
188.1360814034984
  0
LINE
  5
1F8
102
{ACAD_XDICTIONARY
360
1F6
102
}
330
1F
100
AcDbEntity
  8
Main lines
100
AcDbLine
 10
-72.78618597218235
 20
80.23717966106003
 30
188.1360814034983
 11
-88.78618597218235
 21
80.23717966106003
 31
188.1360814034983
  0
ARC
  5
1FB
102
{ACAD_XDICTIONARY
360
1F9
102
}
330
1F
100
AcDbEntity
  8
Main lines
100
AcDbCircle
 10
-72.78618597218235
 20
76.23717966106003
 30
188.1360814034985
 40
4.0
100
AcDbArc
 50
0.0
 51
90.0
  0
ARC
  5
1FE
102
{ACAD_XDICTIONARY
360
1FC
102
}
330
1F
100
AcDbEntity
  8
Main lines
100
AcDbCircle
 10
-80.78618597218235
 20
67.84502366106003
 30
188.1360814034987
 40
5.392157999999938
100
AcDbArc
 50
0.0
 51
90.0
  0
ARC
  5
201
102
{ACAD_XDICTIONARY
360
1FF
102
}
330
1F
100
AcDbEntity
  8
Main lines
100
AcDbCircle
 10
-88.78618597218235
 20
76.23717966106003
 30
188.1360814034985
 40
4.0
100
AcDbArc
 50
90.0
 51
180.0
  0
LINE
  5
204
102
{ACAD_XDICTIONARY
360
202
102
}
330
1F
100
AcDbEntity
  8
Main lines
100
AcDbLine
 10
-106.7861859721824
 20
9.237179661060026
 30
188.1360814035004
 11
-106.7861859721824
 21
27.23717966106003
 31
188.1360814034998
  0
LINE
  5
207
102
{ACAD_XDICTIONARY
360
205
102
}
330
1F
100
AcDbEntity
  8
Main lines
100
AcDbLine
 10
-108.7861859721824
 20
2.237179661060026
 30
188.1360814035006
 11
-108.7861859721824
 21
34.23717966106003
 31
188.1360814034996
  0
LINE
  5
20A
102
{ACAD_XDICTIONARY
360
208
102
}
330
1F
100
AcDbEntity
  8
Main lines
100
AcDbLine
 10
-114.7861859721824
 20
30.23717966106003
 30
188.1360814034998
 11
-114.7861859721824
 21
6.237179661060026
 31
188.1360814035004
  0
ARC
  5
20D
102
{ACAD_XDICTIONARY
360
20B
102
}
330
1F
100
AcDbEntity
  8
Main lines
100
AcDbCircle
 10
-110.7861859721824
 20
6.237179661060026
 30
188.1360814035004
 40
4.0
100
AcDbArc
 50
180.0
 51
270.0
  0
LINE
  5
210
102
{ACAD_XDICTIONARY
360
20E
102
}
330
1F
100
AcDbEntity
  8
Main lines
100
AcDbLine
 10
-114.7861859721824
 20
8.898075661060005
 30
188.1360814035004
 11
-108.7861859721824
 21
8.898075661060005
 31
188.1360814035004
  0
LINE
  5
213
102
{ACAD_XDICTIONARY
360
211
102
}
330
1F
100
AcDbEntity
  8
Main lines
100
AcDbLine
 10
-114.7861859721824
 20
12.76177766106011
 30
188.1360814035003
 11
-108.7861859721824
 21
12.76177766106011
 31
188.1360814035003
  0
ARC
  5
216
102
{ACAD_XDICTIONARY
360
214
102
}
330
1F
100
AcDbEntity
  8
Main lines
100
AcDbCircle
 10
-110.7861859721824
 20
30.23717966106003
 30
188.1360814034998
 40
4.0
100
AcDbArc
 50
90.0
 51
180.0
  0
LINE
  5
219
102
{ACAD_XDICTIONARY
360
217
102
}
330
1F
100
AcDbEntity
  8
Main lines
100
AcDbLine
 10
-114.7861859721824
 20
21.30941566106011
 30
188.1360814035
 11
-108.7861859721824
 21
21.30941566106011
 31
188.1360814035
  0
LINE
  5
21C
102
{ACAD_XDICTIONARY
360
21A
102
}
330
1F
100
AcDbEntity
  8
Main lines
100
AcDbLine
 10
-114.7861859721824
 20
25.06818566106003
 30
188.1360814034999
 11
-108.7861859721824
 21
25.06818566106003
 31
188.1360814034999
  0
LINE
  5
21F
102
{ACAD_XDICTIONARY
360
21D
102
}
330
1F
100
AcDbEntity
  8
Main lines
  6
DASHED
100
AcDbLine
 10
-114.7861859721824
 20
30.23717966106003
 30
188.1360814034998
 11
-72.38618597218226
 21
30.23717966106003
 31
188.1360814034998
  0
LINE
  5
222
102
{ACAD_XDICTIONARY
360
220
102
}
330
1F
100
AcDbEntity
  8
Main lines
  6
DASHED
100
AcDbLine
 10
-72.38618597218226
 20
6.237179661060026
 30
188.1360814035004
 11
-114.7861859721824
 21
6.237179661060026
 31
188.1360814035004
  0
LINE
  5
225
102
{ACAD_XDICTIONARY
360
223
102
}
330
1F
100
AcDbEntity
  8
Main lines
  6
DASHED
100
AcDbLine
 10
-72.38618597218226
 20
30.23717966106003
 30
188.1360814034998
 11
-72.38618597218226
 21
6.237179661060026
 31
188.1360814035004
  0
LINE
  5
228
102
{ACAD_XDICTIONARY
360
226
102
}
330
1F
100
AcDbEntity
  8
Main lines
  6
ByBlock
100
AcDbLine
 10
-92.78618597218235
 20
34.73717966106003
 30
188.1360814034996
 11
-92.78618597218235
 21
43.79365192844338
 31
188.1360814034994
  0
VIEWPORT
  5
22B
330
1B
100
AcDbEntity
 67
     1
  8
0
100
AcDbViewport
 10
218.3441119005328
 20
97.3991666666667
 30
0.0
 40
297.0
 41
210.0
 68
     1
 69
     1
 12
218.3441119005328
 22
97.3991666666667
 13
0.0
 23
0.0
 14
5.0
 24
5.0
 15
5.0
 25
5.0
 16
0.0
 26
0.0
 36
1.0
 17
0.0
 27
0.0
 37
0.0
 42
50.0
 43
0.0
 44
0.0
 45
210.0
 50
0.0
 51
0.0
 72
  1000
 90
    32800
  1

281
     0
 71
     1
 74
     0
110
0.0
120
0.0
130
0.0
111
1.0
121
0.0
131
0.0
112
0.0
122
1.0
132
0.0
 79
     0
146
0.0
170
     0
  0
ENDSEC
  0
SECTION
  2
OBJECTS
  0
DICTIONARY
  5
C
330
0
100
AcDbDictionary
281
     1
  3
ACAD_GROUP
350
D
  3
ACAD_LAYOUT
350
1A
  3
ACAD_MLINESTYLE
350
17
  3
ACAD_PLOTSETTINGS
350
19
  3
ACAD_PLOTSTYLENAME
350
E
  3
ACAD_TABLESTYLE
350
22C
  3
ACAD_VISUALSTYLE
350
2A
  0
DICTIONARY
  5
118
330
11A
100
AcDbDictionary
280
     1
281
     1
  3
TC_OPTIONAL_DATA
360
119
  0
DICTIONARY
  5
11B
330
11D
100
AcDbDictionary
280
     1
281
     1
  3
TC_OPTIONAL_DATA
360
11C
  0
DICTIONARY
  5
11E
330
120
100
AcDbDictionary
280
     1
281
     1
  3
TC_OPTIONAL_DATA
360
11F
  0
DICTIONARY
  5
121
330
123
100
AcDbDictionary
280
     1
281
     1
  3
TC_OPTIONAL_DATA
360
122
  0
DICTIONARY
  5
124
330
126
100
AcDbDictionary
280
     1
281
     1
  3
TC_OPTIONAL_DATA
360
125
  0
DICTIONARY
  5
127
330
129
100
AcDbDictionary
280
     1
281
     1
  3
TC_OPTIONAL_DATA
360
128
  0
DICTIONARY
  5
12A
330
12C
100
AcDbDictionary
280
     1
281
     1
  3
TC_OPTIONAL_DATA
360
12B
  0
DICTIONARY
  5
12D
330
12F
100
AcDbDictionary
280
     1
281
     1
  3
TC_OPTIONAL_DATA
360
12E
  0
DICTIONARY
  5
130
330
132
100
AcDbDictionary
280
     1
281
     1
  3
TC_OPTIONAL_DATA
360
131
  0
DICTIONARY
  5
133
330
135
100
AcDbDictionary
280
     1
281
     1
  3
TC_OPTIONAL_DATA
360
134
  0
DICTIONARY
  5
136
330
138
100
AcDbDictionary
280
     1
281
     1
  3
TC_OPTIONAL_DATA
360
137
  0
DICTIONARY
  5
139
330
13B
100
AcDbDictionary
280
     1
281
     1
  3
TC_OPTIONAL_DATA
360
13A
  0
DICTIONARY
  5
13C
330
13E
100
AcDbDictionary
280
     1
281
     1
  3
TC_OPTIONAL_DATA
360
13D
  0
DICTIONARY
  5
13F
330
141
100
AcDbDictionary
280
     1
281
     1
  3
TC_OPTIONAL_DATA
360
140
  0
DICTIONARY
  5
142
330
144
100
AcDbDictionary
280
     1
281
     1
  3
TC_OPTIONAL_DATA
360
143
  0
DICTIONARY
  5
145
330
147
100
AcDbDictionary
280
     1
281
     1
  3
TC_OPTIONAL_DATA
360
146
  0
DICTIONARY
  5
148
330
14A
100
AcDbDictionary
280
     1
281
     1
  3
TC_OPTIONAL_DATA
360
149
  0
DICTIONARY
  5
14B
330
14D
100
AcDbDictionary
280
     1
281
     1
  3
TC_OPTIONAL_DATA
360
14C
  0
DICTIONARY
  5
14E
330
150
100
AcDbDictionary
280
     1
281
     1
  3
TC_OPTIONAL_DATA
360
14F
  0
DICTIONARY
  5
151
330
153
100
AcDbDictionary
280
     1
281
     1
  3
TC_OPTIONAL_DATA
360
152
  0
DICTIONARY
  5
154
330
156
100
AcDbDictionary
280
     1
281
     1
  3
TC_OPTIONAL_DATA
360
155
  0
DICTIONARY
  5
157
330
159
100
AcDbDictionary
280
     1
281
     1
  3
TC_OPTIONAL_DATA
360
158
  0
DICTIONARY
  5
15A
330
15C
100
AcDbDictionary
280
     1
281
     1
  3
TC_OPTIONAL_DATA
360
15B
  0
DICTIONARY
  5
15D
330
15F
100
AcDbDictionary
280
     1
281
     1
  3
TC_OPTIONAL_DATA
360
15E
  0
DICTIONARY
  5
160
330
162
100
AcDbDictionary
280
     1
281
     1
  3
TC_OPTIONAL_DATA
360
161
  0
DICTIONARY
  5
163
330
165
100
AcDbDictionary
280
     1
281
     1
  3
TC_OPTIONAL_DATA
360
164
  0
DICTIONARY
  5
166
330
168
100
AcDbDictionary
280
     1
281
     1
  3
TC_OPTIONAL_DATA
360
167
  0
DICTIONARY
  5
169
330
16B
100
AcDbDictionary
280
     1
281
     1
  3
TC_OPTIONAL_DATA
360
16A
  0
DICTIONARY
  5
16C
330
16E
100
AcDbDictionary
280
     1
281
     1
  3
TC_OPTIONAL_DATA
360
16D
  0
DICTIONARY
  5
16F
330
171
100
AcDbDictionary
280
     1
281
     1
  3
TC_OPTIONAL_DATA
360
170
  0
DICTIONARY
  5
172
330
174
100
AcDbDictionary
280
     1
281
     1
  3
TC_OPTIONAL_DATA
360
173
  0
DICTIONARY
  5
175
330
177
100
AcDbDictionary
280
     1
281
     1
  3
TC_OPTIONAL_DATA
360
176
  0
DICTIONARY
  5
178
330
17A
100
AcDbDictionary
280
     1
281
     1
  3
TC_OPTIONAL_DATA
360
179
  0
DICTIONARY
  5
17B
330
17D
100
AcDbDictionary
280
     1
281
     1
  3
TC_OPTIONAL_DATA
360
17C
  0
DICTIONARY
  5
17E
330
180
100
AcDbDictionary
280
     1
281
     1
  3
TC_OPTIONAL_DATA
360
17F
  0
DICTIONARY
  5
181
330
183
100
AcDbDictionary
280
     1
281
     1
  3
TC_OPTIONAL_DATA
360
182
  0
DICTIONARY
  5
184
330
186
100
AcDbDictionary
280
     1
281
     1
  3
TC_OPTIONAL_DATA
360
185
  0
DICTIONARY
  5
187
330
189
100
AcDbDictionary
280
     1
281
     1
  3
TC_OPTIONAL_DATA
360
188
  0
DICTIONARY
  5
18A
330
18C
100
AcDbDictionary
280
     1
281
     1
  3
TC_OPTIONAL_DATA
360
18B
  0
DICTIONARY
  5
18D
330
18F
100
AcDbDictionary
280
     1
281
     1
  3
TC_OPTIONAL_DATA
360
18E
  0
DICTIONARY
  5
190
330
192
100
AcDbDictionary
280
     1
281
     1
  3
TC_OPTIONAL_DATA
360
191
  0
DICTIONARY
  5
193
330
195
100
AcDbDictionary
280
     1
281
     1
  3
TC_OPTIONAL_DATA
360
194
  0
DICTIONARY
  5
196
330
198
100
AcDbDictionary
280
     1
281
     1
  3
TC_OPTIONAL_DATA
360
197
  0
DICTIONARY
  5
199
330
19B
100
AcDbDictionary
280
     1
281
     1
  3
TC_OPTIONAL_DATA
360
19A
  0
DICTIONARY
  5
19C
330
19E
100
AcDbDictionary
280
     1
281
     1
  3
TC_OPTIONAL_DATA
360
19D
  0
DICTIONARY
  5
19F
330
1A1
100
AcDbDictionary
280
     1
281
     1
  3
TC_OPTIONAL_DATA
360
1A0
  0
DICTIONARY
  5
1A2
330
1A4
100
AcDbDictionary
280
     1
281
     1
  3
TC_OPTIONAL_DATA
360
1A3
  0
DICTIONARY
  5
1A5
330
1A7
100
AcDbDictionary
280
     1
281
     1
  3
TC_OPTIONAL_DATA
360
1A6
  0
DICTIONARY
  5
1A8
330
1AA
100
AcDbDictionary
280
     1
281
     1
  3
TC_OPTIONAL_DATA
360
1A9
  0
DICTIONARY
  5
1AB
330
1AD
100
AcDbDictionary
280
     1
281
     1
  3
TC_OPTIONAL_DATA
360
1AC
  0
DICTIONARY
  5
1AE
330
1B0
100
AcDbDictionary
280
     1
281
     1
  3
TC_OPTIONAL_DATA
360
1AF
  0
DICTIONARY
  5
1B1
330
1B3
100
AcDbDictionary
280
     1
281
     1
  3
TC_OPTIONAL_DATA
360
1B2
  0
DICTIONARY
  5
1B4
330
1B6
100
AcDbDictionary
280
     1
281
     1
  3
TC_OPTIONAL_DATA
360
1B5
  0
DICTIONARY
  5
1B7
330
1B9
100
AcDbDictionary
280
     1
281
     1
  3
TC_OPTIONAL_DATA
360
1B8
  0
DICTIONARY
  5
1BA
330
1BC
100
AcDbDictionary
280
     1
281
     1
  3
TC_OPTIONAL_DATA
360
1BB
  0
DICTIONARY
  5
1BD
330
1BF
100
AcDbDictionary
280
     1
281
     1
  3
TC_OPTIONAL_DATA
360
1BE
  0
DICTIONARY
  5
1C0
330
1C2
100
AcDbDictionary
280
     1
281
     1
  3
TC_OPTIONAL_DATA
360
1C1
  0
DICTIONARY
  5
1C3
330
1C5
100
AcDbDictionary
280
     1
281
     1
  3
TC_OPTIONAL_DATA
360
1C4
  0
DICTIONARY
  5
1C6
330
1C8
100
AcDbDictionary
280
     1
281
     1
  3
TC_OPTIONAL_DATA
360
1C7
  0
DICTIONARY
  5
1C9
330
1CB
100
AcDbDictionary
280
     1
281
     1
  3
TC_OPTIONAL_DATA
360
1CA
  0
DICTIONARY
  5
1CC
330
1CE
100
AcDbDictionary
280
     1
281
     1
  3
TC_OPTIONAL_DATA
360
1CD
  0
DICTIONARY
  5
1CF
330
1D1
100
AcDbDictionary
280
     1
281
     1
  3
TC_OPTIONAL_DATA
360
1D0
  0
DICTIONARY
  5
1D2
330
1D4
100
AcDbDictionary
280
     1
281
     1
  3
TC_OPTIONAL_DATA
360
1D3
  0
DICTIONARY
  5
1D5
330
1D7
100
AcDbDictionary
280
     1
281
     1
  3
TC_OPTIONAL_DATA
360
1D6
  0
DICTIONARY
  5
1D8
330
1DA
100
AcDbDictionary
280
     1
281
     1
  3
TC_OPTIONAL_DATA
360
1D9
  0
DICTIONARY
  5
1DB
330
1DD
100
AcDbDictionary
280
     1
281
     1
  3
TC_OPTIONAL_DATA
360
1DC
  0
DICTIONARY
  5
1DE
330
1E0
100
AcDbDictionary
280
     1
281
     1
  3
TC_OPTIONAL_DATA
360
1DF
  0
DICTIONARY
  5
1E1
330
1E3
100
AcDbDictionary
280
     1
281
     1
  3
TC_OPTIONAL_DATA
360
1E2
  0
DICTIONARY
  5
1E4
330
1E6
100
AcDbDictionary
280
     1
281
     1
  3
TC_OPTIONAL_DATA
360
1E5
  0
DICTIONARY
  5
1E7
330
1E9
100
AcDbDictionary
280
     1
281
     1
  3
TC_OPTIONAL_DATA
360
1E8
  0
DICTIONARY
  5
1EA
330
1EC
100
AcDbDictionary
280
     1
281
     1
  3
TC_OPTIONAL_DATA
360
1EB
  0
DICTIONARY
  5
1ED
330
1EF
100
AcDbDictionary
280
     1
281
     1
  3
TC_OPTIONAL_DATA
360
1EE
  0
DICTIONARY
  5
1F0
330
1F2
100
AcDbDictionary
280
     1
281
     1
  3
TC_OPTIONAL_DATA
360
1F1
  0
DICTIONARY
  5
1F3
330
1F5
100
AcDbDictionary
280
     1
281
     1
  3
TC_OPTIONAL_DATA
360
1F4
  0
DICTIONARY
  5
1F6
330
1F8
100
AcDbDictionary
280
     1
281
     1
  3
TC_OPTIONAL_DATA
360
1F7
  0
DICTIONARY
  5
1F9
330
1FB
100
AcDbDictionary
280
     1
281
     1
  3
TC_OPTIONAL_DATA
360
1FA
  0
DICTIONARY
  5
1FC
330
1FE
100
AcDbDictionary
280
     1
281
     1
  3
TC_OPTIONAL_DATA
360
1FD
  0
DICTIONARY
  5
1FF
330
201
100
AcDbDictionary
280
     1
281
     1
  3
TC_OPTIONAL_DATA
360
200
  0
DICTIONARY
  5
202
330
204
100
AcDbDictionary
280
     1
281
     1
  3
TC_OPTIONAL_DATA
360
203
  0
DICTIONARY
  5
205
330
207
100
AcDbDictionary
280
     1
281
     1
  3
TC_OPTIONAL_DATA
360
206
  0
DICTIONARY
  5
208
330
20A
100
AcDbDictionary
280
     1
281
     1
  3
TC_OPTIONAL_DATA
360
209
  0
DICTIONARY
  5
20B
330
20D
100
AcDbDictionary
280
     1
281
     1
  3
TC_OPTIONAL_DATA
360
20C
  0
DICTIONARY
  5
20E
330
210
100
AcDbDictionary
280
     1
281
     1
  3
TC_OPTIONAL_DATA
360
20F
  0
DICTIONARY
  5
211
330
213
100
AcDbDictionary
280
     1
281
     1
  3
TC_OPTIONAL_DATA
360
212
  0
DICTIONARY
  5
214
330
216
100
AcDbDictionary
280
     1
281
     1
  3
TC_OPTIONAL_DATA
360
215
  0
DICTIONARY
  5
217
330
219
100
AcDbDictionary
280
     1
281
     1
  3
TC_OPTIONAL_DATA
360
218
  0
DICTIONARY
  5
21A
330
21C
100
AcDbDictionary
280
     1
281
     1
  3
TC_OPTIONAL_DATA
360
21B
  0
DICTIONARY
  5
21D
330
21F
100
AcDbDictionary
280
     1
281
     1
  3
TC_OPTIONAL_DATA
360
21E
  0
DICTIONARY
  5
220
330
222
100
AcDbDictionary
280
     1
281
     1
  3
TC_OPTIONAL_DATA
360
221
  0
DICTIONARY
  5
223
330
225
100
AcDbDictionary
280
     1
281
     1
  3
TC_OPTIONAL_DATA
360
224
  0
DICTIONARY
  5
226
330
228
100
AcDbDictionary
280
     1
281
     1
  3
TC_OPTIONAL_DATA
360
227
  0
DICTIONARY
  5
D
102
{ACAD_REACTORS
330
C
102
}
330
C
100
AcDbDictionary
281
     1
  0
DICTIONARY
  5
1A
102
{ACAD_REACTORS
330
C
102
}
330
C
100
AcDbDictionary
281
     1
  3
Layout1
350
3C
  3
Layout2
350
1E
  3
Model
350
22
  0
DICTIONARY
  5
17
102
{ACAD_REACTORS
330
C
102
}
330
C
100
AcDbDictionary
281
     1
  3
Standard
350
18
  0
DICTIONARY
  5
19
102
{ACAD_REACTORS
330
C
102
}
330
C
100
AcDbDictionary
281
     1
  0
ACDBDICTIONARYWDFLT
  5
E
102
{ACAD_REACTORS
330
C
102
}
330
C
100
AcDbDictionary
281
     1
  3
Normal
350
F
100
AcDbDictionaryWithDefault
340
F
  0
DICTIONARY
  5
22C
102
{ACAD_REACTORS
330
C
102
}
330
C
100
AcDbDictionary
281
     1
  0
DICTIONARY
  5
2A
102
{ACAD_REACTORS
330
C
102
}
330
C
100
AcDbDictionary
281
     1
  3
2dWireframe
350
2F
  3
3D Hidden
350
31
  3
3dWireframe
350
30
  3
Basic
350
32
  3
Brighten
350
36
  3
ColorChange
350
3A
  3
Conceptual
350
34
  3
Dim
350
35
  3
Facepattern
350
39
  3
Flat
350
2B
  3
FlatWithEdges
350
2C
  3
Gouraud
350
2D
  3
GouraudWithEdges
350
2E
  3
Linepattern
350
38
  3
Realistic
350
33
  3
Thicken
350
37
  0
TCOPTIONALDATA
  5
119
102
{ACAD_REACTORS
330
118
102
}
330
118
100
TcOptionalData
 70
     1
 70
    32
 40
-3.0
  0
TCOPTIONALDATA
  5
11C
102
{ACAD_REACTORS
330
11B
102
}
330
11B
100
TcOptionalData
 70
     1
 70
    32
 40
-3.0
  0
TCOPTIONALDATA
  5
11F
102
{ACAD_REACTORS
330
11E
102
}
330
11E
100
TcOptionalData
 70
     1
 70
    32
 40
-3.0
  0
TCOPTIONALDATA
  5
122
102
{ACAD_REACTORS
330
121
102
}
330
121
100
TcOptionalData
 70
     1
 70
    32
 40
-3.0
  0
TCOPTIONALDATA
  5
125
102
{ACAD_REACTORS
330
124
102
}
330
124
100
TcOptionalData
 70
     1
 70
    32
 40
-3.0
  0
TCOPTIONALDATA
  5
128
102
{ACAD_REACTORS
330
127
102
}
330
127
100
TcOptionalData
 70
     1
 70
    32
 40
-3.0
  0
TCOPTIONALDATA
  5
12B
102
{ACAD_REACTORS
330
12A
102
}
330
12A
100
TcOptionalData
 70
     1
 70
    32
 40
-3.0
  0
TCOPTIONALDATA
  5
12E
102
{ACAD_REACTORS
330
12D
102
}
330
12D
100
TcOptionalData
 70
     1
 70
    32
 40
-3.0
  0
TCOPTIONALDATA
  5
131
102
{ACAD_REACTORS
330
130
102
}
330
130
100
TcOptionalData
 70
     1
 70
    32
 40
-3.0
  0
TCOPTIONALDATA
  5
134
102
{ACAD_REACTORS
330
133
102
}
330
133
100
TcOptionalData
 70
     1
 70
    32
 40
-3.0
  0
TCOPTIONALDATA
  5
137
102
{ACAD_REACTORS
330
136
102
}
330
136
100
TcOptionalData
 70
     1
 70
    32
 40
-3.0
  0
TCOPTIONALDATA
  5
13A
102
{ACAD_REACTORS
330
139
102
}
330
139
100
TcOptionalData
 70
     1
 70
    32
 40
-3.0
  0
TCOPTIONALDATA
  5
13D
102
{ACAD_REACTORS
330
13C
102
}
330
13C
100
TcOptionalData
 70
     1
 70
    32
 40
-3.0
  0
TCOPTIONALDATA
  5
140
102
{ACAD_REACTORS
330
13F
102
}
330
13F
100
TcOptionalData
 70
     1
 70
    32
 40
-3.0
  0
TCOPTIONALDATA
  5
143
102
{ACAD_REACTORS
330
142
102
}
330
142
100
TcOptionalData
 70
     1
 70
    32
 40
-3.0
  0
TCOPTIONALDATA
  5
146
102
{ACAD_REACTORS
330
145
102
}
330
145
100
TcOptionalData
 70
     1
 70
    32
 40
-3.0
  0
TCOPTIONALDATA
  5
149
102
{ACAD_REACTORS
330
148
102
}
330
148
100
TcOptionalData
 70
     1
 70
    32
 40
-3.0
  0
TCOPTIONALDATA
  5
14C
102
{ACAD_REACTORS
330
14B
102
}
330
14B
100
TcOptionalData
 70
     1
 70
    32
 40
-3.0
  0
TCOPTIONALDATA
  5
14F
102
{ACAD_REACTORS
330
14E
102
}
330
14E
100
TcOptionalData
 70
     1
 70
    32
 40
-3.0
  0
TCOPTIONALDATA
  5
152
102
{ACAD_REACTORS
330
151
102
}
330
151
100
TcOptionalData
 70
     1
 70
    32
 40
-3.0
  0
TCOPTIONALDATA
  5
155
102
{ACAD_REACTORS
330
154
102
}
330
154
100
TcOptionalData
 70
     1
 70
    32
 40
-3.0
  0
TCOPTIONALDATA
  5
158
102
{ACAD_REACTORS
330
157
102
}
330
157
100
TcOptionalData
 70
     1
 70
    32
 40
-3.0
  0
TCOPTIONALDATA
  5
15B
102
{ACAD_REACTORS
330
15A
102
}
330
15A
100
TcOptionalData
 70
     1
 70
    32
 40
-3.0
  0
TCOPTIONALDATA
  5
15E
102
{ACAD_REACTORS
330
15D
102
}
330
15D
100
TcOptionalData
 70
     1
 70
    32
 40
-3.0
  0
TCOPTIONALDATA
  5
161
102
{ACAD_REACTORS
330
160
102
}
330
160
100
TcOptionalData
 70
     1
 70
    32
 40
-3.0
  0
TCOPTIONALDATA
  5
164
102
{ACAD_REACTORS
330
163
102
}
330
163
100
TcOptionalData
 70
     1
 70
    32
 40
-3.0
  0
TCOPTIONALDATA
  5
167
102
{ACAD_REACTORS
330
166
102
}
330
166
100
TcOptionalData
 70
     1
 70
    32
 40
-3.0
  0
TCOPTIONALDATA
  5
16A
102
{ACAD_REACTORS
330
169
102
}
330
169
100
TcOptionalData
 70
     1
 70
    32
 40
-3.0
  0
TCOPTIONALDATA
  5
16D
102
{ACAD_REACTORS
330
16C
102
}
330
16C
100
TcOptionalData
 70
     1
 70
    32
 40
-3.0
  0
TCOPTIONALDATA
  5
170
102
{ACAD_REACTORS
330
16F
102
}
330
16F
100
TcOptionalData
 70
     1
 70
    32
 40
-3.0
  0
TCOPTIONALDATA
  5
173
102
{ACAD_REACTORS
330
172
102
}
330
172
100
TcOptionalData
 70
     1
 70
    32
 40
-3.0
  0
TCOPTIONALDATA
  5
176
102
{ACAD_REACTORS
330
175
102
}
330
175
100
TcOptionalData
 70
     1
 70
    32
 40
-3.0
  0
TCOPTIONALDATA
  5
179
102
{ACAD_REACTORS
330
178
102
}
330
178
100
TcOptionalData
 70
     1
 70
    32
 40
-3.0
  0
TCOPTIONALDATA
  5
17C
102
{ACAD_REACTORS
330
17B
102
}
330
17B
100
TcOptionalData
 70
     1
 70
    32
 40
-3.0
  0
TCOPTIONALDATA
  5
17F
102
{ACAD_REACTORS
330
17E
102
}
330
17E
100
TcOptionalData
 70
     1
 70
    32
 40
-3.0
  0
TCOPTIONALDATA
  5
182
102
{ACAD_REACTORS
330
181
102
}
330
181
100
TcOptionalData
 70
     1
 70
    32
 40
-3.0
  0
TCOPTIONALDATA
  5
185
102
{ACAD_REACTORS
330
184
102
}
330
184
100
TcOptionalData
 70
     1
 70
    32
 40
-3.0
  0
TCOPTIONALDATA
  5
188
102
{ACAD_REACTORS
330
187
102
}
330
187
100
TcOptionalData
 70
     1
 70
    32
 40
-3.0
  0
TCOPTIONALDATA
  5
18B
102
{ACAD_REACTORS
330
18A
102
}
330
18A
100
TcOptionalData
 70
     1
 70
    32
 40
-3.0
  0
TCOPTIONALDATA
  5
18E
102
{ACAD_REACTORS
330
18D
102
}
330
18D
100
TcOptionalData
 70
     1
 70
    32
 40
-3.0
  0
TCOPTIONALDATA
  5
191
102
{ACAD_REACTORS
330
190
102
}
330
190
100
TcOptionalData
 70
     1
 70
    32
 40
-3.0
  0
TCOPTIONALDATA
  5
194
102
{ACAD_REACTORS
330
193
102
}
330
193
100
TcOptionalData
 70
     1
 70
    32
 40
-3.0
  0
TCOPTIONALDATA
  5
197
102
{ACAD_REACTORS
330
196
102
}
330
196
100
TcOptionalData
 70
     1
 70
    32
 40
-3.0
  0
TCOPTIONALDATA
  5
19A
102
{ACAD_REACTORS
330
199
102
}
330
199
100
TcOptionalData
 70
     1
 70
    32
 40
-3.0
  0
TCOPTIONALDATA
  5
19D
102
{ACAD_REACTORS
330
19C
102
}
330
19C
100
TcOptionalData
 70
     1
 70
    32
 40
-3.0
  0
TCOPTIONALDATA
  5
1A0
102
{ACAD_REACTORS
330
19F
102
}
330
19F
100
TcOptionalData
 70
     1
 70
    32
 40
-3.0
  0
TCOPTIONALDATA
  5
1A3
102
{ACAD_REACTORS
330
1A2
102
}
330
1A2
100
TcOptionalData
 70
     1
 70
    32
 40
-3.0
  0
TCOPTIONALDATA
  5
1A6
102
{ACAD_REACTORS
330
1A5
102
}
330
1A5
100
TcOptionalData
 70
     1
 70
    32
 40
-3.0
  0
TCOPTIONALDATA
  5
1A9
102
{ACAD_REACTORS
330
1A8
102
}
330
1A8
100
TcOptionalData
 70
     1
 70
    32
 40
-3.0
  0
TCOPTIONALDATA
  5
1AC
102
{ACAD_REACTORS
330
1AB
102
}
330
1AB
100
TcOptionalData
 70
     1
 70
    32
 40
-3.0
  0
TCOPTIONALDATA
  5
1AF
102
{ACAD_REACTORS
330
1AE
102
}
330
1AE
100
TcOptionalData
 70
     1
 70
    32
 40
-3.0
  0
TCOPTIONALDATA
  5
1B2
102
{ACAD_REACTORS
330
1B1
102
}
330
1B1
100
TcOptionalData
 70
     1
 70
    32
 40
-3.0
  0
TCOPTIONALDATA
  5
1B5
102
{ACAD_REACTORS
330
1B4
102
}
330
1B4
100
TcOptionalData
 70
     1
 70
    32
 40
-3.0
  0
TCOPTIONALDATA
  5
1B8
102
{ACAD_REACTORS
330
1B7
102
}
330
1B7
100
TcOptionalData
 70
     1
 70
    32
 40
-3.0
  0
TCOPTIONALDATA
  5
1BB
102
{ACAD_REACTORS
330
1BA
102
}
330
1BA
100
TcOptionalData
 70
     1
 70
    32
 40
-3.0
  0
TCOPTIONALDATA
  5
1BE
102
{ACAD_REACTORS
330
1BD
102
}
330
1BD
100
TcOptionalData
 70
     1
 70
    32
 40
-3.0
  0
TCOPTIONALDATA
  5
1C1
102
{ACAD_REACTORS
330
1C0
102
}
330
1C0
100
TcOptionalData
 70
     1
 70
    32
 40
-3.0
  0
TCOPTIONALDATA
  5
1C4
102
{ACAD_REACTORS
330
1C3
102
}
330
1C3
100
TcOptionalData
 70
     1
 70
    32
 40
-3.0
  0
TCOPTIONALDATA
  5
1C7
102
{ACAD_REACTORS
330
1C6
102
}
330
1C6
100
TcOptionalData
 70
     1
 70
    32
 40
-3.0
  0
TCOPTIONALDATA
  5
1CA
102
{ACAD_REACTORS
330
1C9
102
}
330
1C9
100
TcOptionalData
 70
     1
 70
    32
 40
-3.0
  0
TCOPTIONALDATA
  5
1CD
102
{ACAD_REACTORS
330
1CC
102
}
330
1CC
100
TcOptionalData
 70
     1
 70
    32
 40
-3.0
  0
TCOPTIONALDATA
  5
1D0
102
{ACAD_REACTORS
330
1CF
102
}
330
1CF
100
TcOptionalData
 70
     1
 70
    32
 40
-3.0
  0
TCOPTIONALDATA
  5
1D3
102
{ACAD_REACTORS
330
1D2
102
}
330
1D2
100
TcOptionalData
 70
     1
 70
    32
 40
-3.0
  0
TCOPTIONALDATA
  5
1D6
102
{ACAD_REACTORS
330
1D5
102
}
330
1D5
100
TcOptionalData
 70
     1
 70
    32
 40
-3.0
  0
TCOPTIONALDATA
  5
1D9
102
{ACAD_REACTORS
330
1D8
102
}
330
1D8
100
TcOptionalData
 70
     1
 70
    32
 40
-3.0
  0
TCOPTIONALDATA
  5
1DC
102
{ACAD_REACTORS
330
1DB
102
}
330
1DB
100
TcOptionalData
 70
     1
 70
    32
 40
-3.0
  0
TCOPTIONALDATA
  5
1DF
102
{ACAD_REACTORS
330
1DE
102
}
330
1DE
100
TcOptionalData
 70
     1
 70
    32
 40
-3.0
  0
TCOPTIONALDATA
  5
1E2
102
{ACAD_REACTORS
330
1E1
102
}
330
1E1
100
TcOptionalData
 70
     1
 70
    32
 40
-3.0
  0
TCOPTIONALDATA
  5
1E5
102
{ACAD_REACTORS
330
1E4
102
}
330
1E4
100
TcOptionalData
 70
     1
 70
    32
 40
-3.0
  0
TCOPTIONALDATA
  5
1E8
102
{ACAD_REACTORS
330
1E7
102
}
330
1E7
100
TcOptionalData
 70
     1
 70
    32
 40
-3.0
  0
TCOPTIONALDATA
  5
1EB
102
{ACAD_REACTORS
330
1EA
102
}
330
1EA
100
TcOptionalData
 70
     1
 70
    32
 40
-3.0
  0
TCOPTIONALDATA
  5
1EE
102
{ACAD_REACTORS
330
1ED
102
}
330
1ED
100
TcOptionalData
 70
     1
 70
    32
 40
-3.0
  0
TCOPTIONALDATA
  5
1F1
102
{ACAD_REACTORS
330
1F0
102
}
330
1F0
100
TcOptionalData
 70
     1
 70
    32
 40
-3.0
  0
TCOPTIONALDATA
  5
1F4
102
{ACAD_REACTORS
330
1F3
102
}
330
1F3
100
TcOptionalData
 70
     1
 70
    32
 40
-3.0
  0
TCOPTIONALDATA
  5
1F7
102
{ACAD_REACTORS
330
1F6
102
}
330
1F6
100
TcOptionalData
 70
     1
 70
    32
 40
-3.0
  0
TCOPTIONALDATA
  5
1FA
102
{ACAD_REACTORS
330
1F9
102
}
330
1F9
100
TcOptionalData
 70
     1
 70
    32
 40
-3.0
  0
TCOPTIONALDATA
  5
1FD
102
{ACAD_REACTORS
330
1FC
102
}
330
1FC
100
TcOptionalData
 70
     1
 70
    32
 40
-3.0
  0
TCOPTIONALDATA
  5
200
102
{ACAD_REACTORS
330
1FF
102
}
330
1FF
100
TcOptionalData
 70
     1
 70
    32
 40
-3.0
  0
TCOPTIONALDATA
  5
203
102
{ACAD_REACTORS
330
202
102
}
330
202
100
TcOptionalData
 70
     1
 70
    32
 40
-3.0
  0
TCOPTIONALDATA
  5
206
102
{ACAD_REACTORS
330
205
102
}
330
205
100
TcOptionalData
 70
     1
 70
    32
 40
-3.0
  0
TCOPTIONALDATA
  5
209
102
{ACAD_REACTORS
330
208
102
}
330
208
100
TcOptionalData
 70
     1
 70
    32
 40
-3.0
  0
TCOPTIONALDATA
  5
20C
102
{ACAD_REACTORS
330
20B
102
}
330
20B
100
TcOptionalData
 70
     1
 70
    32
 40
-3.0
  0
TCOPTIONALDATA
  5
20F
102
{ACAD_REACTORS
330
20E
102
}
330
20E
100
TcOptionalData
 70
     1
 70
    32
 40
-3.0
  0
TCOPTIONALDATA
  5
212
102
{ACAD_REACTORS
330
211
102
}
330
211
100
TcOptionalData
 70
     1
 70
    32
 40
-3.0
  0
TCOPTIONALDATA
  5
215
102
{ACAD_REACTORS
330
214
102
}
330
214
100
TcOptionalData
 70
     1
 70
    32
 40
-3.0
  0
TCOPTIONALDATA
  5
218
102
{ACAD_REACTORS
330
217
102
}
330
217
100
TcOptionalData
 70
     1
 70
    32
 40
-3.0
  0
TCOPTIONALDATA
  5
21B
102
{ACAD_REACTORS
330
21A
102
}
330
21A
100
TcOptionalData
 70
     1
 70
    32
 40
-3.0
  0
TCOPTIONALDATA
  5
21E
102
{ACAD_REACTORS
330
21D
102
}
330
21D
100
TcOptionalData
 70
     1
 70
    32
 40
-3.0
  0
TCOPTIONALDATA
  5
221
102
{ACAD_REACTORS
330
220
102
}
330
220
100
TcOptionalData
 70
     1
 70
    32
 40
-3.0
  0
TCOPTIONALDATA
  5
224
102
{ACAD_REACTORS
330
223
102
}
330
223
100
TcOptionalData
 70
     1
 70
    32
 40
-3.0
  0
TCOPTIONALDATA
  5
227
102
{ACAD_REACTORS
330
226
102
}
330
226
100
TcOptionalData
 70
     1
 70
    32
 40
-3.0
  0
LAYOUT
  5
3C
102
{ACAD_REACTORS
330
1A
102
}
330
1A
100
AcDbPlotSettings
  1

  2
none_device
  4
ISO_A4_(210.00_x_297.00_MM)
  6

 40
3.17498779296875
 41
4.18040466308594
 42
13.23975372314453
 43
4.18041658401489
 44
210.0
 45
297.0
 46
10.15707892699004
 47
-1.20633025498211
 48
0.0
 49
0.0
140
0.0
141
0.0
142
1.0
143
1.0
 70
   672
 72
     1
 73
     1
 74
     5
  7

 75
    16
 76
     0
 77
     2
 78
   300
147
1.0
148
0.0
149
0.0
100
AcDbLayout
  1
Layout1
 70
     1
 71
     1
 10
-13.33206671995879
 20
-2.97407440810383
 11
283.5939281530881
 21
206.9992532286149
 12
0.0
 22
0.0
 32
0.0
 14
-13.33206671995879
 24
-2.97407440810383
 34
0.0
 15
283.5939281530881
 25
206.9992532286149
 35
0.0
146
0.0
 13
0.0
 23
0.0
 33
0.0
 16
1.0
 26
0.0
 36
0.0
 17
0.0
 27
1.0
 37
0.0
 76
     0
330
3B
331
229
  0
LAYOUT
  5
1E
102
{ACAD_REACTORS
330
1A
102
}
330
1A
100
AcDbPlotSettings
  1

  2
none_device
  4
ISO_C5_(229.00_x_162.00_MM)
  6

 40
0.0
 41
0.0
 42
0.0
 43
0.0
 44
229.0
 45
162.0
 46
0.0
 47
0.0
 48
0.0
 49
0.0
140
0.0
141
0.0
142
1.0
143
1.0
 70
   672
 72
     1
 73
     0
 74
     5
  7

 75
    16
 76
     0
 77
     2
 78
   300
147
1.0
148
0.0
149
0.0
100
AcDbLayout
  1
Layout2
 70
     1
 71
     2
 10
0.0
 20
0.0
 11
0.0
 21
0.0
 12
0.0
 22
0.0
 32
0.0
 14
0.0
 24
0.0
 34
0.0
 15
0.0
 25
0.0
 35
0.0
146
0.0
 13
0.0
 23
0.0
 33
0.0
 16
1.0
 26
0.0
 36
0.0
 17
0.0
 27
1.0
 37
0.0
 76
     0
330
1B
331
22B
  0
LAYOUT
  5
22
102
{ACAD_REACTORS
330
1A
102
}
330
1A
100
AcDbPlotSettings
  1

  2
none_device
  4
ISO_A4_(210.00_x_297.00_MM)
  6

 40
0.0
 41
0.0
 42
0.0
 43
0.0
 44
210.0
 45
297.0
 46
-69.84411190053282
 47
7.6008333333333
 48
0.0
 49
0.0
140
0.0
141
0.0
142
1.0
143
2.197031412208924
 70
  1712
 72
     1
 73
     1
 74
     0
  7

 75
     0
 76
     0
 77
     2
 78
   300
147
0.45515962787013
148
0.0
149
0.0
100
AcDbLayout
  1
Model
 70
     1
 71
     0
 10
69.84411190053282
 20
-7.6008333333333
 11
366.8441119005328
 21
202.3991666666667
 12
0.0
 22
0.0
 32
0.0
 14
69.84411190053282
 24
-7.6008333333333
 34
0.0
 15
366.8441119005328
 25
202.3991666666667
 35
0.0
146
0.0
 13
0.0
 23
0.0
 33
0.0
 16
1.0
 26
0.0
 36
0.0
 17
0.0
 27
1.0
 37
0.0
 76
     0
330
1F
331
29
  0
MLINESTYLE
  5
18
102
{ACAD_REACTORS
330
17
102
}
330
17
100
AcDbMlineStyle
  2
Standard
 70
     0
  3

 62
   256
 51
90.0
 52
90.0
 71
     4
 49
0.5
 62
   256
  6
BYLAYER
 49
-0.5
 62
   256
  6
BYLAYER
 49
0.5
 62
   256
  6
BYLAYER
 49
-0.5
 62
   256
  6
BYLAYER
  0
ACDBPLACEHOLDER
  5
F
102
{ACAD_REACTORS
330
E
102
}
330
E
  0
VISUALSTYLE
  5
2F
102
{ACAD_REACTORS
330
2A
102
}
330
2A
100
AcDbVisualStyle
  2
2dWireframe
 70
     4
 71
     0
 72
     2
 73
     0
 90
        0
 40
-0.6
 41
-30.0
 62
     5
 63
     7
421
 16777215
 74
     1
 91
        4
 64
     7
 65
   257
 75
     1
175
     1
 42
1.0
 92
        0
 66
   257
 43
1.0
 76
     1
 77
     6
 78
     2
 67
     7
 79
     5
170
     0
171
     0
290
     0
174
     0
 93
        1
 44
0.0
173
     0
291
     0
 45
0.0
1001
ACAD
1000
AcDbSavedByObjectVersion
1070
     0
  0
VISUALSTYLE
  5
31
102
{ACAD_REACTORS
330
2A
102
}
330
2A
100
AcDbVisualStyle
  2
3D Hidden
 70
     6
 71
     1
 72
     2
 73
     2
 90
        0
 40
-0.6
 41
-30.0
 62
     5
 63
     7
421
 16777215
 74
     2
 91
        2
 64
     7
 65
   257
 75
     2
175
     1
 42
40.0
 92
        0
 66
   257
 43
1.0
 76
     1
 77
     6
 78
     2
 67
     7
 79
     3
170
     0
171
     0
290
     0
174
     0
 93
        1
 44
0.0
173
     0
291
     0
 45
0.0
1001
ACAD
1000
AcDbSavedByObjectVersion
1070
     0
  0
VISUALSTYLE
  5
30
102
{ACAD_REACTORS
330
2A
102
}
330
2A
100
AcDbVisualStyle
  2
3dWireframe
 70
     5
 71
     0
 72
     2
 73
     0
 90
        0
 40
-0.6
 41
-30.0
 62
     5
 63
     7
421
 16777215
 74
     1
 91
        4
 64
     7
 65
   257
 75
     1
175
     1
 42
1.0
 92
        0
 66
   257
 43
1.0
 76
     1
 77
     6
 78
     2
 67
     7
 79
     5
170
     0
171
     0
290
     0
174
     0
 93
        1
 44
0.0
173
     0
291
     0
 45
0.0
1001
ACAD
1000
AcDbSavedByObjectVersion
1070
     0
  0
VISUALSTYLE
  5
32
102
{ACAD_REACTORS
330
2A
102
}
330
2A
100
AcDbVisualStyle
  2
Basic
 70
     7
 71
     1
 72
     0
 73
     1
 90
        0
 40
-0.6
 41
-30.0
 62
     5
 63
     7
421
 16777215
 74
     0
 91
        4
 64
     7
 65
   257
 75
     1
175
     1
 42
1.0
 92
        8
 66
     7
 43
1.0
 76
     1
 77
     6
 78
     2
 67
     7
 79
     5
170
     0
171
     0
290
     0
174
     0
 93
        1
 44
0.0
173
     0
291
     1
 45
0.0
1001
ACAD
1000
AcDbSavedByObjectVersion
1070
     0
  0
VISUALSTYLE
  5
36
102
{ACAD_REACTORS
330
2A
102
}
330
2A
100
AcDbVisualStyle
  2
Brighten
 70
    12
 71
     2
 72
     2
 73
     0
 90
        0
 40
-0.6
 41
-30.0
 62
     5
 63
     7
421
 16777215
 74
     1
 91
        4
 64
     7
 65
   257
 75
     1
175
     1
 42
1.0
 92
        8
 66
     7
 43
1.0
 76
     1
 77
     6
 78
     2
 67
     7
 79
     5
170
     0
171
     0
290
     0
174
     0
 93
        1
 44
50.0
173
     0
291
     1
 45
0.0
1001
ACAD
1000
AcDbSavedByObjectVersion
1070
     0
  0
VISUALSTYLE
  5
3A
102
{ACAD_REACTORS
330
2A
102
}
330
2A
100
AcDbVisualStyle
  2
ColorChange
 70
    16
 71
     2
 72
     2
 73
     3
 90
        0
 40
-0.6
 41
-30.0
 62
     5
 63
     8
421
  8421504
 74
     1
 91
        4
 64
     7
 65
   257
 75
     1
175
     1
 42
1.0
 92
        8
 66
     8
424
  8421504
 43
1.0
 76
     1
 77
     6
 78
     2
 67
     7
 79
     5
170
     0
171
     0
290
     0
174
     0
 93
        1
 44
0.0
173
     0
291
     1
 45
0.0
1001
ACAD
1000
AcDbSavedByObjectVersion
1070
     0
  0
VISUALSTYLE
  5
34
102
{ACAD_REACTORS
330
2A
102
}
330
2A
100
AcDbVisualStyle
  2
Conceptual
 70
     9
 71
     3
 72
     2
 73
     0
 90
        0
 40
-0.6
 41
-30.0
 62
     5
 63
     7
421
 16777215
 74
     2
 91
        2
 64
     7
 65
   257
 75
     1
175
     1
 42
40.0
 92
        8
 66
     7
 43
1.0
 76
     1
 77
     6
 78
     2
 67
     7
 79
     3
170
     0
171
     0
290
     0
174
     0
 93
        1
 44
0.0
173
     0
291
     0
 45
0.0
1001
ACAD
1000
AcDbSavedByObjectVersion
1070
     0
  0
VISUALSTYLE
  5
35
102
{ACAD_REACTORS
330
2A
102
}
330
2A
100
AcDbVisualStyle
  2
Dim
 70
    11
 71
     2
 72
     2
 73
     0
 90
        0
 40
-0.6
 41
-30.0
 62
     5
 63
     7
421
 16777215
 74
     1
 91
        4
 64
     7
 65
   257
 75
     1
175
     1
 42
1.0
 92
        8
 66
     7
 43
1.0
 76
     1
 77
     6
 78
     2
 67
     7
 79
     5
170
     0
171
     0
290
     0
174
     0
 93
        1
 44
-50.0
173
     0
291
     1
 45
0.0
1001
ACAD
1000
AcDbSavedByObjectVersion
1070
     0
  0
VISUALSTYLE
  5
39
102
{ACAD_REACTORS
330
2A
102
}
330
2A
100
AcDbVisualStyle
  2
Facepattern
 70
    15
 71
     2
 72
     2
 73
     0
 90
        0
 40
-0.6
 41
-30.0
 62
     5
 63
     7
421
 16777215
 74
     1
 91
        4
 64
     7
 65
   257
 75
     1
175
     1
 42
1.0
 92
        8
 66
     7
 43
1.0
 76
     1
 77
     6
 78
     2
 67
     7
 79
     5
170
     0
171
     0
290
     0
174
     0
 93
        1
 44
0.0
173
     0
291
     1
 45
0.0
1001
ACAD
1000
AcDbSavedByObjectVersion
1070
     0
  0
VISUALSTYLE
  5
2B
102
{ACAD_REACTORS
330
2A
102
}
330
2A
100
AcDbVisualStyle
  2
Flat
 70
     0
 71
     2
 72
     1
 73
     1
 90
        2
 40
-0.6
 41
30.0
 62
     5
 63
     7
421
 16777215
 74
     0
 91
        4
 64
     7
 65
   257
 75
     1
175
     1
 42
1.0
 92
        8
 66
     7
 43
1.0
 76
     1
 77
     6
 78
     2
 67
     7
 79
     5
170
     0
171
     0
290
     0
174
     0
 93
       13
 44
0.0
173
     0
291
     1
 45
0.0
1001
ACAD
1000
AcDbSavedByObjectVersion
1070
     0
  0
VISUALSTYLE
  5
2C
102
{ACAD_REACTORS
330
2A
102
}
330
2A
100
AcDbVisualStyle
  2
FlatWithEdges
 70
     1
 71
     2
 72
     1
 73
     1
 90
        2
 40
-0.6
 41
30.0
 62
     5
 63
     7
421
 16777215
 74
     1
 91
        4
 64
     7
 65
   257
 75
     1
175
     1
 42
1.0
 92
        0
 66
   257
 43
1.0
 76
     1
 77
     6
 78
     2
 67
     7
 79
     5
170
     0
171
     0
290
     0
174
     0
 93
       13
 44
0.0
173
     0
291
     1
 45
0.0
1001
ACAD
1000
AcDbSavedByObjectVersion
1070
     0
  0
VISUALSTYLE
  5
2D
102
{ACAD_REACTORS
330
2A
102
}
330
2A
100
AcDbVisualStyle
  2
Gouraud
 70
     2
 71
     2
 72
     2
 73
     1
 90
        2
 40
-0.6
 41
30.0
 62
     5
 63
     7
421
 16777215
 74
     0
 91
        4
 64
     7
 65
   257
 75
     1
175
     1
 42
1.0
 92
        0
 66
     7
 43
1.0
 76
     1
 77
     6
 78
     2
 67
     7
 79
     5
170
     0
171
     0
290
     0
174
     0
 93
       13
 44
0.0
173
     0
291
     1
 45
0.0
1001
ACAD
1000
AcDbSavedByObjectVersion
1070
     0
  0
VISUALSTYLE
  5
2E
102
{ACAD_REACTORS
330
2A
102
}
330
2A
100
AcDbVisualStyle
  2
GouraudWithEdges
 70
     3
 71
     2
 72
     2
 73
     1
 90
        2
 40
-0.6
 41
30.0
 62
     5
 63
     7
421
 16777215
 74
     1
 91
        4
 64
     7
 65
   257
 75
     1
175
     1
 42
1.0
 92
        0
 66
   257
 43
1.0
 76
     1
 77
     6
 78
     2
 67
     7
 79
     5
170
     0
171
     0
290
     0
174
     0
 93
       13
 44
0.0
173
     0
291
     1
 45
0.0
1001
ACAD
1000
AcDbSavedByObjectVersion
1070
     0
  0
VISUALSTYLE
  5
38
102
{ACAD_REACTORS
330
2A
102
}
330
2A
100
AcDbVisualStyle
  2
Linepattern
 70
    14
 71
     2
 72
     2
 73
     0
 90
        0
 40
-0.6
 41
-30.0
 62
     5
 63
     7
421
 16777215
 74
     1
 91
        4
 64
     7
 65
   257
 75
     7
175
     7
 42
1.0
 92
        8
 66
     7
 43
1.0
 76
     1
 77
     6
 78
     2
 67
     7
 79
     5
170
     0
171
     0
290
     0
174
     0
 93
        1
 44
0.0
173
     0
291
     1
 45
0.0
1001
ACAD
1000
AcDbSavedByObjectVersion
1070
     0
  0
VISUALSTYLE
  5
33
102
{ACAD_REACTORS
330
2A
102
}
330
2A
100
AcDbVisualStyle
  2
Realistic
 70
     8
 71
     2
 72
     2
 73
     0
 90
        0
 40
-0.6
 41
-30.0
 62
     5
 63
     7
421
 16777215
 74
     1
 91
        0
 64
     7
 65
   257
 75
     1
175
     1
 42
1.0
 92
        8
 66
     8
424
  7895160
 43
1.0
 76
     1
 77
     6
 78
     2
 67
     7
 79
     5
170
     0
171
     0
290
     0
174
     0
 93
       13
 44
0.0
173
     0
291
     0
 45
0.0
1001
ACAD
1000
AcDbSavedByObjectVersion
1070
     0
  0
VISUALSTYLE
  5
37
102
{ACAD_REACTORS
330
2A
102
}
330
2A
100
AcDbVisualStyle
  2
Thicken
 70
    13
 71
     2
 72
     2
 73
     0
 90
        0
 40
-0.6
 41
-30.0
 62
     5
 63
     7
421
 16777215
 74
     1
 91
        4
 64
     7
 65
   257
 75
     1
175
     1
 42
1.0
 92
       12
 66
     7
 43
1.0
 76
     1
 77
     6
 78
     2
 67
     7
 79
     5
170
     0
171
     0
290
     0
174
     0
 93
        1
 44
0.0
173
     0
291
     1
 45
0.0
1001
ACAD
1000
AcDbSavedByObjectVersion
1070
     0
  0
ENDSEC
  0
SECTION
  2
THUMBNAILIMAGE
 90
    16364
310
28000000B40000005500000001000800000000000000000000000000000000000000000000000000FFFFFF000000FF0000FFFF0000FF0000FFFF0000FF000000FF00FF000000000080808000C0C0C0000000FF007F7FFF000000A5005252A50000007F003F3F7F0000004C0026264C000000260013132600003FFF007F9FFF
310
000029A5005267A500001F7F003F4F7F0000134C00262F4C000009260013172600007FFF007FBFFF000052A500527CA500003F7F003F5F7F0000264C0026394C0000132600131C260000BFFF007FDFFF00007CA5005291A500005F7F003F6F7F0000394C0026424C00001C26001321260000FFFF007FFFFF0000A5A50052A5
310
A500007F7F003F7F7F00004C4C00264C4C00002626001326260000FFBF007FFFDF0000A57C0052A59100007F5F003F7F6F00004C3900264C420000261C001326210000FF7F007FFFBF0000A5520052A57C00007F3F003F7F5F00004C2600264C39000026130013261C0000FF3F007FFF9F0000A5290052A56700007F1F003F
310
7F4F00004C1300264C2F00002609001326170000FF00007FFF7F0000A5000052A55200007F00003F7F3F00004C0000264C260000260000132613003FFF00009FFF7F0029A5000067A552001F7F00004F7F3F00134C00002F4C260009260000172613007FFF0000BFFF7F0052A500007CA552003F7F00005F7F3F00264C0000
310
394C2600132600001C261300BFFF0000DFFF7F007CA5000091A552005F7F00006F7F3F00394C0000424C26001C26000021261300FFFF0000FFFF7F00A5A50000A5A552007F7F00007F7F3F004C4C00004C4C26002626000026261300FFBF0000FFDF7F00A57C0000A59152007F5F00007F6F3F004C3900004C422600261C00
310
0026211300FF7F0000FFBF7F00A5520000A57C52007F3F00007F5F3F004C2600004C39260026130000261C1300FF3F0000FF9F7F00A5290000A56752007F1F00007F4F3F004C1300004C2F26002609000026171300FF000000FF7F7F00A5000000A55252007F0000007F3F3F004C0000004C2626002600000026131300FF00
310
3F00FF7F9F00A5002900A55267007F001F007F3F4F004C0013004C262F002600090026131700FF007F00FF7FBF00A5005200A5527C007F003F007F3F5F004C0026004C2639002600130026131C00FF00BF00FF7FDF00A5007C00A55291007F005F007F3F6F004C0039004C26420026001C0026132100FF00FF00FF7FFF00A5
310
00A500A552A5007F007F007F3F7F004C004C004C264C002600260026132600BF00FF00DF7FFF007C00A5009152A5005F007F006F3F7F0039004C0042264C001C002600211326007F00FF00BF7FFF005200A5007C52A5003F007F005F3F7F0026004C0039264C00130026001C1326003F00FF009F7FFF002900A5006752A500
310
1F007F004F3F7F0013004C002F264C000900260017132600000000002D2D2D005B5B5B0089898900B7B7B700B3B3B30000000000000000000000000000000000000000000000000000000000000000000000000000000000000000000000000000000000000000000000000000000000000000000000000000000000000000
310
00000000000000000000000000000000000000000000000000000000000000000000000000000000000000000000000000000000000000000000000000000000000000000000000000000000000000000000000000000000000000000000000000000000000000000000000000000000000000000000000000000000000000
310
00000000000000000000000000000000000000000000000000000000000000000000000000000000000000000000000000000000000000000000000000000000000000000000000000000000000000000000000000000000000000000000000000000000000000000000000000000000000000000000000000000000000000
310
00000000000000000000000000000000000000000000000000000000000000000000000000000000000000000000000000000000000000000000000000000000000000000000000000000000000000000000000000000000000000000000000000000000000000000000000000000000000000000000000000000000000000
310
00000000000000000000000000000000000000000000000000000000000000000000000000000000000000000000000000000000000000000000000000000000000000000000000000000000000000000000000000000000000000000000000000000000000000000000000000000000000000000000000000000000000000
310
00000000000000000000000000000000000000000000000000000000000000000000000000000000000000000000000000000000000000000000000000000000000000000000000000000000000000000000000000000000000000000000000000000000000000000000000000000000000000000000000000000000000000
310
00000000000000000000000000000000000000000000000000000000000000000000000000000000000000000000000000000000000000000000000000000000000000000000000000000000000000000000000000000000000000000000000000000000000000000000000000000000000000000000000000000000000000
310
00000000000000000000000000000000000000000000000000000000000000000000000000000000000000000000000000000000000000000000000000000000000000000000000000000000000000000000000000000000000000000000000000000000000000000000000000000000000000000000000000000000000000
310
00000000000000000000000000000000000000000000000000000000000000000000000000000000000000000000000000000000000000000000000000000000000000000000000000000000000000000000000000000000000000000000000000000000000000000000000000000000000000000000000000000000000000
310
00000000000000000000000000000000000000000000000000000000000000000000000000000000000000000000000000000000000000000000000000000000000000000000000000000000000000000000000000000000000000000000000000000000000000000000000000000000000000000000000000000000000000
310
00000000000000000000000000000000000000000000000000000000000000000000000000000000000000000000000000000000000000000000000000000000000000000000000000000000000000000000000000000000000000000000000000000000000000000000000000000000000000000000000000000000000000
310
00000000000000000000000000000000000000000000000000000000000000000000000000000000000000000000000000000000000000000000000000000000000000000000000000000000000000000000000000000000000000000000000000000000000000000000000000000000000000000000000000000000000000
310
00000000000000000000000000000000000000000000000000000000000000000000000000000000000000000000000000000000000000000000000000000000000000000000000000000000000000000000000000000000000000000000000000000000000000000000000000000000000000000000000000000000000000
310
00000000000000000000000000000000000000000000000000000000000000000000000000000000000000000000000000000000000000000000000000000000000000000000000000000000000000000000000000000000000000000000000000000000000000000000000000000000000000000000000000000000000000
310
00000000000000000000000000000000000000000000000000000000000000000000000000000000000000000000000000000000000000000000000000000000000000000000000000000000000000000000000000000000000000000000000000000000000000000000000000000000000000000000000000000000000000
310
00000000000000000000000000000000000000000000000000000000000000000000000000000000000000000000000000000000000000000000000000000000000000000000000000000000000000000000000000000000000000000000000000000000000000000000000000000000000000000000000000000000000000
310
00000000000000000000000000000000000000000000000000000000000000000000000000000000000000000000000000000000000000000000000000000000000000000000000000000000000000000000000000000000000000000000000000000000000000000000000000000000000000000000000000000000000000
310
00000000000000000000000000000000000000000000000000000000000000000000000000000000000000000000000000000000000000000000000000000000000000000000000000000000000000000000000000000000000000000000000000000000000000000000000000000000000000000000000000000000000000
310
00000000000000000000000000000000000000000000000000000000000000000000000000000000000000000000000000000000000000000000000000000000000000000000000000000000000000000000000000000000000000000000000000000000000000000000000000000000000000000000000000000000000000
310
00000000000000000000000000000000000000000000000000000000000000000000000000000000000000000000000000000000000000000000000000000000000000000000000000000000000000000000000000000000000000000000000000000000000000000000000000000000000000000000000000000000000000
310
00000000000000000000000000000000000000000000000000000000000000000000000000000000000000000000000000000000000000000000000000000000000000000000000000000000000000000000000000000000000000000000000000000000000000000000000000000000000000000000000000000000000000
310
00000000000000000000000000000000000000000000000000000000000000000000000000000000000000000000000000000000000000000000000000000000000000000000000000000000000000000000000000000000000000000000000000000000000000000000000000000000000000000000000000000000000000
310
00000000000000000000000000000000000000000000000000000000000000000000000000000000000000000000000000000000000000000000000000000000000000000000000000000000000000000000000000000000000000000000000000000000000000000000000000000000000000000000000000000000000000
310
00000000000000000000000000000000000000000000000000000000000000000000000000000000000000000000000000000000000000000000000000000000000000000000000000000000000000000000000000000000000000000000000000000000000000000000000000000000000000000000000000000000000000
310
00000000000000000000000000000000000000000000000000000000000000000000000000000000000000000000000000000000000000000000000000000000000000000000000000000000000000000000000000000000000000000000000000000000000000000000000000000000000000000000000000000000000000
310
00000000000000000000000000000000000000000000000000000000000000000000000000000000000000000000000000000000000000000000000000000000000000000000000000000000000000000000000000000000000000000000000000000000000000000000000000000000000000000000000000000000000000
310
00000000000000000000000000000000000000000000000000000000000000000000000000000000000000000000000000000000000000000000000000000000000000000000000000000000000000000000000000000000000000000000000000000000000000000000000000000000000000000000000000000000000000
310
00000000000000000000000000000000000000000000000000000000000000000000000000000000000000000000000000000000000000000000000000000000000000000000000000000000000000000000000000000000000000000000000000000000000000000000000000000000000000000000000000000000000000
310
00000000000000000000000000000000000000000000000000000000000000000000000000000000000000000000000000000000000000000000000000000000000000000000000000000000000000000000000000000000000000000000000000000000000000000000000000000000000000000000000000000000000000
310
00000000000000000000000000000000000000000000000000000000000000000000000000000000000000000000000000000000000000000000000000000000000000000000000000000000000000000000000000000000000000000000000000000000000000000000000000000000000000000000000000000000000000
310
00000000000000000000000000000000000000000000000000000000000000000000000000000000000000000000000000000000000000000000000000000000000000000000000000000000000000000000000000000000000000000000000000000000000000000000000000000000000000000000000000000000000000
310
00000000000000000000000000000000000000000000000000000000000000000000000000000000000000000000000000000000000000000000000000000000000000000000000000000000000000000000000000000000000000000000000000000000000000000000000000000000000000000000000000000000000000
310
00000000000000000000000000000000000000000000000000000000000000000000000000000000000000000000000000000000000000000000000000000000000000000000000000000000000000000000000000000000000000000000000000000000000000000000000000000000000000000000000000000000000000
310
00000000000000000000000000000000000000000000000000000000000000000000000000000000000000000000000000000000000000000000000000000000000000000000000000000000000000000000000000000000000000000000000000000000000000000000000000000000000000000000000000000000000000
310
00000000000000000000000000000000000000000000000000000000000000000000000000000000000000000000000000000000000000000000000000000000000000000000000000000000000000000000000000000000000000000000000000000000000000000000000000000000000000000000000000000000000000
310
00000000000000000000000000000000000000000000000000000000000000000000000000000000000000000000000000000000000000000000000000000000000000000000000000000000000000000000000000000000000000000000000000000000000000000000000000000000000000000000000000000000000000
310
00000000000000000000000000000000000000000000000000000000000000000000000000000000000000000000000000000000000000000000000000000000000000000000000000000000000000000000000000000000000000000000000000000000000000000000000000000000000000000000000000000000000000
310
00000000000000000000000000000000000000000000000000000000000000000000000000000000000000000000000000000000000000000000000000000000000000000000000000000000000000000000000000000000000000000000000000000000000000000000000000000000000000000000000000000000000000
310
00000000000000000000000000000000000000000000000000000000000000000000000000000000000000000000000000000000000000000000000000000000000000000000000000000000000000000000000000000000000000000000000000000000000000000000000000000000000000000000000000000000000000
310
00000000000000000000000000000000000000000000000000000000000000000000000000000000000000000000000000000000000000000000000000000000000000000000000000000000000000000000000000000000000000000000000000000000000000000000000000000000000000000000000000000000000000
310
00000000000000000000000000000000000000000000000000000000000000000000000000000000000000000000000000000000000000000000000000000000000000000000000000000000000000000000000000000000000000000000000000000000000000000000000000000000000000000000000000000000000000
310
00000000000000000000000000000000000000000000000000000000000000000000000000000000000000000000000000000000000000000000000000000000000000000000000000000000000000000000000000000000000000000000000000000000000000000000000000000000000000000000000000000000000000
310
00000000000000000000000000000000000000000000000000000000000000000000000000000000000000000000000000000000000000000000000000000000000000000000000000000000000000000000000000000000000000000000000000000000000000000000000000000000000000000000000000000000000000
310
00000000000000000000000000000000000000000000000000000000000000000000000000000000000000000000000000000000000000000000000000000000000000000000000000000000000000000000000000000000000000000000000000000000000000000000000000000000000000000000000000000000000000
310
00000000000000000000000000000000000000000000000000000000000000000000000000000000000000000000000000000000000000000000000000000000000000000000000000000000000000000000000000000000000000000000000000000000000000000000000000000000000000000000000000000000000000
310
00000000000000000000000000000000000000000000000000000000000000000000000000000000000000000000000000000000000000000000000000000000000000000000000000000000000000000000000000000000000000000000000000000000000000000000000000000000000000000000000000000000000000
310
00000000000000000000000000000000000000000000000000000000000000000000000000000000000000000000000000000000000000000000000000000000000000000000000000000000000000000000000000000000000000000000000000000000000000000000000000000000000000000000000000000000000000
310
00000000000000000000000000000000000000000000000000000000000000000000000000000000000000000000000000000000000000000000000000000000000000000000000000000000000000000000000000000000000000000000000000000000000000000000000000000000000000000000000000000000000000
310
00000000000000000000000000000000000000000000000000000000000000000000000000000000000000000000000000000000000000000000000000000000000000000000000000000000000000000000000000000000000000000000000000000000000000000000000000000000000000000000000000000000000000
310
00000000000000000000000000000000000000000000000000000000000000000000000000000000000000000000000000000000000000000000000000000000000000000000000000000000000000000000000000000000000000000000000000000000000000000000000000000000000000000000000000000000000000
310
00000000000000000000000000000000000000000000000000000000000000000000000000000000000000000000000000000000000000000000000000000000000000000000000000000000000000000000000000000000000000000000000000000000000000000000000000000000000000000000000000000000000000
310
00000000000000000000000000000000000000000000000000000000000000000000000000000000000000000000000000000000000000000000000000000000000000000000000000000000000000000000000000000000000000000000000000000000000000000000000000000000000000000000000000000000000000
310
00000000000000000000000000000000000000000000000000000000000000000000000000000000000000000000000000000000000000000000000000000000000000000000000000000000000000000000000000000000000000000000000000000000000000000000000000000000000000000000000000000000000000
310
00000000000000000000000000000000000000000000000000000000000000000000000000000000000000000000000000000000000000000000000000000000000000000000000000000000000000000000000000000000000000000000000000000000000000000000000000000000000000000000000000000000000000
310
00000000000000000000000000000000000000000000000000000000000000000000000000000000000000000000000000000000000000000000000000000000000000000000000000000000000000000000000000000000000000000000000000000000000000000000000000000000000000000000000000000000000000
310
00000000000000000000000000000000000000000000000000000000000000000000000000000000000000000000000000000000000000000000000000000000000000000000000000000000000000000000000000000000000000000000000000000000000000000000000000000000000000000000000000000000000000
310
00000000000000000000000000000000000000000000000000000000000000000000000000000000000000000000000000000000000000000000000000000000000000000000000000000000000000000000000000000000000000000000000000000000000000000000000000000000000000000000000000000000000000
310
00000000000000000000000000000000000000000000000000000000000000000000000000000000000000000000000000000000000000000000000000000000000000000000000000000000000000000000000000000000000000000000000000000000000000000000000000000000000000000000000000000000000000
310
00000000000000000000000000000000000000000000000000000000000000000000000000000000000000000000000000000000000000000000000000000000000000000000000000000000000000000000000000000000000000000000000000000000000000000000000000000000000000000000000000000000000000
310
00000000000000000000000000000000000000000000000000000000000000000000000000000000000000000000000000000000000000000000000000000000000000000000000000000000000000000000000000000000000000000000000000000000000000000000000000000000000000000000000000000000000000
310
00000000000000000000000000000000000000000000000000000000000000000000000000000000000000000000000000000000000000000000000000000000000000000000000000000000000000000000000000000000000000000000000000000000000000000000000000000000000000000000000000000000000000
310
00000000000000000000000000000000000000000000000000000000000000000000000000000000000000000000000000000000000000000000000000000000000000000000000000000000000000000000000000000000000000000000000000000000000000000000000000000000000000000000000000000000000000
310
00000000000000000000000000000000000000000000000000000000000000000000000000000000000000000000000000000000000000000000000000000000000000000000000000000000000000000000000000000000000000000000000000000000000000000000000000000000000000000000000000000000000000
310
00000000000000000000000000000000000000000000000000000000000000000000000000000000000000000000000000000000000000000000000000000000000000000000000000000000000000000000000000000000000000000000000000000000000000000000000000000000000000000000000000000000000000
310
00000000000000000000000000000000000000000000000000000000000000000000000000000000000000000000000000000000000000000000000000000000000000000000000000000000000000000000000000000000000000000000000000000000000000000000000000000000000000000000000000000000000000
310
00000000000000000000000000000000000000000000000000000000000000000000000000000000000000000000000000000000000000000000000000000000000000000000000000000000000000000000000000000000000000000000000000000000000000000000000000000000000000000000000000000000000000
310
00000000000000000000000000000000000000000000000000000000000000000000000000000000000000000000000000000000000000000000000000000000000000000000000000000000000000000000000000000000000000000000000000000000000000000000000000000000000000000000000000000000000000
310
00000000000000000000000000000000000000000000000000000000000000000000000000000000000000000000000000000000000000000000000000000000000000000000000000000000000000000000000000000000000000000000000000000000000000000000000000000000000000000000000000000000000000
310
00000000000000000000000000000000000000000000000000000000000000000000000000000000000000000000000000000000000000000000000000000000000000000000000000000000000000000000000000000000000000000000000000000000000000000000000000000000000000000000000000000000000000
310
00000000000000000000000000000000000000000000000000000000000000000000000000000000000000000000000000000000000000000000000000000000000000000000000000000000000000000000000000000000000000000000000000000000000000000000000000000000000000000000000000000000000000
310
00000000000000000000000000000000000000000000000000000000000000000000000000000000000000000000000000000000000000000000000000000000000000000000000000000000000000000000000000000000000000000000000000000000000000000000000000000000000000000000000000000000000000
310
00000000000000000000000000000000000000000000000000000000000000000000000000000000000000000000000000000000000000000000000000000000000000000000000000000000000000000000000000000000000000000000000000000000000000000000000000000000000000000000000000000000000000
310
00000000000000000000000000000000000000000000000000000000000000000000000000000000000000000000000000000000000000000000000000000000000000000000000000000000000000000000000000000000000000000000000000000000000000000000000000000000000000000000000000000000000000
310
00000000000000000000000000000000000000000000000000000000000000000000000000000000000000000000000000000000000000000000000000000000000000000000000000000000000000000000000000000000000000000000000000000000000000000000000000000000000000000000000000000000000000
310
00000000000000000000000000000000000000000000000000000000000000000000000000000000000000000000000000000000000000000000000000000000000000000000000000000000000000000000000000000000000000000000000000000000000000000000000000000000000000000000000000000000000000
310
00000000000000000000000000000000000000000000000000000000000000000000000000000000000000000000000000000000000000000000000000000000000000000000000000000000000000000000000000000000000000000000000000000000000000000000000000000000000000000000000000000000000000
310
00000000000000000000000000000000000000000000000000000000000000000000000000000000000000000000000000000000000000000000000000000000000000000000000000000000000000000000000000000000000000000000000000000000000000000000000000000000000000000000000000000000000000
310
00000000000000000000000000000000000000000000000000000000000000000000000000000000000000000000000000000000000000000000000000000000000000000000000000000000000000000000000000000000000000000000000000000000000000000000000000000000000000000000000000000000000000
310
00000000000000000000000000000000000000000000000000000000000000000000000000000000000000000000000000000000000000000000000000000000000000000000000000000000000000000000000000000000000000000000000000000000000000000000000000000000000000000000000000000000000000
310
00000000000000000000000000000000000000000000000000000000000000000000000000000000000000000000000000000000000000000000000000000000000000000000000000000000000000000000000000000000000000000000000000000000000000000000000000000000000000000000000000000000000000
310
00000000000000000000000000000000000000000000000000000000000000000000000000000000000000000000000000000000000000000000000000000000000000000000000000000000000000000000000000000000000000000000000000000000000000000000000000000000000000000000000000000000000000
310
00000000000000000000000000000000000000000000000000000000000000000000000000000000000000000000000000000000000000000001010101010101010101010000000000000000000101010101010000000000000000000000000000000000000000000000000000000000000000000000000000000000000000
310
00000000000000000000000000000000000000000000000000000000000000000000000000000000000000000000000000000000000000000000000000000000000000000000000000000000000000000000000000000000000000000000000000000000000000000000000000010101010101010101010101000000000000
310
00000001010101010101010101000000000000010101010000000000000000000000000000000000000000000000000000000000000000000000000000000000000000000000000000000000000000000000000000000000000000000000000000000000000000000000000000000000000000000000000000000000000000
310
00000000000000000000000000000000000000000000000000000000000000000000000101010101010100010001010000000000000000000101010100000000000100000000000001000001000000000000000000000000000000000000000000000000000000000000000000000000000000000000000000000000000000
310
00000000000000000000000000000000000000000000000000000000000000000000000000000000000000000000000000000000000000000000000000000000000000000000000000000000000000000000000000000000010101000001010100010101000000000000000000010101010000000000010000000000010000
310
00010000000000000000000000000000000000000000000000000000000000000000000000000000000000000000000000000000000000000000000000000000000000000000000000000000000000000000000000000000000000000000000000000000000000000000000000000000000000000000000000000000000000
310
00000000000000000000000000000101010000010001000001010000000000000000000101010001000000000100000000000100000101000000000000000000000000000000000000000000000000000000000000000000000000000000000000000000000000000000000000000000000000000000000000000000000000
310
00000000000000000000000000000000000000000000000000000000000000000000000000000000000000000000000000000000000000000000000000000000000000010101000001010001010101000000000000000000010101010000000000010000000000010001010100000000000000000000000000000000000000
310
00000000000000000000000000000000000000000000000000000000000000000000000000000000000000000000000000000000000000000000000000000000000000000000000000000000000000000000000000000000000000000000000000000000000000000000000000000000000000000000000001010101010101
310
00000001010000000000000000000101010100000000010100000000010000010001000000000000000000000000000000000000000000000000000000000000000000000000000000000000000000000000000000000000000000000000000000000000000000000000000000000000000000000000000000000000000000
310
00000000000000000000000000000000000000000000000000000000000000000000000000000000000000000000010101010101010101010101000000000000000000010101010101010100000000000001000001010100000000000000000000000000000000000000000000000000000000000000000000000000000000
310
00000000000000000000000000000000000000000000000000000000000000000000000000000000000000000000000000000000000000000000000000000000000000000000000000000000000000000000000000000000000000000000000000000000010101010100000000000100000000000000000001010101000100
310
00000000000000010000010000000000000000000000000000000000000000000000000000000000000000000000000000000000000000000000000000000000000000000000000000000000000000000000000000000000000000000000000000000000000000000000000000000000000000000000000000000000000000
310
00000000000000000000000000000000000000000000000000000000000001000000000001000000000000000000000000010000010000000000000100000100000000000000000000000000000000000000000000000000000000000000000000000000000000000000000000000000000000000000000000000000000000
310
00000000000000000000000000000000000000000000000000000000000000000000000000000000000000000000000000000000000000000000000000000000000000000000000000000000000000000000000100000000000100000000000000000000000001000001000000000000010000010000000000000000000000
310
00000000000000000000000000000000000000000000000000000000000000000000000000000000000000000000000000000000000000000000000000000000000000000000000000000000000000000000000000000000000000000000000000000000000000000000000000000000000000000000000000000000000000
310
00000000000000000001000001000001000000000000000000000000000100000101010101010000000100000000000000000000000000000000000000000000000000000000000000000000000000000000000000000000000000000000000000000000000000000000000000000000000000000000000000000000000000
310
00000000000000000000000000000000000000000000000000000000000000000000000000000000000000000000000000000000000000000000000000000100010001000100000000000000000000000000010000000000000000000001000000000000000000000000000000000000000000000000000000000000000000
310
00000000000000000000000000000000000000000000000000000000000000000000000000000000000000000000000000000000000000000000000000000000000000000000000000000000000000000000000000000000000000000000000000000000000000000000000000000000000000010001000001010000000000
310
00000000000000000100000000000000000000010000000000000000000000000000000000000000000000000000000000000000000000000000000000000000000000000000000000000000000000000000000000000000000000000000000000000000000000000000000000000000000000000000000000000000000000
310
00000000000000000000000000000000000000000000000000000000000000000000000000000000000100010000010100000000000000000000000000010000000000000000000001000000000000000000000000000000000000000000000000000000000000000000000000000000000000000000000000000000000000
310
00000000000000000000000000000000000000000000000000000000000000000000000000000000000000000000000000000000000000000000000000000000000000000000000000000000000000000000000000000000000000000000010001000001010000000000000000000000000000010000000000000000010000
310
00000000000000000000000000000000000000000000000000000000000000000000000000000000000000000000000000000000000000000000000000000000000000000000000000000000000000000000000000000000000000000000000000000000000000000000000000000000000000000000000000000000000000
310
00000000000000000000000000000000000000000100010000010100000000000000000000000000000100000000000000000100000000000000000000000000000000000000000000000000000000000000000000000000000000000000000000000000000000000000000000000000000000000000000000000000000000
310
00000000000000000000000000000000000000000000000000000000000000000000000000000000000000000000000000000000000000000000000000000000000000000000000000010001000001010000000000000000000000000000010000000000000000010000000000000000000000000000000000000000000000
310
00000000000000000000000000000000000000000000000000000000000000000000000000000000000000000000000000000000000000000000000000000000000000000000000000000000000000000000000000000000000000000000000000000000000000000000000000000000000000000000000000000000000001
310
00000101000100000000000000000000000000000001000000000000010000000000000000000000000000000000000000000000000000000000000000000000000000000000000000000000000000000000000000000000000000000000000000000000000000000000000000000000000000000000000000000000000000
310
00000000000000000000000000000000000000000000000000000000000000000000000000000000000000000000000000000000010101010101010000000000000000000000000000000100000000000001000000000000000000000000000000000000000000000000000000000000000000000000000000000000000000
310
00000000000000000000000000000000000000000000000000000000000000000000000000000000000000000000000000000000000000000000000000000000000000000000000000000000000000000000000000000000000000000000000000000000000000000000010101010100000000000000000000000000000000
310
00010101010101000000000000000000000000000000000000000000000000000000000000000000000000000000000000000000000000000000000000000000000000000000000000000000000000000000000000000000000000000000000000000000000000000000000000000000000000000000000000000000000000
310
00000000000000000000000000000000000000000000000000000000000000000000000000000000000000000000000000000000000000000000000000000000000000000000000000000000000000000000000000000000000000000000000000000000000000000000000000000000000000000000000000000000000000
310
00000000000000000000000000000000000000000000000000000000000000000000000000000000000000000000000000000000000000000000000000000000000000000000000000000000000000000000000000000000000000000000000000000000000000000000000000000000000000000000000000000000000000
310
00000000000000000000000000000000000000000000000000000000000000000000000000000000000000000000000000000000000000000000000000000000000000000000000000000000000000000000000000000000000000000000000000000000000000000000000000000000000000000000000000000000000000
310
00000000000000000000000000000000000000000000000000000000000000000000000000000000000000000000000000000000000000000000000000000000000000000000000000000000000000000000000000000000000000000000000000000000000000000000000000000000000000000000000000000000000000
310
00000000000000000000000000000000000000000000000000000000000000000000000000000000000000000000000000000000000000000000000000000000000000000000000000000000000000000000000000000000000000000000000000000000000000000000000000000000000000000000000000000000000000
310
00000000000000000000000000000000000000000000000000000000000000000000000000000000000000000000000000000000000000000000000000000000000000000000000000000000000000000000000000000000000000000000000000000000000000000000000000000000000000000000000000000000000000
310
00000000000000000000000000000000000000000000000000000000000000000000000000000000000000000000000000000000000000000000000000000000000000000000000000000000000000000000000000000000000000000000000000000000000000000000000000000000000000000000000000000000000000
310
00000000000000000000000000000000000000000000000000000000000000000000000000000000000000000000000000000000000000000000000000000000000000000000000000000000000000000000000000000000000000000000000000000000000000000000000000000000000000000000000000000000000000
310
00000000000000000000000000000000000000000000000000000000000000000000000000000000000000000000000000000000000000000000000000000000000000000000000000000000000000000000000000000000000000000000000000000000000000000000000000000000000000000000000000000000000000
310
000000000000000000000000000000000000000000000000000000000000000000000000000000000000000000000000000000000000000000000000000000000000000000000000000000000000000000000000000000000000000000000000000000000000000000000000
  0
ENDSEC
  0
EOF
