999
DXF file: S:\Prolink\03_Konstruktion\CAD-Plots\Internet\2D_neu\S5\s5-45_grt_sml_st_w75.dxf
999
Pro/ENGINEER 2012230 by Parametric Technology Corporation
  0
SECTION
  2
HEADER
  9
$ACADVER
  1
AC1021
  9
$DWGCODEPAGE
  3
ANSI_1252
  9
$EXTMAX
 10
297.0
 20
210.0
 30
0.0
  9
$EXTMIN
 10
0.0
 20
0.0
 30
0.0
  9
$LIMMIN
 10
0.0
 20
0.0
  9
$LIMMAX
 10
297.0
 20
210.0
  9
$VIEWCTR
 10
148.5
 20
105.0
  9
$VIEWSIZE
 40
210.0
  9
$CLAYER
  8
0
  9
$LTSCALE
 40
16.335
  9
$CELTYPE
  6
BYLAYER
  9
$DIMSCALE
 40
1.0
  9
$DIMASZ
 40
3.5
  9
$DIMEXO
 40
0.0
  9
$DIMDLI
 40
11.286
  9
$DIMEXE
 40
1.5
  9
$DIMCEN
 40
2.673
  9
$DIMLFAC
 40
1.0
  9
$DIMBLK
  1
_FILLED
  9
$DIMTXT
 40
3.5
  9
$DIMTOL
 70
1
  9
$DIMLIM
 70
0
  9
$DIMTFAC
 40
1.0
  9
$DIMTP
 40
0.005
  9
$DIMTM
 40
0.005
  9
$DIMGAP
 40
0.625
  9
$DIMDSEP
 70
46
  9
$PDMODE
 70
3
  9
$PDSIZE
 40
0.3125
  9
$HANDSEED
  5
368
  9
$TILEMODE
 70
1
  9
$MEASUREMENT
 70
1
  9
$INSUNITS
 70
4
  0
ENDSEC
  0
SECTION
  2
CLASSES
  0
CLASS
  1
ACDBDICTIONARYWDFLT
  2
AcDbDictionaryWithDefault
  3
AutoCAD 2000
 90
0
 91
1
280
0
281
0
  0
CLASS
  1
ACDBPLACEHOLDER
  2
AcDbPlaceHolder
  3
AutoCAD 2000
 90
0
 91
1
280
0
281
0
  0
CLASS
  1
LAYOUT
  2
AcDbLayout
  3
AutoCAD 2000
 90
0
 91
0
280
0
281
0
  0
ENDSEC
  0
SECTION
  2
TABLES
  0
TABLE
  2
VPORT
  5
8
100
AcDbSymbolTable
 70
2
  0
VPORT
  5
1F4
100
AcDbSymbolTableRecord
100
AcDbViewportTableRecord
  2
*ACTIVE
 70
0
 10
0.0
 20
0.0
 11
1.0
 21
1.0
 12
148.5
 22
105.0
 13
0.0
 23
0.0
 14
1.0
 24
1.0
 15
0.0
 25
0.0
 16
0.0
 26
0.0
 36
1.0
 17
0.0
 27
0.0
 37
0.0
 40
210.0
 41
1.4142857143
 42
50.0
 43
0.0
 44
0.0
 50
0.0
 51
0.0
 71
0
 72
100
 73
1
 74
1
 75
0
 76
0
 77
0
 78
0
  0
ENDTAB
  0
TABLE
  2
LTYPE
  5
5
100
AcDbSymbolTable
 70
6
  0
LTYPE
  5
14
100
AcDbSymbolTableRecord
100
AcDbLinetypeTableRecord
  2
BYBLOCK
 70
0
  3

 72
65
 73
0
 40
0.0
  0
LTYPE
  5
15
100
AcDbSymbolTableRecord
100
AcDbLinetypeTableRecord
  2
BYLAYER
 70
0
  3

 72
65
 73
0
 40
0.0
  0
LTYPE
  5
16
100
AcDbSymbolTableRecord
100
AcDbLinetypeTableRecord
  2
CONTINUOUS
 70
64
  3
Solid line
 72
65
 73
0
 40
0.0
  0
LTYPE
  5
1F5
100
AcDbSymbolTableRecord
100
AcDbLinetypeTableRecord
  2
CENTER
 70
64
  3
____ _ ____ _ ____ _ ____ _ ____ _ ____ _ ____
 72
65
 73
4
 40
0.6
 49
0.375
 74
0
 49
-0.075
 74
0
 49
0.075
 74
0
 49
-0.075
 74
0
  0
LTYPE
  5
1F6
100
AcDbSymbolTableRecord
100
AcDbLinetypeTableRecord
  2
HIDDEN
 70
64
  3
- - - - - - - - - - - - - - - - - - - -
 72
65
 73
2
 40
0.2
 49
0.1
 74
0
 49
-0.1
 74
0
  0
LTYPE
  5
1F7
100
AcDbSymbolTableRecord
100
AcDbLinetypeTableRecord
  2
PHANTOM
 70
64
  3
_____ _ _ _____ _ _ _____ _ _ _____
 72
65
 73
6
 40
0.8
 49
0.45
 74
0
 49
-0.05
 74
0
 49
0.1
 74
0
 49
-0.05
 74
0
 49
0.1
 74
0
 49
-0.05
 74
0
  0
LTYPE
  5
1F8
100
AcDbSymbolTableRecord
100
AcDbLinetypeTableRecord
  2
DOT
 70
64
  3
. . . . . . . . . . . . . . . . . . . .
 72
65
 73
2
 40
0.2
 49
0.1
 74
0
 49
-0.1
 74
0
  0
LTYPE
  5
1F9
100
AcDbSymbolTableRecord
100
AcDbLinetypeTableRecord
  2
DASHED
 70
64
  3
- - - - - - - - - - - - - - - - - - - -
 72
65
 73
2
 40
0.2
 49
0.1
 74
0
 49
-0.1
 74
0
  0
ENDTAB
  0
TABLE
  2
LAYER
  5
2
100
AcDbSymbolTable
 70
36
  0
LAYER
  5
10
100
AcDbSymbolTableRecord
100
AcDbLayerTableRecord
  2
0
 70
0
 62
7
  6
CONTINUOUS
370
-3
390
F
  0
LAYER
  5
1FA
100
AcDbSymbolTableRecord
100
AcDbLayerTableRecord
  2
DEFAULT_1
 70
0
 62
7
  6
CENTER
370
-3
390
F
  0
LAYER
  5
1FB
100
AcDbSymbolTableRecord
100
AcDbLayerTableRecord
  2
DEFAULT_2
 70
0
 62
8
  6
HIDDEN
370
-3
390
F
  0
LAYER
  5
1FC
100
AcDbSymbolTableRecord
100
AcDbLayerTableRecord
  2
DEFAULT_3
 70
0
 62
7
  6
PHANTOM
370
-3
390
F
  0
LAYER
  5
1FD
100
AcDbSymbolTableRecord
100
AcDbLayerTableRecord
  2
01___PRT_ALL_DTM_PLN
 70
0
 62
7
  6
CONTINUOUS
370
-3
390
F
  0
LAYER
  5
1FE
100
AcDbSymbolTableRecord
100
AcDbLayerTableRecord
  2
01___PRT_DEF_DTM_PLN
 70
0
 62
7
  6
CONTINUOUS
370
-3
390
F
  0
LAYER
  5
1FF
100
AcDbSymbolTableRecord
100
AcDbLayerTableRecord
  2
02___PRT_ALL_AXES
 70
0
 62
7
  6
CONTINUOUS
370
-3
390
F
  0
LAYER
  5
200
100
AcDbSymbolTableRecord
100
AcDbLayerTableRecord
  2
03___PRT_ALL_CURVES
 70
0
 62
7
  6
CONTINUOUS
370
-3
390
F
  0
LAYER
  5
201
100
AcDbSymbolTableRecord
100
AcDbLayerTableRecord
  2
04___PRT_ALL_DTM_PNT
 70
0
 62
7
  6
CONTINUOUS
370
-3
390
F
  0
LAYER
  5
202
100
AcDbSymbolTableRecord
100
AcDbLayerTableRecord
  2
05___PRT_ALL_DTM_CSYS
 70
0
 62
7
  6
CONTINUOUS
370
-3
390
F
  0
LAYER
  5
203
100
AcDbSymbolTableRecord
100
AcDbLayerTableRecord
  2
05___PRT_DEF_DTM_CSYS
 70
0
 62
7
  6
CONTINUOUS
370
-3
390
F
  0
LAYER
  5
204
100
AcDbSymbolTableRecord
100
AcDbLayerTableRecord
  2
06___PRT_ALL_SURFS
 70
0
 62
7
  6
CONTINUOUS
370
-3
390
F
  0
LAYER
  5
205
100
AcDbSymbolTableRecord
100
AcDbLayerTableRecord
  2
AUSFORMSCHRAEGEN
 70
0
 62
7
  6
CONTINUOUS
370
-3
390
F
  0
LAYER
  5
206
100
AcDbSymbolTableRecord
100
AcDbLayerTableRecord
  2
BEZUGSACHSEN
 70
0
 62
7
  6
CONTINUOUS
370
-3
390
F
  0
LAYER
  5
207
100
AcDbSymbolTableRecord
100
AcDbLayerTableRecord
  2
BEZUGSEBENE
 70
0
 62
7
  6
CONTINUOUS
370
-3
390
F
  0
LAYER
  5
208
100
AcDbSymbolTableRecord
100
AcDbLayerTableRecord
  2
BEZUGSEBENEN
 70
0
 62
7
  6
CONTINUOUS
370
-3
390
F
  0
LAYER
  5
209
100
AcDbSymbolTableRecord
100
AcDbLayerTableRecord
  2
BEZUGSEBENEN-KES
 70
0
 62
7
  6
CONTINUOUS
370
-3
390
F
  0
LAYER
  5
20A
100
AcDbSymbolTableRecord
100
AcDbLayerTableRecord
  2
KURVEN
 70
0
 62
7
  6
CONTINUOUS
370
-3
390
F
  0
LAYER
  5
20B
100
AcDbSymbolTableRecord
100
AcDbLayerTableRecord
  2
RUNDUNGEN
 70
0
 62
7
  6
CONTINUOUS
370
-3
390
F
  0
LAYER
  5
20C
100
AcDbSymbolTableRecord
100
AcDbLayerTableRecord
  2
ZEICHNUNGSBEMASSUNGEN
 70
0
 62
7
  6
CONTINUOUS
370
-3
390
F
  0
LAYER
  5
20D
100
AcDbSymbolTableRecord
100
AcDbLayerTableRecord
  2
ZEICHNUNGSNOTIZEN
 70
0
 62
7
  6
CONTINUOUS
370
-3
390
F
  0
ENDTAB
  0
TABLE
  2
STYLE
  5
3
100
AcDbSymbolTable
 70
1
  0
STYLE
  5
11
100
AcDbSymbolTableRecord
100
AcDbTextStyleTableRecord
  2
STANDARD
 70
0
 40
0.0
 41
0.7
 50
0.0
 71
0
 42
0.2
  3
txt
  4

  0
STYLE
  5
20E
100
AcDbSymbolTableRecord
100
AcDbTextStyleTableRecord
  2
TEXTSTYLE_1
 70
0
 40
0.0
 41
0.8
 50
0.0
 71
0
 42
0.2
  3
gdt
  4

  0
ENDTAB
  0
TABLE
  2
VIEW
  5
6
100
AcDbSymbolTable
 70
0
  0
ENDTAB
  0
TABLE
  2
UCS
  5
7
100
AcDbSymbolTable
 70
0
  0
ENDTAB
  0
TABLE
  2
APPID
  5
9
100
AcDbSymbolTable
 70
1
  0
APPID
  5
20F
100
AcDbSymbolTableRecord
100
AcDbRegAppTableRecord
  2
ACAD
 70
0
  0
ENDTAB
  0
TABLE
  2
BLOCK_RECORD
  5
1
100
AcDbSymbolTable
 70
0
  0
BLOCK_RECORD
  5
210
100
AcDbSymbolTableRecord
100
AcDbBlockTableRecord
  2
*Model_Space
  0
BLOCK_RECORD
  5
211
100
AcDbSymbolTableRecord
100
AcDbBlockTableRecord
  2
*Paper_Space
  0
ENDTAB
  0
TABLE
  2
DIMSTYLE
  5
A
100
AcDbSymbolTable
 70
1
100
AcDbDimStyleTable
 71
0
  0
DIMSTYLE
105
212
100
AcDbSymbolTableRecord
100
AcDbDimStyleTableRecord
  2
STANDARD
 70
0
  3

  4

 40
1.0
 41
3.5
 42
0.0
 43
0.38
 44
1.5
 45
0.0
 46
0.0
 47
0.005
 48
0.005
140
3.5
141
0.09
142
0.0
143
25.4
144
1.0
145
0.0
146
1.0
147
0.625
 71
1.0
 72
0.0
 73
0
 74
0
 75
0
 76
0
 77
1
 78
8
170
0
171
2
172
0
173
0
174
0
175
0
176
0
177
0
178
5
270
2
271
3
272
3
273
2
274
2
275
0
280
0
281
0
282
0
283
1
284
8
285
0
286
0
287
3
288
0
340
11
278
46
  0
ENDTAB
  0
ENDSEC
  0
SECTION
  2
BLOCKS
  0
BLOCK
  5
20
100
AcDbEntity
  8
0
100
AcDbBlockBegin
  2
*Model_Space
 70
0
 10
0.0
 20
0.0
 30
0.0
  3
*Model_Space
  1

  0
ENDBLK
  5
21
100
AcDbEntity
  8
0
100
AcDbBlockEnd
  0
BLOCK
  5
1C
100
AcDbEntity
  8
0
100
AcDbBlockBegin
  2
*Paper_Space
 70
0
 10
0.0
 20
0.0
 30
0.0
  3
*Paper_Space
  1

  0
ENDBLK
  5
1D
100
AcDbEntity
  8
0
100
AcDbBlockEnd
  0
ENDSEC
  0
SECTION
  2
ENTITIES
  0
LINE
  5
213
100
AcDbEntity
  8
0
100
AcDbLine
 62
7
  6
CONTINUOUS
 10
0.0
 20
0.0
 11
0.0
 21
210.0
  0
LINE
  5
214
100
AcDbEntity
  8
0
100
AcDbLine
 62
7
  6
CONTINUOUS
 10
0.0
 20
0.0
 11
297.0
 21
0.0
  0
LINE
  5
215
100
AcDbEntity
  8
0
100
AcDbLine
 62
7
  6
CONTINUOUS
 10
0.0
 20
210.0
 11
297.0
 21
210.0
  0
LINE
  5
216
100
AcDbEntity
  8
0
100
AcDbLine
 62
7
  6
CONTINUOUS
 10
297.0
 20
0.0
 11
297.0
 21
210.0
  0
LINE
  5
217
100
AcDbEntity
  8
0
100
AcDbLine
 62
7
  6
CONTINUOUS
 10
66.7016809964
 20
147.4238370676
 11
66.7016809964
 21
159.4238386296
  0
LINE
  5
218
100
AcDbEntity
  8
RUNDUNGEN
100
AcDbLine
 62
7
  6
CONTINUOUS
 10
68.7016809964
 20
147.4238370676
 11
68.7016809964
 21
151.1161447599
  0
LINE
  5
219
100
AcDbEntity
  8
RUNDUNGEN
100
AcDbLine
 62
7
  6
CONTINUOUS
 10
68.7016809964
 20
155.7315293753
 11
68.7016809964
 21
159.4238370676
  0
LINE
  5
21A
100
AcDbEntity
  8
RUNDUNGEN
100
AcDbLine
 62
7
  6
CONTINUOUS
 10
69.2016809964
 20
158.9238370676
 11
69.2016809964
 21
155.9238370676
  0
LINE
  5
21B
100
AcDbEntity
  8
RUNDUNGEN
100
AcDbLine
 62
7
  6
CONTINUOUS
 10
69.2016809964
 20
150.9238370676
 11
69.2016809964
 21
147.9238370676
  0
LINE
  5
21C
100
AcDbEntity
  8
0
100
AcDbLine
 62
7
  6
CONTINUOUS
 10
72.7016809964
 20
158.9238370676
 11
72.7016809964
 21
156.1738370676
  0
LINE
  5
21D
100
AcDbEntity
  8
0
100
AcDbLine
 62
7
  6
CONTINUOUS
 10
72.7016809964
 20
150.6738370676
 11
72.7016809964
 21
147.9238370676
  0
LINE
  5
21E
100
AcDbEntity
  8
0
100
AcDbLine
 62
7
  6
CONTINUOUS
 10
85.7016809964
 20
158.9238370676
 11
85.7016809964
 21
156.1738370676
  0
LINE
  5
21F
100
AcDbEntity
  8
0
100
AcDbLine
 62
7
  6
CONTINUOUS
 10
85.7016809964
 20
150.6738370676
 11
85.7016809964
 21
147.9238370676
  0
LINE
  5
220
100
AcDbEntity
  8
RUNDUNGEN
100
AcDbLine
 62
7
  6
CONTINUOUS
 10
89.2016809964
 20
159.4238370676
 11
89.2016809964
 21
155.9238370676
  0
LINE
  5
221
100
AcDbEntity
  8
RUNDUNGEN
100
AcDbLine
 62
7
  6
CONTINUOUS
 10
89.2016809964
 20
150.9238370676
 11
89.2016809964
 21
147.4238370676
  0
LINE
  5
222
100
AcDbEntity
  8
RUNDUNGEN
100
AcDbLine
 62
7
  6
CONTINUOUS
 10
89.7016809964
 20
159.4238370676
 11
89.7016809964
 21
155.7315293753
  0
LINE
  5
223
100
AcDbEntity
  8
RUNDUNGEN
100
AcDbLine
 62
7
  6
CONTINUOUS
 10
89.7016809964
 20
151.1161447599
 11
89.7016809964
 21
147.4238370676
  0
LINE
  5
224
100
AcDbEntity
  8
RUNDUNGEN
100
AcDbLine
 62
7
  6
CONTINUOUS
 10
140.7016809964
 20
147.4238370676
 11
139.7016809964
 21
147.4238370676
  0
LINE
  5
225
100
AcDbEntity
  8
0
100
AcDbLine
 62
7
  6
CONTINUOUS
 10
140.7016809964
 20
147.4238370676
 11
139.7016809964
 21
147.4238370676
  0
LINE
  5
226
100
AcDbEntity
  8
0
100
AcDbLine
 62
7
  6
CONTINUOUS
 10
122.0479845206
 20
147.4238370676
 11
111.2119165431
 21
147.4238370676
  0
LINE
  5
227
100
AcDbEntity
  8
0
100
AcDbLine
 62
7
  6
CONTINUOUS
 10
100.517846257
 20
147.4238370676
 11
89.7016809964
 21
147.4238370676
  0
LINE
  5
228
100
AcDbEntity
  8
0
100
AcDbLine
 62
7
  6
CONTINUOUS
 10
69.7016809964
 20
147.4238370676
 11
66.7016809964
 21
147.4238370676
  0
LINE
  5
229
100
AcDbEntity
  8
RUNDUNGEN
100
AcDbLine
 62
7
  6
CONTINUOUS
 10
68.7016809964
 20
147.4238370676
 11
135.6016809964
 21
147.4238370676
  0
LINE
  5
22A
100
AcDbEntity
  8
0
100
AcDbLine
 62
7
  6
CONTINUOUS
 10
130.3117457715
 20
147.4238370676
 11
135.6016809964
 21
147.4238370676
  0
LINE
  5
22B
100
AcDbEntity
  8
RUNDUNGEN
100
AcDbLine
 62
7
  6
CONTINUOUS
 10
89.2016809964
 20
147.9238370676
 11
81.7994230716
 21
147.9238370676
  0
LINE
  5
22C
100
AcDbEntity
  8
RUNDUNGEN
100
AcDbLine
 62
7
  6
CONTINUOUS
 10
69.2016809964
 20
147.9238370676
 11
76.6039389213
 21
147.9238370676
  0
LINE
  5
22D
100
AcDbEntity
  8
RUNDUNGEN
100
AcDbLine
 62
7
  6
CONTINUOUS
 10
100.0542477036
 20
147.9238368911
 11
110.8392385469
 21
147.9238370676
  0
LINE
  5
22E
100
AcDbEntity
  8
RUNDUNGEN
100
AcDbLine
 62
7
  6
CONTINUOUS
 10
122.4206625169
 20
147.9238370676
 11
130.7815912614
 21
147.9238381089
  0
LINE
  5
22F
100
AcDbEntity
  8
RUNDUNGEN
100
AcDbLine
 62
7
  6
CONTINUOUS
 10
120.9299505319
 20
148.4238370676
 11
112.3299505319
 21
148.4238370676
  0
LINE
  5
230
100
AcDbEntity
  8
RUNDUNGEN
100
AcDbLine
 62
7
  6
CONTINUOUS
 10
139.5016809964
 20
149.5238370676
 11
139.4516809964
 21
149.5238370676
  0
LINE
  5
231
100
AcDbEntity
  8
RUNDUNGEN
100
AcDbLine
 62
7
  6
CONTINUOUS
 10
135.8516809964
 20
149.5238370676
 11
135.8016809964
 21
149.5238370676
  0
LINE
  5
232
100
AcDbEntity
  8
RUNDUNGEN
100
AcDbLine
 62
7
  6
CONTINUOUS
 10
135.6016809964
 20
149.7238370676
 11
135.8516809964
 21
149.7238370676
  0
LINE
  5
233
100
AcDbEntity
  8
RUNDUNGEN
100
AcDbLine
 62
7
  6
CONTINUOUS
 10
139.7016809964
 20
149.7238370676
 11
139.4516809964
 21
149.7238370676
  0
LINE
  5
234
100
AcDbEntity
  8
0
100
AcDbLine
 62
7
  6
CONTINUOUS
 10
139.7016809964
 20
149.8443978066
 11
135.6016809964
 21
149.8443978066
  0
LINE
  5
235
100
AcDbEntity
  8
RUNDUNGEN
100
AcDbLine
 62
7
  6
CONTINUOUS
 10
130.4621959139
 20
150.4238370676
 11
141.7016809964
 21
150.4238370676
  0
LINE
  5
236
100
AcDbEntity
  8
0
100
AcDbLine
 62
7
  6
CONTINUOUS
 10
127.3349563295
 20
150.6738370676
 11
124.6051795725
 21
150.6738370676
  0
LINE
  5
237
100
AcDbEntity
  8
0
100
AcDbLine
 62
7
  6
CONTINUOUS
 10
72.7016809964
 20
150.6738370676
 11
72.2161094113
 21
150.6738370676
  0
LINE
  5
238
100
AcDbEntity
  8
0
100
AcDbLine
 62
7
  6
CONTINUOUS
 10
85.7016809964
 20
150.6738370676
 11
86.1872525816
 21
150.6738370676
  0
LINE
  5
239
100
AcDbEntity
  8
0
100
AcDbLine
 62
7
  6
CONTINUOUS
 10
105.425572893
 20
150.6738370676
 11
108.4557695867
 21
150.6738370676
  0
LINE
  5
23A
100
AcDbEntity
  8
0
100
AcDbLine
 62
7
  6
CONTINUOUS
 10
108.4557695867
 20
156.1738370676
 11
105.425572893
 21
156.1738370676
  0
LINE
  5
23B
100
AcDbEntity
  8
0
100
AcDbLine
 62
7
  6
CONTINUOUS
 10
72.7016809964
 20
156.1738370676
 11
72.2161094113
 21
156.1738370676
  0
LINE
  5
23C
100
AcDbEntity
  8
0
100
AcDbLine
 62
7
  6
CONTINUOUS
 10
85.7016809964
 20
156.1738370676
 11
86.1872525816
 21
156.1738370676
  0
LINE
  5
23D
100
AcDbEntity
  8
0
100
AcDbLine
 62
7
  6
CONTINUOUS
 10
124.6051795725
 20
156.1738370676
 11
127.3349563295
 21
156.1738370676
  0
LINE
  5
23E
100
AcDbEntity
  8
RUNDUNGEN
100
AcDbLine
 62
7
  6
CONTINUOUS
 10
130.4621959139
 20
156.4238370676
 11
141.7016809964
 21
156.4238370676
  0
LINE
  5
23F
100
AcDbEntity
  8
RUNDUNGEN
100
AcDbLine
 62
7
  6
CONTINUOUS
 10
120.9299505319
 20
158.4238370676
 11
112.3299505319
 21
158.4238370676
  0
LINE
  5
240
100
AcDbEntity
  8
RUNDUNGEN
100
AcDbLine
 62
7
  6
CONTINUOUS
 10
110.4755828228
 20
158.9238370676
 11
110.4755828228
 21
147.9238370676
  0
LINE
  5
241
100
AcDbEntity
  8
RUNDUNGEN
100
AcDbLine
 62
7
  6
CONTINUOUS
 10
130.7816031877
 20
158.923840002
 11
122.4206625169
 21
158.9238370676
  0
LINE
  5
242
100
AcDbEntity
  8
RUNDUNGEN
100
AcDbLine
 62
7
  6
CONTINUOUS
 10
110.8392385469
 20
158.9238370676
 11
100.0542511239
 21
158.92383718
  0
LINE
  5
243
100
AcDbEntity
  8
RUNDUNGEN
100
AcDbLine
 62
7
  6
CONTINUOUS
 10
69.2016809964
 20
158.9238370676
 11
76.6039389213
 21
158.9238370676
  0
LINE
  5
244
100
AcDbEntity
  8
RUNDUNGEN
100
AcDbLine
 62
7
  6
CONTINUOUS
 10
81.7994230716
 20
158.9238370676
 11
89.2016809964
 21
158.9238370676
  0
LINE
  5
245
100
AcDbEntity
  8
0
100
AcDbLine
 62
7
  6
CONTINUOUS
 10
100.517846087
 20
159.4238370676
 11
89.7016809964
 21
159.4238370676
  0
LINE
  5
246
100
AcDbEntity
  8
0
100
AcDbLine
 62
7
  6
CONTINUOUS
 10
69.7016809964
 20
159.4238370676
 11
66.7016809964
 21
159.4238370676
  0
LINE
  5
247
100
AcDbEntity
  8
RUNDUNGEN
100
AcDbLine
 62
7
  6
CONTINUOUS
 10
68.7016307725
 20
159.4238370676
 11
140.7016809964
 21
159.4238370676
  0
LINE
  5
248
100
AcDbEntity
  8
RUNDUNGEN
100
AcDbLine
 62
7
  6
CONTINUOUS
 10
112.3299505319
 20
158.4238370676
 11
112.3299505319
 21
148.4238370676
  0
LINE
  5
249
100
AcDbEntity
  8
RUNDUNGEN
100
AcDbLine
 62
7
  6
CONTINUOUS
 10
120.9299505319
 20
158.4238370676
 11
120.9299505319
 21
148.4238370676
  0
LINE
  5
24A
100
AcDbEntity
  8
RUNDUNGEN
100
AcDbLine
 62
7
  6
CONTINUOUS
 10
122.8093357735
 20
158.9238370676
 11
122.8093357735
 21
147.9238370676
  0
LINE
  5
24B
100
AcDbEntity
  8
RUNDUNGEN
100
AcDbLine
 62
7
  6
CONTINUOUS
 10
130.4621959139
 20
150.4238370676
 11
130.4621959139
 21
156.4238370676
  0
LINE
  5
24C
100
AcDbEntity
  8
RUNDUNGEN
100
AcDbLine
 62
7
  6
CONTINUOUS
 10
131.4018885346
 20
150.4238370676
 11
131.4018885346
 21
156.4238370676
  0
LINE
  5
24D
100
AcDbEntity
  8
0
100
AcDbLine
 62
7
  6
CONTINUOUS
 10
135.6016809964
 20
147.4238370676
 11
135.6016809964
 21
149.8443978066
  0
LINE
  5
24E
100
AcDbEntity
  8
RUNDUNGEN
100
AcDbLine
 62
7
  6
CONTINUOUS
 10
135.8016809964
 20
149.8443978066
 11
135.8016809964
 21
149.5238370676
  0
LINE
  5
24F
100
AcDbEntity
  8
RUNDUNGEN
100
AcDbLine
 62
7
  6
CONTINUOUS
 10
135.8516809964
 20
149.5238370676
 11
135.8516809964
 21
149.7238370676
  0
LINE
  5
250
100
AcDbEntity
  8
RUNDUNGEN
100
AcDbLine
 62
7
  6
CONTINUOUS
 10
139.4516809964
 20
149.5238370676
 11
139.4516809964
 21
149.7238370676
  0
LINE
  5
251
100
AcDbEntity
  8
RUNDUNGEN
100
AcDbLine
 62
7
  6
CONTINUOUS
 10
139.5016809964
 20
149.5238370676
 11
139.5016809964
 21
149.8443978066
  0
LINE
  5
252
100
AcDbEntity
  8
0
100
AcDbLine
 62
7
  6
CONTINUOUS
 10
139.7016809964
 20
147.4238370676
 11
139.7016809964
 21
149.8443978066
  0
LINE
  5
253
100
AcDbEntity
  8
RUNDUNGEN
100
AcDbLine
 62
7
  6
CONTINUOUS
 10
140.7016809964
 20
147.4238370676
 11
140.7016809964
 21
159.4238370676
  0
LINE
  5
254
100
AcDbEntity
  8
RUNDUNGEN
100
AcDbLine
 62
7
  6
CONTINUOUS
 10
141.7016809964
 20
148.4238370676
 11
141.7016809964
 21
158.4238370676
  0
LINE
  5
255
100
AcDbEntity
  8
RUNDUNGEN
100
AcDbLine
 62
7
  6
CONTINUOUS
 10
207.4341727464
 20
150.4238370676
 11
207.4341727464
 21
156.4238370676
  0
LINE
  5
256
100
AcDbEntity
  8
RUNDUNGEN
100
AcDbLine
 62
7
  6
CONTINUOUS
 10
207.7631626748
 20
150.4238370676
 11
207.7631626748
 21
156.4238370676
  0
LINE
  5
257
100
AcDbEntity
  8
RUNDUNGEN
100
AcDbLine
 62
7
  6
CONTINUOUS
 10
218.8982743616
 20
159.4238370676
 11
218.8982743616
 21
158.9238370676
  0
LINE
  5
258
100
AcDbEntity
  8
RUNDUNGEN
100
AcDbLine
 62
7
  6
CONTINUOUS
 10
218.8982743616
 20
147.4238370676
 11
218.8982743616
 21
147.9238370676
  0
LINE
  5
259
100
AcDbEntity
  8
RUNDUNGEN
100
AcDbLine
 62
7
  6
CONTINUOUS
 10
221.4341727464
 20
158.9238370676
 11
221.4341727464
 21
155.9238370676
  0
LINE
  5
25A
100
AcDbEntity
  8
RUNDUNGEN
100
AcDbLine
 62
7
  6
CONTINUOUS
 10
221.4341727464
 20
150.9238370676
 11
221.4341727464
 21
147.9238370676
  0
LINE
  5
25B
100
AcDbEntity
  8
RUNDUNGEN
100
AcDbLine
 62
7
  6
CONTINUOUS
 10
210.4341727464
 20
147.4238370676
 11
245.4341727444
 21
147.4238370676
  0
LINE
  5
25C
100
AcDbEntity
  8
RUNDUNGEN
100
AcDbLine
 62
7
  6
CONTINUOUS
 10
213.0405294599
 20
147.9238370676
 11
210.2631626748
 21
147.9238370676
  0
LINE
  5
25D
100
AcDbEntity
  8
RUNDUNGEN
100
AcDbLine
 62
7
  6
CONTINUOUS
 10
218.8982744421
 20
147.9238370676
 11
245.8925060798
 21
147.9238370676
  0
LINE
  5
25E
100
AcDbEntity
  8
RUNDUNGEN
100
AcDbLine
 62
7
  6
CONTINUOUS
 10
221.4341727463
 20
155.9238370676
 11
220.9726342858
 21
155.7315293731
  0
LINE
  5
25F
100
AcDbEntity
  8
RUNDUNGEN
100
AcDbLine
 62
7
  6
CONTINUOUS
 10
221.4341727463
 20
150.9238370677
 11
220.9726342851
 21
151.1161447604
  0
LINE
  5
260
100
AcDbEntity
  8
RUNDUNGEN
100
AcDbLine
 62
7
  6
CONTINUOUS
 10
207.4341727464
 20
150.4238370676
 11
207.7631626748
 21
150.4238370676
  0
LINE
  5
261
100
AcDbEntity
  8
0
100
AcDbLine
 62
7
  6
CONTINUOUS
 10
240.1841727464
 20
150.6738370676
 11
232.6841727464
 21
150.6738370676
  0
LINE
  5
262
100
AcDbEntity
  8
0
100
AcDbLine
 62
7
  6
CONTINUOUS
 10
240.1841727464
 20
156.1738370676
 11
232.6841727464
 21
156.1738370676
  0
LINE
  5
263
100
AcDbEntity
  8
RUNDUNGEN
100
AcDbLine
 62
7
  6
CONTINUOUS
 10
207.4341727464
 20
156.4238370676
 11
207.7631626748
 21
156.4238370676
  0
LINE
  5
264
100
AcDbEntity
  8
RUNDUNGEN
100
AcDbLine
 62
7
  6
CONTINUOUS
 10
210.2631626748
 20
158.9238370676
 11
213.0404152666
 21
158.9238370676
  0
LINE
  5
265
100
AcDbEntity
  8
RUNDUNGEN
100
AcDbLine
 62
7
  6
CONTINUOUS
 10
218.8982741234
 20
158.9238370676
 11
245.8925060798
 21
158.9238370676
  0
LINE
  5
266
100
AcDbEntity
  8
RUNDUNGEN
100
AcDbLine
 62
7
  6
CONTINUOUS
 10
210.4341727464
 20
159.4238370676
 11
245.4341727464
 21
159.4238370676
  0
LINE
  5
267
100
AcDbEntity
  8
0
100
AcDbLine
 62
7
  6
CONTINUOUS
 10
234.4963505729
 20
158.9238370676
 11
234.4963505729
 21
156.1738370676
  0
LINE
  5
268
100
AcDbEntity
  8
0
100
AcDbLine
 62
7
  6
CONTINUOUS
 10
234.4963505729
 20
150.6738370676
 11
234.4963505729
 21
147.9238370676
  0
LINE
  5
269
100
AcDbEntity
  8
0
100
AcDbLine
 62
7
  6
CONTINUOUS
 10
239.9341727464
 20
158.9238370676
 11
239.9341727464
 21
156.1738370676
  0
LINE
  5
26A
100
AcDbEntity
  8
0
100
AcDbLine
 62
7
  6
CONTINUOUS
 10
239.9341727464
 20
150.6738370676
 11
239.9341727464
 21
147.9238370676
  0
LINE
  5
26B
100
AcDbEntity
  8
RUNDUNGEN
100
AcDbLine
 62
7
  6
CONTINUOUS
 10
239.9341727464
 20
147.9238370676
 11
239.9341727464
 21
147.4238370676
  0
LINE
  5
26C
100
AcDbEntity
  8
RUNDUNGEN
100
AcDbLine
 62
7
  6
CONTINUOUS
 10
239.9341727464
 20
158.9238370676
 11
239.9341727464
 21
159.4238370676
  0
LINE
  5
26D
100
AcDbEntity
  8
0
100
AcDbLine
 62
7
  6
CONTINUOUS
 10
246.4341727464
 20
158.4238370676
 11
246.4341727464
 21
148.4238370676
  0
LINE
  5
26E
100
AcDbEntity
  8
0
100
AcDbLine
 62
7
  6
CONTINUOUS
 10
66.7016809964
 20
82.1540054503
 11
66.7016809964
 21
94.153466265
  0
LINE
  5
26F
100
AcDbEntity
  8
RUNDUNGEN
100
AcDbLine
 62
7
  6
CONTINUOUS
 10
68.7016809964
 20
82.6152743184
 11
68.7016809964
 21
88.1537358568
  0
LINE
  5
270
100
AcDbEntity
  8
RUNDUNGEN
100
AcDbLine
 62
7
  6
CONTINUOUS
 10
69.2016809964
 20
84.6896344799
 11
69.2016809964
 21
82.1537358568
  0
LINE
  5
271
100
AcDbEntity
  8
RUNDUNGEN
100
AcDbLine
 62
7
  6
CONTINUOUS
 10
69.7016809964
 20
84.6896342417
 11
69.7016809964
 21
82.2195621056
  0
LINE
  5
272
100
AcDbEntity
  8
RUNDUNGEN
100
AcDbLine
 62
7
  6
CONTINUOUS
 10
71.7016809964
 20
81.1537358568
 11
71.7016809964
 21
88.0655723665
  0
LINE
  5
273
100
AcDbEntity
  8
RUNDUNGEN
100
AcDbLine
 62
7
  6
CONTINUOUS
 10
72.2016809964
 20
81.1537358568
 11
72.2016809964
 21
88.1537358568
  0
LINE
  5
274
100
AcDbEntity
  8
RUNDUNGEN
100
AcDbLine
 62
7
  6
CONTINUOUS
 10
72.7016809964
 20
63.6537358568
 11
72.7016809964
 21
69.0915580303
  0
LINE
  5
275
100
AcDbEntity
  8
RUNDUNGEN
100
AcDbLine
 62
7
  6
CONTINUOUS
 10
73.2016809964
 20
63.6537358568
 11
73.2016809964
 21
69.1573842791
  0
LINE
  5
276
100
AcDbEntity
  8
RUNDUNGEN
100
AcDbLine
 62
7
  6
CONTINUOUS
 10
69.2016809964
 20
82.1537358568
 11
72.7016809964
 21
69.0915580303
  0
LINE
  5
277
100
AcDbEntity
  8
RUNDUNGEN
100
AcDbLine
 62
7
  6
CONTINUOUS
 10
69.7016809964
 20
82.2195621056
 11
73.2016809964
 21
69.1573842791
  0
LINE
  5
278
100
AcDbEntity
  8
RUNDUNGEN
100
AcDbLine
 62
7
  6
CONTINUOUS
 10
81.5995967581
 20
58.1537358568
 11
81.7994230656
 21
57.6954025209
  0
LINE
  5
279
100
AcDbEntity
  8
0
100
AcDbLine
 62
7
  6
CONTINUOUS
 10
76.7016809964
 20
71.1537358568
 11
76.7016809964
 21
63.1537358568
  0
LINE
  5
27A
100
AcDbEntity
  8
RUNDUNGEN
100
AcDbLine
 62
7
  6
CONTINUOUS
 10
71.6695921102
 20
88.1537358568
 11
71.7016809964
 21
88.0655723665
  0
LINE
  5
27B
100
AcDbEntity
  8
RUNDUNGEN
100
AcDbLine
 62
7
  6
CONTINUOUS
 10
70.1384823298
 20
93.8223276052
 11
72.2016809964
 21
88.1537358568
  0
LINE
  5
27C
100
AcDbEntity
  8
0
100
AcDbLine
 62
7
  6
CONTINUOUS
 10
81.7016809964
 20
63.1537358568
 11
81.7016809964
 21
71.1537358568
  0
LINE
  5
27D
100
AcDbEntity
  8
RUNDUNGEN
100
AcDbLine
 62
7
  6
CONTINUOUS
 10
86.2016809964
 20
88.1537358568
 11
88.2648812784
 21
93.8223320434
  0
LINE
  5
27E
100
AcDbEntity
  8
RUNDUNGEN
100
AcDbLine
 62
7
  6
CONTINUOUS
 10
86.7016809964
 20
88.0655723665
 11
86.7337698827
 21
88.1537358568
  0
LINE
  5
27F
100
AcDbEntity
  8
RUNDUNGEN
100
AcDbLine
 62
7
  6
CONTINUOUS
 10
72.1394384206
 20
88.3247459285
 11
71.6695921102
 21
88.1537358568
  0
LINE
  5
280
100
AcDbEntity
  8
RUNDUNGEN
100
AcDbLine
 62
7
  6
CONTINUOUS
 10
120.9299505319
 20
57.1537358568
 11
112.3299505319
 21
57.1537358568
  0
LINE
  5
281
100
AcDbEntity
  8
0
100
AcDbLine
 62
7
  6
CONTINUOUS
 10
120.9299505319
 20
57.1537358568
 11
112.3299505319
 21
57.1537358568
  0
LINE
  5
282
100
AcDbEntity
  8
RUNDUNGEN
100
AcDbLine
 62
7
  6
CONTINUOUS
 10
85.2016809964
 20
63.6537358568
 11
85.2016809964
 21
69.1573842791
  0
LINE
  5
283
100
AcDbEntity
  8
RUNDUNGEN
100
AcDbLine
 62
7
  6
CONTINUOUS
 10
85.7016809964
 20
63.6537358568
 11
85.7016809964
 21
69.0915580303
  0
LINE
  5
284
100
AcDbEntity
  8
RUNDUNGEN
100
AcDbLine
 62
7
  6
CONTINUOUS
 10
86.2016809964
 20
88.1537358568
 11
86.2016809964
 21
81.1537358568
  0
LINE
  5
285
100
AcDbEntity
  8
RUNDUNGEN
100
AcDbLine
 62
7
  6
CONTINUOUS
 10
86.7016809964
 20
88.0655723665
 11
86.7016809964
 21
81.1537358568
  0
LINE
  5
286
100
AcDbEntity
  8
RUNDUNGEN
100
AcDbLine
 62
7
  6
CONTINUOUS
 10
76.6039389188
 20
57.6954025246
 11
76.8037652348
 21
58.1537358568
  0
LINE
  5
287
100
AcDbEntity
  8
RUNDUNGEN
100
AcDbLine
 62
7
  6
CONTINUOUS
 10
81.5994680351
 20
58.1536643119
 11
76.8037652342
 21
58.1537358571
  0
LINE
  5
288
100
AcDbEntity
  8
RUNDUNGEN
100
AcDbLine
 62
7
  6
CONTINUOUS
 10
122.0479845206
 20
58.1537358568
 11
111.2119165431
 21
58.1537358568
  0
LINE
  5
289
100
AcDbEntity
  8
RUNDUNGEN
100
AcDbLine
 62
7
  6
CONTINUOUS
 10
89.2016809964
 20
82.1537358568
 11
89.2016809964
 21
85.6537358568
  0
LINE
  5
28A
100
AcDbEntity
  8
RUNDUNGEN
100
AcDbLine
 62
7
  6
CONTINUOUS
 10
89.7016809964
 20
88.1537358568
 11
89.7016809964
 21
82.6152743184
  0
LINE
  5
28B
100
AcDbEntity
  8
RUNDUNGEN
100
AcDbLine
 62
7
  6
CONTINUOUS
 10
85.2016809964
 20
69.1573842791
 11
89.2016809964
 21
84.0855875094
  0
LINE
  5
28C
100
AcDbEntity
  8
RUNDUNGEN
100
AcDbLine
 62
7
  6
CONTINUOUS
 10
85.7016809964
 20
69.0915580303
 11
89.2016809964
 21
82.1537358568
  0
LINE
  5
28D
100
AcDbEntity
  8
RUNDUNGEN
100
AcDbLine
 62
7
  6
CONTINUOUS
 10
72.7016809964
 20
63.6537358568
 11
73.2016809964
 21
63.6537358568
  0
LINE
  5
28E
100
AcDbEntity
  8
RUNDUNGEN
100
AcDbLine
 62
7
  6
CONTINUOUS
 10
85.2016809964
 20
63.6537358568
 11
85.7016809964
 21
63.6537358568
  0
LINE
  5
28F
100
AcDbEntity
  8
RUNDUNGEN
100
AcDbLine
 62
7
  6
CONTINUOUS
 10
104.6852989652
 20
88.1537358568
 11
105.1488908925
 21
88.3410391535
  0
LINE
  5
290
100
AcDbEntity
  8
RUNDUNGEN
100
AcDbLine
 62
7
  6
CONTINUOUS
 10
100.0542537191
 20
84.1982173295
 11
100.517846087
 21
84.3855206377
  0
LINE
  5
291
100
AcDbEntity
  8
RUNDUNGEN
100
AcDbLine
 62
7
  6
CONTINUOUS
 10
122.8093357735
 20
58.4696955702
 11
122.3394894631
 21
58.6407056418
  0
LINE
  5
292
100
AcDbEntity
  8
RUNDUNGEN
100
AcDbLine
 62
7
  6
CONTINUOUS
 10
121.1799505319
 20
73.6537358568
 11
112.2299505319
 21
73.6537358568
  0
LINE
  5
293
100
AcDbEntity
  8
RUNDUNGEN
100
AcDbLine
 62
7
  6
CONTINUOUS
 10
121.1799505319
 20
74.1537358568
 11
112.2299505319
 21
74.1537358568
  0
LINE
  5
294
100
AcDbEntity
  8
RUNDUNGEN
100
AcDbLine
 62
7
  6
CONTINUOUS
 10
122.4206625166
 20
57.8204025231
 11
122.0479845138
 21
58.1537358547
  0
LINE
  5
295
100
AcDbEntity
  8
RUNDUNGEN
100
AcDbLine
 62
7
  6
CONTINUOUS
 10
110.4755828228
 20
58.40452267
 11
100.0542511239
 21
84.1982237528
  0
LINE
  5
296
100
AcDbEntity
  8
RUNDUNGEN
100
AcDbLine
 62
7
  6
CONTINUOUS
 10
110.93917475
 20
58.5918259667
 11
100.517846087
 21
84.3855206377
  0
LINE
  5
297
100
AcDbEntity
  8
RUNDUNGEN
100
AcDbLine
 62
7
  6
CONTINUOUS
 10
109.9119908955
 20
75.2172193733
 11
110.3755828228
 21
75.40452267
  0
LINE
  5
298
100
AcDbEntity
  8
RUNDUNGEN
100
AcDbLine
 62
7
  6
CONTINUOUS
 10
131.4018885346
 20
80.1537358568
 11
140.7016809964
 21
80.1537358568
  0
LINE
  5
299
100
AcDbEntity
  8
RUNDUNGEN
100
AcDbLine
 62
7
  6
CONTINUOUS
 10
86.7016809964
 20
81.1537358568
 11
86.2016809964
 21
81.1537358588
  0
LINE
  5
29A
100
AcDbEntity
  8
RUNDUNGEN
100
AcDbLine
 62
7
  6
CONTINUOUS
 10
71.7016809964
 20
81.1537358568
 11
72.2016809964
 21
81.1537358568
  0
LINE
  5
29B
100
AcDbEntity
  8
0
100
AcDbLine
 62
7
  6
CONTINUOUS
 10
100.2057540251
 20
82.1537358568
 11
89.5853446064
 21
82.1537358568
  0
LINE
  5
29C
100
AcDbEntity
  8
0
100
AcDbLine
 62
7
  6
CONTINUOUS
 10
68.8180043103
 20
82.1537358568
 11
66.7016809964
 21
82.1537358568
  0
LINE
  5
29D
100
AcDbEntity
  8
RUNDUNGEN
100
AcDbLine
 62
7
  6
CONTINUOUS
 10
86.2639235723
 20
88.3247459285
 11
86.7337698827
 21
88.1537358568
  0
LINE
  5
29E
100
AcDbEntity
  8
RUNDUNGEN
100
AcDbLine
 62
7
  6
CONTINUOUS
 10
123.5291820839
 20
75.2986854985
 11
123.0593357751
 21
75.4696955747
  0
LINE
  5
29F
100
AcDbEntity
  8
RUNDUNGEN
100
AcDbLine
 62
7
  6
CONTINUOUS
 10
109.9119908955
 20
75.2172193733
 11
104.6852989652
 21
88.1537358568
  0
LINE
  5
2A0
100
AcDbEntity
  8
RUNDUNGEN
100
AcDbLine
 62
7
  6
CONTINUOUS
 10
110.3755828228
 20
75.40452267
 11
102.9267470528
 21
93.8410381574
  0
LINE
  5
2A1
100
AcDbEntity
  8
RUNDUNGEN
100
AcDbLine
 62
7
  6
CONTINUOUS
 10
112.2299505319
 20
73.6537358568
 11
112.2299505359
 21
74.1537358568
  0
LINE
  5
2A2
100
AcDbEntity
  8
RUNDUNGEN
100
AcDbLine
 62
7
  6
CONTINUOUS
 10
132.8578968612
 20
83.1538520749
 11
141.7016809964
 21
83.1537358568
  0
LINE
  5
2A3
100
AcDbEntity
  8
RUNDUNGEN
100
AcDbLine
 62
7
  6
CONTINUOUS
 10
69.7016809964
 20
84.6896342417
 11
69.2016809964
 21
84.6896342417
  0
LINE
  5
2A4
100
AcDbEntity
  8
RUNDUNGEN
100
AcDbLine
 62
7
  6
CONTINUOUS
 10
68.7016307725
 20
88.1538547426
 11
71.6695921102
 21
88.1537358568
  0
LINE
  5
2A5
100
AcDbEntity
  8
RUNDUNGEN
100
AcDbLine
 62
7
  6
CONTINUOUS
 10
86.7337698827
 20
88.1537358568
 11
89.7016809964
 21
88.1537358568
  0
LINE
  5
2A6
100
AcDbEntity
  8
RUNDUNGEN
100
AcDbLine
 62
7
  6
CONTINUOUS
 10
97.3775872443
 20
88.1537358568
 11
104.6852989652
 21
88.1537358568
  0
LINE
  5
2A7
100
AcDbEntity
  8
RUNDUNGEN
100
AcDbLine
 62
7
  6
CONTINUOUS
 10
130.781585353
 20
80.3732712722
 11
130.3117403442
 21
80.5442781878
  0
LINE
  5
2A8
100
AcDbEntity
  8
RUNDUNGEN
100
AcDbLine
 62
7
  6
CONTINUOUS
 10
121.1799505319
 20
73.6537358568
 11
121.1799505319
 21
74.1537358568
  0
LINE
  5
2A9
100
AcDbEntity
  8
RUNDUNGEN
100
AcDbLine
 62
7
  6
CONTINUOUS
 10
130.0278889456
 20
93.1537358568
 11
141.7016809964
 21
93.1537358568
  0
LINE
  5
2AA
100
AcDbEntity
  8
RUNDUNGEN
100
AcDbLine
 62
7
  6
CONTINUOUS
 10
130.4679682209
 20
95.8247459285
 11
123.0593357735
 21
75.4696955702
  0
LINE
  5
2AB
100
AcDbEntity
  8
RUNDUNGEN
100
AcDbLine
 62
7
  6
CONTINUOUS
 10
130.0278889456
 20
93.1537358568
 11
123.5291820839
 21
75.2986854985
  0
LINE
  5
2AC
100
AcDbEntity
  8
RUNDUNGEN
100
AcDbLine
 62
7
  6
CONTINUOUS
 10
110.8392385471
 20
57.8204025233
 11
111.2119165431
 21
58.1537358568
  0
LINE
  5
2AD
100
AcDbEntity
  8
RUNDUNGEN
100
AcDbLine
 62
7
  6
CONTINUOUS
 10
110.4755828228
 20
58.40452267
 11
110.93917475
 21
58.5918259667
  0
LINE
  5
2AE
100
AcDbEntity
  8
0
100
AcDbLine
 62
7
  6
CONTINUOUS
 10
102.4633150729
 20
94.1537358568
 11
88.727197793
 21
94.1537358568
  0
LINE
  5
2AF
100
AcDbEntity
  8
0
100
AcDbLine
 62
7
  6
CONTINUOUS
 10
69.676166733
 20
94.1537358568
 11
66.7016809964
 21
94.1537358568
  0
LINE
  5
2B0
100
AcDbEntity
  8
RUNDUNGEN
100
AcDbLine
 62
7
  6
CONTINUOUS
 10
140.7016809964
 20
96.1537358568
 11
130.9378145313
 21
96.1537358568
  0
LINE
  5
2B1
100
AcDbEntity
  8
RUNDUNGEN
100
AcDbLine
 62
7
  6
CONTINUOUS
 10
130.3117403442
 20
80.5442781878
 11
122.3394894631
 21
58.6407056418
  0
LINE
  5
2B2
100
AcDbEntity
  8
RUNDUNGEN
100
AcDbLine
 62
7
  6
CONTINUOUS
 10
130.7816031877
 20
80.3733202727
 11
122.8093357735
 21
58.4696955702
  0
LINE
  5
2B3
100
AcDbEntity
  8
RUNDUNGEN
100
AcDbLine
 62
7
  6
CONTINUOUS
 10
130.0278889456
 20
93.1537358568
 11
129.5580426352
 21
93.3247459285
  0
LINE
  5
2B4
100
AcDbEntity
  8
RUNDUNGEN
100
AcDbLine
 62
7
  6
CONTINUOUS
 10
140.7016809964
 20
80.1537358568
 11
140.7016809964
 21
96.1537358568
  0
LINE
  5
2B5
100
AcDbEntity
  8
RUNDUNGEN
100
AcDbLine
 62
7
  6
CONTINUOUS
 10
141.7016809964
 20
81.1537358568
 11
141.7016809964
 21
95.1537358568
  0
ARC
  5
2B6
100
AcDbEntity
  8
RUNDUNGEN
100
AcDbCircle
 62
7
  6
CONTINUOUS
 10
85.2016809964
 20
147.9238370676
 40
0.5
100
AcDbArc
 50
270.0
 51
360.0
  0
ARC
  5
2B7
100
AcDbEntity
  8
RUNDUNGEN
100
AcDbCircle
 62
7
  6
CONTINUOUS
 10
69.7016809964
 20
147.9238370676
 40
0.5
100
AcDbArc
 50
180.0
 51
270.0
  0
ARC
  5
2B8
100
AcDbEntity
  8
RUNDUNGEN
100
AcDbCircle
 62
7
  6
CONTINUOUS
 10
73.2016809964
 20
147.9238370676
 40
0.5
100
AcDbArc
 50
180.0
 51
270.0
  0
ARC
  5
2B9
100
AcDbEntity
  8
RUNDUNGEN
100
AcDbCircle
 62
7
  6
CONTINUOUS
 10
85.2016809964
 20
158.9238370676
 40
0.5
100
AcDbArc
 50
0.0
 51
90.0
  0
ARC
  5
2BA
100
AcDbEntity
  8
RUNDUNGEN
100
AcDbCircle
 62
7
  6
CONTINUOUS
 10
69.7016809964
 20
158.9238370676
 40
0.5
100
AcDbArc
 50
90.0
 51
180.0
  0
ARC
  5
2BB
100
AcDbEntity
  8
RUNDUNGEN
100
AcDbCircle
 62
7
  6
CONTINUOUS
 10
73.2016809964
 20
158.9238370676
 40
0.5
100
AcDbArc
 50
90.0
 51
180.0
  0
ARC
  5
2BC
100
AcDbEntity
  8
RUNDUNGEN
100
AcDbCircle
 62
7
  6
CONTINUOUS
 10
140.7016809964
 20
148.4238370676
 40
1.0
100
AcDbArc
 50
270.0
 51
360.0
  0
ARC
  5
2BD
100
AcDbEntity
  8
RUNDUNGEN
100
AcDbCircle
 62
7
  6
CONTINUOUS
 10
139.4516809964
 20
150.0238370676
 40
0.5
100
AcDbArc
 50
201.072416186
 51
270.0
  0
ARC
  5
2BE
100
AcDbEntity
  8
RUNDUNGEN
100
AcDbCircle
 62
7
  6
CONTINUOUS
 10
135.8516809964
 20
150.0238370676
 40
0.5
100
AcDbArc
 50
270.0
 51
338.9275888304
  0
ARC
  5
2BF
100
AcDbEntity
  8
RUNDUNGEN
100
AcDbCircle
 62
7
  6
CONTINUOUS
 10
139.4516809964
 20
150.0238370676
 40
0.3
100
AcDbArc
 50
216.9661069513
 51
270.0
  0
ARC
  5
2C0
100
AcDbEntity
  8
RUNDUNGEN
100
AcDbCircle
 62
7
  6
CONTINUOUS
 10
135.8516809964
 20
150.0238370676
 40
0.3
100
AcDbArc
 50
270.0
 51
323.0352618984
  0
ARC
  5
2C1
100
AcDbEntity
  8
RUNDUNGEN
100
AcDbCircle
 62
7
  6
CONTINUOUS
 10
139.5016809964
 20
149.3238370676
 40
0.2
100
AcDbArc
 50
0.0
 51
90.0
  0
ARC
  5
2C2
100
AcDbEntity
  8
RUNDUNGEN
100
AcDbCircle
 62
7
  6
CONTINUOUS
 10
135.8016809964
 20
149.3238370676
 40
0.2
100
AcDbArc
 50
90.0
 51
180.0
  0
ARC
  5
2C3
100
AcDbEntity
  8
RUNDUNGEN
100
AcDbCircle
 62
7
  6
CONTINUOUS
 10
140.7016809964
 20
158.4238370676
 40
1.0
100
AcDbArc
 50
0.0
 51
90.0
  0
ARC
  5
2C4
100
AcDbEntity
  8
RUNDUNGEN
100
AcDbCircle
 62
7
  6
CONTINUOUS
 10
215.4341727464
 20
153.4238370676
 40
6.5
100
AcDbArc
 50
302.2042281044
 51
337.380135052
  0
ARC
  5
2C5
100
AcDbEntity
  8
RUNDUNGEN
100
AcDbCircle
 62
7
  6
CONTINUOUS
 10
215.4341727464
 20
153.4238370676
 40
6.5
100
AcDbArc
 50
22.619864948
 51
57.7957742726
  0
ARC
  5
2C6
100
AcDbEntity
  8
RUNDUNGEN
100
AcDbCircle
 62
7
  6
CONTINUOUS
 10
215.3047632475
 20
153.4238370676
 40
6.4999999778
100
AcDbArc
 50
340.559232919
 51
19.440767081
  0
CIRCLE
  5
2C7
100
AcDbEntity
  8
0
100
AcDbCircle
 62
7
  6
CONTINUOUS
 10
215.4341727464
 20
153.4238370676
 40
6.0
  0
ARC
  5
2C8
100
AcDbEntity
  8
RUNDUNGEN
100
AcDbCircle
 62
7
  6
CONTINUOUS
 10
210.4341727464
 20
156.4238370676
 40
3.0
100
AcDbArc
 50
90.0
 51
180.0
  0
ARC
  5
2C9
100
AcDbEntity
  8
RUNDUNGEN
100
AcDbCircle
 62
7
  6
CONTINUOUS
 10
210.4341727464
 20
150.4238370676
 40
3.0
100
AcDbArc
 50
180.0
 51
270.0
  0
ARC
  5
2CA
100
AcDbEntity
  8
0
100
AcDbCircle
 62
7
  6
CONTINUOUS
 10
240.1841727464
 20
153.4238370676
 40
2.75
100
AcDbArc
 50
270.0
 51
90.0
  0
ARC
  5
2CB
100
AcDbEntity
  8
0
100
AcDbCircle
 62
7
  6
CONTINUOUS
 10
232.6841727464
 20
153.4238370676
 40
2.75
100
AcDbArc
 50
90.0
 51
270.0
  0
CIRCLE
  5
2CC
100
AcDbEntity
  8
0
100
AcDbCircle
 62
7
  6
CONTINUOUS
 10
215.4341727464
 20
153.4238370676
 40
2.7
  0
ARC
  5
2CD
100
AcDbEntity
  8
RUNDUNGEN
100
AcDbCircle
 62
7
  6
CONTINUOUS
 10
210.2631839428
 20
150.4238583439
 40
2.5000183123
100
AcDbArc
 50
180.0004876115
 51
269.9995125767
  0
ARC
  5
2CE
100
AcDbEntity
  8
RUNDUNGEN
100
AcDbCircle
 62
7
  6
CONTINUOUS
 10
210.2631841615
 20
156.4238155721
 40
2.500018301
100
AcDbArc
 50
90.0004924345
 51
179.9995073627
  0
ARC
  5
2CF
100
AcDbEntity
  8
RUNDUNGEN
100
AcDbCircle
 62
7
  6
CONTINUOUS
 10
245.4341727464
 20
158.4238370676
 40
1.0
100
AcDbArc
 50
0.0
 51
90.0000000186
  0
ARC
  5
2D0
100
AcDbEntity
  8
RUNDUNGEN
100
AcDbCircle
 62
7
  6
CONTINUOUS
 10
245.4341727464
 20
148.4238370676
 40
1.0
100
AcDbArc
 50
270.0025976518
 51
360.0
  0
ARC
  5
2D1
100
AcDbEntity
  8
0
100
AcDbCircle
 62
7
  6
CONTINUOUS
 10
79.2016809964
 20
63.6537358568
 40
6.5
100
AcDbArc
 50
357.795772496
 51
360.0
  0
ARC
  5
2D2
100
AcDbEntity
  8
0
100
AcDbCircle
 62
7
  6
CONTINUOUS
 10
79.2016809964
 20
63.6537358568
 40
6.5
100
AcDbArc
 50
180.0
 51
182.204227504
  0
ARC
  5
2D3
100
AcDbEntity
  8
RUNDUNGEN
100
AcDbCircle
 62
7
  6
CONTINUOUS
 10
79.2016809964
 20
63.6537358568
 40
6.5
100
AcDbArc
 50
180.0
 51
360.0
  0
ARC
  5
2D4
100
AcDbEntity
  8
RUNDUNGEN
100
AcDbCircle
 62
7
  6
CONTINUOUS
 10
79.2016809964
 20
63.6537358568
 40
6.0
100
AcDbArc
 50
180.0
 51
246.4435356846
  0
ARC
  5
2D5
100
AcDbEntity
  8
RUNDUNGEN
100
AcDbCircle
 62
7
  6
CONTINUOUS
 10
79.2016809964
 20
63.6537358568
 40
6.0
100
AcDbArc
 50
293.5550644885
 51
360.0
  0
ARC
  5
2D6
100
AcDbEntity
  8
RUNDUNGEN
100
AcDbCircle
 62
7
  6
CONTINUOUS
 10
79.2016809964
 20
71.1537358568
 40
2.5
100
AcDbArc
 50
0.0
 51
180.0
  0
ARC
  5
2D7
100
AcDbEntity
  8
0
100
AcDbCircle
 62
7
  6
CONTINUOUS
 10
79.2016809964
 20
63.1537358568
 40
2.5
100
AcDbArc
 50
180.0
 51
360.0
  0
ARC
  5
2D8
100
AcDbEntity
  8
RUNDUNGEN
100
AcDbCircle
 62
7
  6
CONTINUOUS
 10
79.2016809964
 20
81.1537358568
 40
7.5
100
AcDbArc
 50
180.0
 51
360.0
  0
ARC
  5
2D9
100
AcDbEntity
  8
RUNDUNGEN
100
AcDbCircle
 62
7
  6
CONTINUOUS
 10
79.2016809964
 20
81.1537358568
 40
7.0
100
AcDbArc
 50
179.9999999723
 51
360.0
  0
ARC
  5
2DA
100
AcDbEntity
  8
RUNDUNGEN
100
AcDbCircle
 62
7
  6
CONTINUOUS
 10
100.205753241
 20
81.153775692
 40
0.9999943144
100
AcDbArc
 50
21.9958295635
 51
89.9984376616
  0
ARC
  5
2DB
100
AcDbEntity
  8
RUNDUNGEN
100
AcDbCircle
 62
7
  6
CONTINUOUS
 10
102.4631547288
 20
93.6537358428
 40
0.5
100
AcDbArc
 50
22.0
 51
89.9999997739
  0
ARC
  5
2DC
100
AcDbEntity
  8
RUNDUNGEN
100
AcDbCircle
 62
7
  6
CONTINUOUS
 10
88.7355939046
 20
93.6537021549
 40
0.5
100
AcDbArc
 50
90.0004618812
 51
159.9999999996
  0
ARC
  5
2DD
100
AcDbEntity
  8
RUNDUNGEN
100
AcDbCircle
 62
7
  6
CONTINUOUS
 10
69.667768114
 20
93.653702084
 40
0.5
100
AcDbArc
 50
20.0000000003
 51
89.9995371835
  0
ARC
  5
2DE
100
AcDbEntity
  8
RUNDUNGEN
100
AcDbCircle
 62
7
  6
CONTINUOUS
 10
68.8180175027
 20
81.6537358558
 40
0.5000000001
100
AcDbArc
 50
15.0353345588
 51
90.0
  0
ARC
  5
2DF
100
AcDbEntity
  8
RUNDUNGEN
100
AcDbCircle
 62
7
  6
CONTINUOUS
 10
89.5853444904
 20
81.6537358568
 40
0.5
100
AcDbArc
 50
90.0
 51
136.4801889372
  0
ARC
  5
2E0
100
AcDbEntity
  8
RUNDUNGEN
100
AcDbCircle
 62
7
  6
CONTINUOUS
 10
69.1304151571
 20
82.6154794849
 40
0.4287342098
100
AcDbArc
 50
180.0274183341
 51
196.206551873
  0
ARC
  5
2E1
100
AcDbEntity
  8
RUNDUNGEN
100
AcDbCircle
 62
7
  6
CONTINUOUS
 10
89.2729498684
 20
82.6154790524
 40
0.4287311769
100
AcDbArc
 50
343.7933905177
 51
359.9726392751
  0
ARC
  5
2E2
100
AcDbEntity
  8
RUNDUNGEN
100
AcDbCircle
 62
7
  6
CONTINUOUS
 10
121.1799505319
 20
76.1537358568
 40
2.5
100
AcDbArc
 50
270.0
 51
340.0
  0
ARC
  5
2E3
100
AcDbEntity
  8
RUNDUNGEN
100
AcDbCircle
 62
7
  6
CONTINUOUS
 10
112.2299505319
 20
76.1537358568
 40
2.5
100
AcDbArc
 50
202.0
 51
270.0
  0
ARC
  5
2E4
100
AcDbEntity
  8
RUNDUNGEN
100
AcDbCircle
 62
7
  6
CONTINUOUS
 10
120.9299505319
 20
59.1537358568
 40
2.0
100
AcDbArc
 50
270.0
 51
340.0
  0
ARC
  5
2E5
100
AcDbEntity
  8
RUNDUNGEN
100
AcDbCircle
 62
7
  6
CONTINUOUS
 10
112.3299505319
 20
59.1537358568
 40
2.0
100
AcDbArc
 50
201.9999998906
 51
270.0
  0
ARC
  5
2E6
100
AcDbEntity
  8
RUNDUNGEN
100
AcDbCircle
 62
7
  6
CONTINUOUS
 10
112.2299505319
 20
76.1537358568
 40
2.0
100
AcDbArc
 50
202.0
 51
270.0
  0
ARC
  5
2E7
100
AcDbEntity
  8
RUNDUNGEN
100
AcDbCircle
 62
7
  6
CONTINUOUS
 10
121.1799505319
 20
76.1537358568
 40
2.0
100
AcDbArc
 50
270.0
 51
340.0
  0
ARC
  5
2E8
100
AcDbEntity
  8
RUNDUNGEN
100
AcDbCircle
 62
7
  6
CONTINUOUS
 10
112.3299505319
 20
59.1537358568
 40
1.5
100
AcDbArc
 50
202.0
 51
221.8103148958
  0
ARC
  5
2E9
100
AcDbEntity
  8
RUNDUNGEN
100
AcDbCircle
 62
7
  6
CONTINUOUS
 10
120.9299505319
 20
59.1537358568
 40
1.5
100
AcDbArc
 50
318.1896851042
 51
340.0
  0
ARC
  5
2EA
100
AcDbEntity
  8
RUNDUNGEN
100
AcDbCircle
 62
7
  6
CONTINUOUS
 10
140.7016809964
 20
81.1537358568
 40
1.0
100
AcDbArc
 50
270.0
 51
360.0
  0
ARC
  5
2EB
100
AcDbEntity
  8
RUNDUNGEN
100
AcDbCircle
 62
7
  6
CONTINUOUS
 10
140.7016809964
 20
95.1537358568
 40
1.0
100
AcDbArc
 50
0.0
 51
90.0
  0
ARC
  5
2EC
100
AcDbEntity
  8
RUNDUNGEN
100
AcDbCircle
 62
7
  6
CONTINUOUS
 10
131.4019011968
 20
79.1537706459
 40
0.9999913027
100
AcDbArc
 50
90.0007255161
 51
160.0021211933
  0
ARC
  5
2ED
100
AcDbEntity
  8
RUNDUNGEN
100
AcDbCircle
 62
7
  6
CONTINUOUS
 10
130.9378145313
 20
95.6537358568
 40
0.5
100
AcDbArc
 50
90.0
 51
160.0
  0
SPLINE
  5
2EE
100
AcDbEntity
  8
0
100
AcDbSpline
 62
7
  6
CONTINUOUS
 70
0
 71
3
 72
35
 73
31
 74
0
 42
0.0000001
 43
0.0000001
 44
0.0000000001
 40
0.0
 40
0.0
 40
0.0
 40
0.0
 40
0.0013120389
 40
0.003749829
 40
0.0073990888
 40
0.0122682188
 40
0.0256109364
 40
0.0435487186
 40
0.0657893418
 40
0.0920044652
 40
0.1218527912
 40
0.1550006634
 40
0.2299034259
 40
0.3142112419
 40
0.4052892889
 40
0.5000016772
 40
0.5947137742
 40
0.6857911998
 40
0.7700983148
 40
0.8450003312
 40
0.8781480499
 40
0.9079962176
 40
0.9342111367
 40
0.9564516061
 40
0.9743892528
 40
0.9877319232
 40
0.9926010293
 40
0.9962502398
 40
0.9986879813
 40
1.0
 40
1.0
 40
1.0
 40
1.0
 10
85.6968715248
 20
150.6738370676
 30
0.0
 10
85.6943535488
 20
150.6738370676
 30
0.0
 10
85.6880330563
 20
150.6786645268
 30
0.0
 10
85.6789576626
 20
150.6890262911
 30
0.0
 10
85.6666117037
 20
150.7063419918
 30
0.0
 10
85.6442932231
 20
150.7417358008
 30
0.0
 10
85.6104818429
 20
150.8024596678
 30
0.0
 10
85.5639134791
 20
150.8939767551
 30
0.0
 10
85.5094950257
 20
151.0092272746
 30
0.0
 10
85.4490069045
 20
151.1468042374
 30
0.0
 10
85.384308088
 20
151.305343945
 30
0.0
 10
85.2912798632
 20
151.55313158
 30
0.0
 10
85.1780181403
 20
151.9047991666
 30
0.0
 10
85.0645006975
 20
152.3720565971
 30
0.0
 10
84.9865058959
 20
152.8852913962
 30
0.0
 10
84.9585860852
 20
153.4238462246
 30
0.0
 10
84.9865062574
 20
153.9623999247
 30
0.0
 10
85.0645034829
 20
154.4756312208
 30
0.0
 10
85.1780208315
 20
154.9428845533
 30
0.0
 10
85.2912823937
 20
155.294548949
 30
0.0
 10
85.3843097354
 20
155.542334749
 30
0.0
 10
85.4490085614
 20
155.7008733815
 30
0.0
 10
85.5094961347
 20
155.8384495026
 30
0.0
 10
85.5639144234
 20
155.9536990516
 30
0.0
 10
85.6104824236
 20
156.0452155996
 30
0.0
 10
85.6442936524
 20
156.105939095
 30
0.0
 10
85.6666120815
 20
156.1413326715
 30
0.0
 10
85.6789579109
 20
156.1586481586
 30
0.0
 10
85.6880331687
 20
156.169009783
 30
0.0
 10
85.6943535875
 20
156.1738370676
 30
0.0
 10
85.6968715248
 20
156.1738370676
 30
0.0
  0
SPLINE
  5
2EF
100
AcDbEntity
  8
0
100
AcDbSpline
 62
7
  6
CONTINUOUS
 70
0
 71
3
 72
35
 73
31
 74
0
 42
0.0000001
 43
0.0000001
 44
0.0000000001
 40
0.0
 40
0.0
 40
0.0
 40
0.0
 40
0.0013120165
 40
0.0037497523
 40
0.0073989561
 40
0.0122680567
 40
0.0256107047
 40
0.0435483132
 40
0.0657887501
 40
0.0920036281
 40
0.1218517608
 40
0.1549994577
 40
0.2299014642
 40
0.31420863
 40
0.4052861355
 40
0.499998233
 40
0.5947105109
 40
0.6857883611
 40
0.7700960462
 40
0.8449988224
 40
0.8781467493
 40
0.9079951646
 40
0.9342103914
 40
0.9564510952
 40
0.9743889679
 40
0.987731739
 40
0.9926008817
 40
0.9962501554
 40
0.9986879568
 40
1.0
 40
1.0
 40
1.0
 40
1.0
 10
72.706490468
 20
156.1738370676
 30
0.0
 10
72.7090084011
 20
156.1738370676
 30
0.0
 10
72.7153288111
 20
156.169009802
 30
0.0
 10
72.7244040521
 20
156.1586481954
 30
0.0
 10
72.7367498625
 20
156.1413327392
 30
0.0
 10
72.7590682671
 20
156.1059392249
 30
0.0
 10
72.7928794318
 20
156.0452158393
 30
0.0
 10
72.8394473455
 20
155.9536994481
 30
0.0
 10
72.8938656029
 20
155.8384501211
 30
0.0
 10
72.9543530506
 20
155.7008741722
 30
0.0
 10
73.0190519036
 20
155.5423357539
 30
0.0
 10
73.1120791622
 20
155.2945500581
 30
0.0
 10
73.2253408687
 20
154.9428856744
 30
0.0
 10
73.3388583784
 20
154.475632136
 30
0.0
 10
73.4168556321
 20
153.9624005896
 30
0.0
 10
73.4447759384
 20
153.4238469571
 30
0.0
 10
73.4168562617
 20
152.8852927083
 30
0.0
 10
73.3388616265
 20
152.3720587365
 30
0.0
 10
73.225344541
 20
151.9048018515
 30
0.0
 10
73.1120831851
 20
151.5531342629
 30
0.0
 10
73.0190547631
 20
151.3053463808
 30
0.0
 10
72.9543560029
 20
151.1468061364
 30
0.0
 10
72.8938675733
 20
151.0092287359
 30
0.0
 10
72.8394490326
 20
150.8939776757
 30
0.0
 10
72.7928804639
 20
150.8024602076
 30
0.0
 10
72.7590689292
 20
150.741736082
 30
0.0
 10
72.7367503888
 20
150.7063421307
 30
0.0
 10
72.7244043902
 20
150.6890263648
 30
0.0
 10
72.7153289626
 20
150.6786645637
 30
0.0
 10
72.7090084523
 20
150.6738370676
 30
0.0
 10
72.706490468
 20
150.6738370676
 30
0.0
  0
SPLINE
  5
2F0
100
AcDbEntity
  8
RUNDUNGEN
100
AcDbSpline
 62
7
  6
CONTINUOUS
 70
0
 71
3
 72
13
 73
9
 74
0
 42
0.0000001
 43
0.0000001
 44
0.0000000001
 40
0.0
 40
0.0
 40
0.0
 40
0.0
 40
0.0926895543
 40
0.2043753358
 40
0.3276269927
 40
0.4575969261
 40
0.7267592696
 40
1.0
 40
1.0
 40
1.0
 40
1.0
 10
130.781599088
 20
147.9238357865
 30
0.0
 10
130.8387484366
 20
147.8897247637
 30
0.0
 10
130.9711135588
 20
147.8254542775
 30
0.0
 10
131.1890561129
 20
147.7368536219
 30
0.0
 10
131.4368682915
 20
147.6512636165
 30
0.0
 10
131.7972316201
 20
147.5467558496
 30
0.0
 10
132.2716366581
 20
147.4509673842
 30
0.0
 10
132.6615757302
 20
147.4238207837
 30
0.0
 10
132.8577749979
 20
147.4238448938
 30
0.0
  0
SPLINE
  5
2F1
100
AcDbEntity
  8
RUNDUNGEN
100
AcDbSpline
 62
7
  6
CONTINUOUS
 70
0
 71
3
 72
12
 73
8
 74
0
 42
0.0000001
 43
0.0000001
 44
0.0000000001
 40
0.0
 40
0.0
 40
0.0
 40
0.0
 40
0.0989848613
 40
0.2117627146
 40
0.4614199327
 40
0.7275766472
 40
1.0
 40
1.0
 40
1.0
 40
1.0
 10
100.0542509153
 20
158.9238391254
 30
0.0
 10
99.9727135062
 20
158.9629142166
 30
0.0
 10
99.7930250965
 20
159.0354624682
 30
0.0
 10
99.3922208451
 20
159.166309149
 30
0.0
 10
98.8324578403
 20
159.2990740391
 30
0.0
 10
98.1187393752
 20
159.4005448785
 30
0.0
 10
97.6264300338
 20
159.4238466431
 30
0.0
 10
97.3775872444
 20
159.4238301015
 30
0.0
  0
SPLINE
  5
2F2
100
AcDbEntity
  8
RUNDUNGEN
100
AcDbSpline
 62
7
  6
CONTINUOUS
 70
0
 71
3
 72
12
 73
8
 74
0
 42
0.0000001
 43
0.0000001
 44
0.0000000001
 40
0.0
 40
0.0
 40
0.0
 40
0.0
 40
0.2724235042
 40
0.5385782457
 40
0.7882364611
 40
0.9010144494
 40
1.0
 40
1.0
 40
1.0
 40
1.0
 10
97.3775867367
 20
147.4238464733
 30
0.0
 10
97.6264291907
 20
147.4238283631
 30
0.0
 10
98.1187359024
 20
147.447131474
 30
0.0
 10
98.8324527154
 20
147.5485978719
 30
0.0
 10
99.3922141509
 20
147.6813620011
 30
0.0
 10
99.7930191999
 20
147.8122086848
 30
0.0
 10
99.9727084917
 20
147.8847560215
 30
0.0
 10
100.0542459609
 20
147.9238320459
 30
0.0
  0
SPLINE
  5
2F3
100
AcDbEntity
  8
RUNDUNGEN
100
AcDbSpline
 62
7
  6
CONTINUOUS
 70
0
 71
3
 72
9
 73
5
 74
0
 42
0.0000001
 43
0.0000001
 44
0.0000000001
 40
0.0
 40
0.0
 40
0.0
 40
0.0
 40
0.2520709043
 40
1.0
 40
1.0
 40
1.0
 40
1.0
 10
89.6846439096
 20
155.4208300768
 30
0.0
 10
89.6873087893
 20
155.4468451721
 30
0.0
 10
89.6968214199
 20
155.5501498599
 30
0.0
 10
89.701678405
 20
155.6539350771
 30
0.0
 10
89.7016809964
 20
155.7315293753
 30
0.0
  0
SPLINE
  5
2F4
100
AcDbEntity
  8
RUNDUNGEN
100
AcDbSpline
 62
7
  6
CONTINUOUS
 70
0
 71
3
 72
9
 73
5
 74
0
 42
0.0000001
 43
0.0000001
 44
0.0000000001
 40
0.0
 40
0.0
 40
0.0
 40
0.0
 40
0.4999999968
 40
1.0
 40
1.0
 40
1.0
 40
1.0
 10
89.6846439096
 20
151.4268440585
 30
0.0
 10
89.6167378947
 20
152.0898624393
 30
0.0
 10
89.5539510749
 20
153.4238370645
 30
0.0
 10
89.6167379173
 20
154.757811685
 30
0.0
 10
89.6846439096
 20
155.4208300768
 30
0.0
  0
SPLINE
  5
2F5
100
AcDbEntity
  8
RUNDUNGEN
100
AcDbSpline
 62
7
  6
CONTINUOUS
 70
0
 71
3
 72
9
 73
5
 74
0
 42
0.0000001
 43
0.0000001
 44
0.0000000001
 40
0.0
 40
0.0
 40
0.0
 40
0.0
 40
0.2479456778
 40
1.0
 40
1.0
 40
1.0
 40
1.0
 10
89.7016809964
 20
151.1161447599
 30
0.0
 10
89.7016806186
 20
151.14186886
 30
0.0
 10
89.700053968
 20
151.2456175
 30
0.0
 10
89.6925941787
 20
151.3492253229
 30
0.0
 10
89.6846439096
 20
151.4268440585
 30
0.0
  0
SPLINE
  5
2F6
100
AcDbEntity
  8
RUNDUNGEN
100
AcDbSpline
 62
7
  6
CONTINUOUS
 70
0
 71
3
 72
9
 73
5
 74
0
 42
0.0000001
 43
0.0000001
 44
0.0000000001
 40
0.0
 40
0.0
 40
0.0
 40
0.0
 40
0.5287743528
 40
1.0
 40
1.0
 40
1.0
 40
1.0
 10
130.4621959139
 20
156.4238370676
 30
0.0
 10
130.4622543452
 20
156.8691104372
 30
0.0
 10
130.5123186787
 20
157.711826034
 30
0.0
 10
130.6705984873
 20
158.5428701113
 30
0.0
 10
130.7816031877
 20
158.923840002
 30
0.0
  0
LINE
  5
2F7
100
AcDbEntity
  8
RUNDUNGEN
100
AcDbLine
 62
7
  6
CONTINUOUS
 10
69.2016809964
 20
150.9238370676
 11
69.2016809964
 21
151.2604279744
  0
SPLINE
  5
2F8
100
AcDbEntity
  8
RUNDUNGEN
100
AcDbSpline
 62
7
  6
CONTINUOUS
 70
0
 71
3
 72
9
 73
5
 74
0
 42
0.0000001
 43
0.0000001
 44
0.0000000001
 40
0.0
 40
0.0
 40
0.0
 40
0.0
 40
0.5000003556
 40
1.0
 40
1.0
 40
1.0
 40
1.0
 10
69.2016809964
 20
151.2604279744
 30
0.0
 10
69.2696162999
 20
151.9791203906
 30
0.0
 10
69.332344274
 20
153.4238375564
 30
0.0
 10
69.2696168159
 20
154.868554825
 30
0.0
 10
69.2016809964
 20
155.5872461609
 30
0.0
  0
SPLINE
  5
2F9
100
AcDbEntity
  8
RUNDUNGEN
100
AcDbSpline
 62
7
  6
CONTINUOUS
 70
0
 71
3
 72
16
 73
12
 74
0
 42
0.0000001
 43
0.0000001
 44
0.0000000001
 40
0.0
 40
0.0
 40
0.0
 40
0.0
 40
0.0371261741
 40
0.0754384229
 40
0.1593149971
 40
0.2581247658
 40
0.3749418505
 40
0.5103113468
 40
0.6625362347
 40
0.8277122668
 40
1.0
 40
1.0
 40
1.0
 40
1.0
 10
97.3775866981
 20
147.4238370676
 30
0.0
 10
97.4660729703
 20
147.4238353936
 30
0.0
 10
97.6463507075
 20
147.442041432
 30
0.0
 10
98.0116260227
 20
147.5530945007
 30
0.0
 10
98.4629655938
 20
147.8434915676
 30
0.0
 10
98.9414518378
 20
148.3808933291
 30
0.0
 10
99.3669347564
 20
149.1060209903
 30
0.0
 10
99.7239604937
 20
150.0044850392
 30
0.0
 10
99.9960230741
 20
151.0512222226
 30
0.0
 10
100.167043374
 20
152.2077142057
 30
0.0
 10
100.2057508771
 20
153.0125992803
 30
0.0
 10
100.2057805079
 20
153.4232286969
 30
0.0
  0
SPLINE
  5
2FA
100
AcDbEntity
  8
RUNDUNGEN
100
AcDbSpline
 62
7
  6
CONTINUOUS
 70
0
 71
3
 72
16
 73
12
 74
0
 42
0.0000001
 43
0.0000001
 44
0.0000000001
 40
0.0
 40
0.0
 40
0.0
 40
0.0
 40
0.1722848148
 40
0.3374639848
 40
0.4896982021
 40
0.6250715487
 40
0.7418908498
 40
0.8406979373
 40
0.9245765942
 40
0.9628890841
 40
1.0
 40
1.0
 40
1.0
 40
1.0
 10
100.2057805079
 20
153.4232286969
 30
0.0
 10
100.2058041872
 20
153.8339204857
 30
0.0
 10
100.1671237425
 20
154.6389448648
 30
0.0
 10
99.9961792733
 20
155.7956690705
 30
0.0
 10
99.7241415685
 20
156.8426420661
 30
0.0
 10
99.3671049594
 20
157.741319569
 30
0.0
 10
98.9415747646
 20
158.4665897016
 30
0.0
 10
98.4630665283
 20
159.0041422404
 30
0.0
 10
98.0116341138
 20
159.294577292
 30
0.0
 10
97.6463218126
 20
159.405613627
 30
0.0
 10
97.4660520835
 20
159.4238396048
 30
0.0
 10
97.3775872443
 20
159.4238370676
 30
0.0
  0
LINE
  5
2FB
100
AcDbEntity
  8
RUNDUNGEN
100
AcDbLine
 62
7
  6
CONTINUOUS
 10
69.2016809964
 20
155.5872461609
 11
69.2016809964
 21
155.9238370676
  0
SPLINE
  5
2FC
100
AcDbEntity
  8
RUNDUNGEN
100
AcDbSpline
 62
7
  6
CONTINUOUS
 70
0
 71
3
 72
10
 73
6
 74
0
 42
0.0000001
 43
0.0000001
 44
0.0000000001
 40
0.0
 40
0.0
 40
0.0
 40
0.0
 40
0.2254376363
 40
0.4713466307
 40
1.0
 40
1.0
 40
1.0
 40
1.0
 10
130.7815912614
 20
147.9238381089
 30
0.0
 10
130.7284590618
 20
148.1061575922
 30
0.0
 10
130.6354369844
 20
148.4927507738
 30
0.0
 10
130.5007411853
 20
149.3247679542
 30
0.0
 10
130.4622797572
 20
149.9785110622
 30
0.0
 10
130.4621959139
 20
150.4238370676
 30
0.0
  0
SPLINE
  5
2FD
100
AcDbEntity
  8
RUNDUNGEN
100
AcDbSpline
 62
7
  6
CONTINUOUS
 70
0
 71
3
 72
13
 73
9
 74
0
 42
0.0000001
 43
0.0000001
 44
0.0000000001
 40
0.0
 40
0.0
 40
0.0
 40
0.0
 40
0.3344732234
 40
0.627039037
 40
0.7474830084
 40
0.848083217
 40
0.930166951
 40
1.0
 40
1.0
 40
1.0
 40
1.0
 10
76.6039389188
 20
147.9238370676
 30
0.0
 10
76.6039417905
 20
147.8598550564
 30
0.0
 10
76.6129681084
 20
147.7398004091
 30
0.0
 10
76.6471276821
 20
147.5996955108
 30
0.0
 10
76.6891422545
 20
147.5104891471
 30
0.0
 10
76.7230698995
 20
147.4629214543
 30
0.0
 10
76.761175783
 20
147.4318717546
 30
0.0
 10
76.790406735
 20
147.4238370676
 30
0.0
 10
76.8037652301
 20
147.4238370676
 30
0.0
  0
LINE
  5
2FE
100
AcDbEntity
  8
RUNDUNGEN
100
AcDbLine
 62
7
  6
CONTINUOUS
 10
89.2016809964
 20
155.5872461609
 11
89.2016809964
 21
155.9238370676
  0
SPLINE
  5
2FF
100
AcDbEntity
  8
RUNDUNGEN
100
AcDbSpline
 62
7
  6
CONTINUOUS
 70
0
 71
3
 72
9
 73
5
 74
0
 42
0.0000001
 43
0.0000001
 44
0.0000000001
 40
0.0
 40
0.0
 40
0.0
 40
0.0
 40
0.4999999972
 40
1.0
 40
1.0
 40
1.0
 40
1.0
 10
89.2016809964
 20
151.2604279744
 30
0.0
 10
89.1337447275
 20
151.9791197796
 30
0.0
 10
89.0710184119
 20
153.4238370651
 30
0.0
 10
89.1337447577
 20
154.8685543448
 30
0.0
 10
89.2016809964
 20
155.5872461609
 30
0.0
  0
LINE
  5
300
100
AcDbEntity
  8
RUNDUNGEN
100
AcDbLine
 62
7
  6
CONTINUOUS
 10
89.2016809964
 20
150.9238370676
 11
89.2016809964
 21
151.2604279744
  0
SPLINE
  5
301
100
AcDbEntity
  8
RUNDUNGEN
100
AcDbSpline
 62
7
  6
CONTINUOUS
 70
0
 71
3
 72
13
 73
9
 74
0
 42
0.0000001
 43
0.0000001
 44
0.0000000001
 40
0.0
 40
0.0
 40
0.0
 40
0.0
 40
0.334468583
 40
0.6270301904
 40
0.7474733745
 40
0.8480743797
 40
0.9301612072
 40
1.0
 40
1.0
 40
1.0
 40
1.0
 10
76.6039389188
 20
158.9238370676
 30
0.0
 10
76.6039389209
 20
158.9878188769
 30
0.0
 10
76.6129610548
 20
159.1078735434
 30
0.0
 10
76.6471183917
 20
159.2479789506
 30
0.0
 10
76.689133731
 20
159.3371853113
 30
0.0
 10
76.7230632825
 20
159.384753256
 30
0.0
 10
76.7611724287
 20
159.415802864
 30
0.0
 10
76.7904054977
 20
159.4238370676
 30
0.0
 10
76.8037652348
 20
159.4238370676
 30
0.0
  0
SPLINE
  5
302
100
AcDbEntity
  8
RUNDUNGEN
100
AcDbSpline
 62
7
  6
CONTINUOUS
 70
0
 71
3
 72
15
 73
11
 74
0
 42
0.0000001
 43
0.0000001
 44
0.0000000001
 40
0.0
 40
0.0
 40
0.0
 40
0.0
 40
0.076499669
 40
0.1613891719
 40
0.2606242095
 40
0.3773506416
 40
0.5122663021
 40
0.6638447815
 40
0.8283446127
 40
1.0
 40
1.0
 40
1.0
 40
1.0
 10
132.8577713429
 20
147.4238370697
 30
0.0
 10
132.7659717549
 20
147.4238419551
 30
0.0
 10
132.5708630498
 20
147.4636580984
 30
0.0
 10
132.3015052912
 20
147.6318788161
 30
0.0
 10
132.0546483813
 20
147.8996569585
 30
0.0
 10
131.8353939969
 20
148.2615848496
 30
0.0
 10
131.6510465505
 20
148.7106415568
 30
0.0
 10
131.5104357445
 20
149.2345545172
 30
0.0
 10
131.4218976117
 20
149.814154132
 30
0.0
 10
131.4019192257
 20
150.2178506382
 30
0.0
 10
131.4018885346
 20
150.4238370676
 30
0.0
  0
SPLINE
  5
303
100
AcDbEntity
  8
RUNDUNGEN
100
AcDbSpline
 62
7
  6
CONTINUOUS
 70
0
 71
3
 72
12
 73
8
 74
0
 42
0.0000001
 43
0.0000001
 44
0.0000000001
 40
0.0
 40
0.0
 40
0.0
 40
0.0
 40
0.2779290578
 40
0.5456893449
 40
0.7911964946
 40
0.9011133817
 40
1.0
 40
1.0
 40
1.0
 40
1.0
 10
120.9299505319
 20
148.4238370676
 30
0.0
 10
121.0642007322
 20
148.3655458367
 30
0.0
 10
121.3279954355
 20
148.2514840148
 30
0.0
 10
121.7139887752
 20
148.0947717764
 30
0.0
 10
122.0251086721
 20
147.9882294021
 30
0.0
 10
122.2586683044
 20
147.9354282508
 30
0.0
 10
122.3685882366
 20
147.9238402245
 30
0.0
 10
122.4206625169
 20
147.9238370676
 30
0.0
  0
SPLINE
  5
304
100
AcDbEntity
  8
RUNDUNGEN
100
AcDbSpline
 62
7
  6
CONTINUOUS
 70
0
 71
3
 72
12
 73
8
 74
0
 42
0.0000001
 43
0.0000001
 44
0.0000000001
 40
0.0
 40
0.0
 40
0.0
 40
0.0
 40
0.0988844972
 40
0.2088053369
 40
0.4543104822
 40
0.7220710961
 40
1.0
 40
1.0
 40
1.0
 40
1.0
 10
122.4206625169
 20
158.9238370676
 30
0.0
 10
122.3685893408
 20
158.9238470382
 30
0.0
 10
122.2586682323
 20
158.9122405432
 30
0.0
 10
122.0251094586
 20
158.8594469261
 30
0.0
 10
121.713984686
 20
158.7529091154
 30
0.0
 10
121.3279975304
 20
158.596185937
 30
0.0
 10
121.0641925695
 20
158.4821469871
 30
0.0
 10
120.9299505319
 20
158.4238370676
 30
0.0
  0
SPLINE
  5
305
100
AcDbEntity
  8
RUNDUNGEN
100
AcDbSpline
 62
7
  6
CONTINUOUS
 70
0
 71
3
 72
11
 73
7
 74
0
 42
0.0000001
 43
0.0000001
 44
0.0000000001
 40
0.0
 40
0.0
 40
0.0
 40
0.0
 40
0.2586597884
 40
0.5123341306
 40
0.7587858768
 40
1.0
 40
1.0
 40
1.0
 40
1.0
 10
100.0542537191
 20
158.92383718
 30
0.0
 10
100.0542536984
 20
158.9886934137
 30
0.0
 10
100.0777921391
 20
159.1184145849
 30
0.0
 10
100.1795985544
 20
159.2844012155
 30
0.0
 10
100.3336219883
 20
159.3970762529
 30
0.0
 10
100.4573641713
 20
159.4238371215
 30
0.0
 10
100.517846087
 20
159.4238370676
 30
0.0
  0
SPLINE
  5
306
100
AcDbEntity
  8
RUNDUNGEN
100
AcDbSpline
 62
7
  6
CONTINUOUS
 70
0
 71
3
 72
11
 73
7
 74
0
 42
0.0000001
 43
0.0000001
 44
0.0000000001
 40
0.0
 40
0.0
 40
0.0
 40
0.0
 40
0.2586598242
 40
0.5123341807
 40
0.758785918
 40
1.0
 40
1.0
 40
1.0
 40
1.0
 10
110.4755828228
 20
158.9238370676
 30
0.0
 10
110.4755828228
 20
158.9886932797
 30
0.0
 10
110.4991212594
 20
159.1184143885
 30
0.0
 10
110.6009275217
 20
159.2844010064
 30
0.0
 10
110.7549507874
 20
159.397076102
 30
0.0
 10
110.8786928731
 20
159.4238370676
 30
0.0
 10
110.93917475
 20
159.4238370676
 30
0.0
  0
SPLINE
  5
307
100
AcDbEntity
  8
RUNDUNGEN
100
AcDbSpline
 62
7
  6
CONTINUOUS
 70
0
 71
3
 72
11
 73
7
 74
0
 42
0.0000001
 43
0.0000001
 44
0.0000000001
 40
0.0
 40
0.0
 40
0.0
 40
0.0
 40
0.282535664
 40
0.5472257216
 40
0.7843970167
 40
1.0
 40
1.0
 40
1.0
 40
1.0
 10
110.8392385471
 20
158.9238370676
 30
0.0
 10
110.8392385472
 20
158.9883148121
 30
0.0
 10
110.8571683726
 20
159.1140509221
 30
0.0
 10
110.9358553725
 20
159.2782980003
 30
0.0
 10
111.0580779151
 20
159.3942514416
 30
0.0
 10
111.1627135722
 20
159.4238370676
 30
0.0
 10
111.2119165431
 20
159.4238370676
 30
0.0
  0
SPLINE
  5
308
100
AcDbEntity
  8
RUNDUNGEN
100
AcDbSpline
 62
7
  6
CONTINUOUS
 70
0
 71
3
 72
11
 73
7
 74
0
 42
0.0000001
 43
0.0000001
 44
0.0000000001
 40
0.0
 40
0.0
 40
0.0
 40
0.0
 40
0.2770435832
 40
0.5406118048
 40
0.7812973619
 40
1.0
 40
1.0
 40
1.0
 40
1.0
 10
110.8392385471
 20
147.9238370676
 30
0.0
 10
110.8392359308
 20
147.867252342
 30
0.0
 10
110.8531738281
 20
147.7562760327
 30
0.0
 10
110.9145229582
 20
147.606759809
 30
0.0
 10
111.0105499092
 20
147.4910444215
 30
0.0
 10
111.096061519
 20
147.4450343148
 30
0.0
 10
111.139218274
 20
147.4335102506
 30
0.0
  0
SPLINE
  5
309
100
AcDbEntity
  8
RUNDUNGEN
100
AcDbSpline
 62
7
  6
CONTINUOUS
 70
0
 71
3
 72
8
 73
4
 74
0
 42
0.0000001
 43
0.0000001
 44
0.0000000001
 40
0.0
 40
0.0
 40
0.0
 40
0.0
 40
1.0
 40
1.0
 40
1.0
 40
1.0
 10
111.139218274
 20
147.4335102506
 30
0.0
 10
111.1628370476
 20
147.4272033755
 30
0.0
 10
111.1874702076
 20
147.4238370676
 30
0.0
 10
111.2119165395
 20
147.4238370676
 30
0.0
  0
SPLINE
  5
30A
100
AcDbEntity
  8
RUNDUNGEN
100
AcDbSpline
 62
7
  6
CONTINUOUS
 70
0
 71
3
 72
11
 73
7
 74
0
 42
0.0000001
 43
0.0000001
 44
0.0000000001
 40
0.0
 40
0.0
 40
0.0
 40
0.0
 40
0.2586598225
 40
0.5123341816
 40
0.7587859203
 40
1.0
 40
1.0
 40
1.0
 40
1.0
 10
110.4755828228
 20
147.9238370676
 30
0.0
 10
110.4755828228
 20
147.858980856
 30
0.0
 10
110.4991212592
 20
147.729259747
 30
0.0
 10
110.6009275218
 20
147.5632731285
 30
0.0
 10
110.7549507882
 20
147.4505980327
 30
0.0
 10
110.8786928737
 20
147.4238370676
 30
0.0
 10
110.93917475
 20
147.4238370676
 30
0.0
  0
SPLINE
  5
30B
100
AcDbEntity
  8
RUNDUNGEN
100
AcDbSpline
 62
7
  6
CONTINUOUS
 70
0
 71
3
 72
11
 73
7
 74
0
 42
0.0000001
 43
0.0000001
 44
0.0000000001
 40
0.0
 40
0.0
 40
0.0
 40
0.0
 40
0.2586598092
 40
0.5123341605
 40
0.7587859022
 40
1.0
 40
1.0
 40
1.0
 40
1.0
 10
100.0542542389
 20
147.9238368911
 30
0.0
 10
100.0542542676
 20
147.8589806929
 30
0.0
 10
100.0777927521
 20
147.7292596203
 30
0.0
 10
100.1795990482
 20
147.5632730663
 30
0.0
 10
100.3336223146
 20
147.4505980195
 30
0.0
 10
100.4573643854
 20
147.4238370689
 30
0.0
 10
100.517846257
 20
147.4238370676
 30
0.0
  0
SPLINE
  5
30C
100
AcDbEntity
  8
RUNDUNGEN
100
AcDbSpline
 62
7
  6
CONTINUOUS
 70
0
 71
3
 72
11
 73
7
 74
0
 42
0.0000001
 43
0.0000001
 44
0.0000000001
 40
0.0
 40
0.0
 40
0.0
 40
0.0
 40
0.2571357872
 40
0.5101505717
 40
0.7572207786
 40
1.0
 40
1.0
 40
1.0
 40
1.0
 10
130.7815882464
 20
147.9238381089
 30
0.0
 10
130.7815885912
 20
147.8589532076
 30
0.0
 10
130.7576351266
 20
147.7289353734
 30
0.0
 10
130.6542085174
 20
147.5628938432
 30
0.0
 10
130.4980750882
 20
147.4504594109
 30
0.0
 10
130.3730079789
 20
147.4238375577
 30
0.0
 10
130.3117457719
 20
147.4238370676
 30
0.0
  0
SPLINE
  5
30D
100
AcDbEntity
  8
RUNDUNGEN
100
AcDbSpline
 62
7
  6
CONTINUOUS
 70
0
 71
3
 72
11
 73
7
 74
0
 42
0.0000001
 43
0.0000001
 44
0.0000000001
 40
0.0
 40
0.0
 40
0.0
 40
0.0
 40
0.2571361879
 40
0.5101514653
 40
0.7572215883
 40
1.0
 40
1.0
 40
1.0
 40
1.0
 10
122.8093357735
 20
147.9238370676
 30
0.0
 10
122.8093357735
 20
147.8589518854
 30
0.0
 10
122.7853814642
 20
147.7289335777
 30
0.0
 10
122.6819533919
 20
147.5628920889
 30
0.0
 10
122.5258190784
 20
147.4504581774
 30
0.0
 10
122.4007516355
 20
147.4238370676
 30
0.0
 10
122.3394894631
 20
147.4238370676
 30
0.0
  0
SPLINE
  5
30E
100
AcDbEntity
  8
RUNDUNGEN
100
AcDbSpline
 62
7
  6
CONTINUOUS
 70
0
 71
3
 72
11
 73
7
 74
0
 42
0.0000001
 43
0.0000001
 44
0.0000000001
 40
0.0
 40
0.0
 40
0.0
 40
0.0
 40
0.2825356676
 40
0.5472257276
 40
0.7843970202
 40
1.0
 40
1.0
 40
1.0
 40
1.0
 10
122.4206625166
 20
147.9238370676
 30
0.0
 10
122.4206625165
 20
147.8593593224
 30
0.0
 10
122.4027326906
 20
147.733623211
 30
0.0
 10
122.3240456895
 20
147.5693761323
 30
0.0
 10
122.2018231466
 20
147.4534226925
 30
0.0
 10
122.0971874908
 20
147.4238370676
 30
0.0
 10
122.0479845206
 20
147.4238370676
 30
0.0
  0
SPLINE
  5
30F
100
AcDbEntity
  8
RUNDUNGEN
100
AcDbSpline
 62
7
  6
CONTINUOUS
 70
0
 71
3
 72
9
 73
5
 74
0
 42
0.0000001
 43
0.0000001
 44
0.0000000001
 40
0.0
 40
0.0
 40
0.0
 40
0.0
 40
0.5338381794
 40
1.0
 40
1.0
 40
1.0
 40
1.0
 10
122.4206625166
 20
158.9238370676
 30
0.0
 10
122.4206676026
 20
159.0187819177
 30
0.0
 10
122.3846416526
 20
159.199108756
 30
0.0
 10
122.2631073669
 20
159.3455512178
 30
0.0
 10
122.1906109417
 20
159.3857764527
 30
0.0
  0
SPLINE
  5
310
100
AcDbEntity
  8
RUNDUNGEN
100
AcDbSpline
 62
7
  6
CONTINUOUS
 70
0
 71
3
 72
9
 73
5
 74
0
 42
0.0000001
 43
0.0000001
 44
0.0000000001
 40
0.0
 40
0.0
 40
0.0
 40
0.0
 40
0.2576649535
 40
1.0
 40
1.0
 40
1.0
 40
1.0
 10
122.1906109417
 20
159.3857764527
 30
0.0
 10
122.1794582681
 20
159.3919646049
 30
0.0
 10
122.1348264968
 20
159.4134287879
 30
0.0
 10
122.0847301295
 20
159.4238370676
 30
0.0
 10
122.0479845165
 20
159.4238370676
 30
0.0
  0
SPLINE
  5
311
100
AcDbEntity
  8
RUNDUNGEN
100
AcDbSpline
 62
7
  6
CONTINUOUS
 70
0
 71
3
 72
11
 73
7
 74
0
 42
0.0000001
 43
0.0000001
 44
0.0000000001
 40
0.0
 40
0.0
 40
0.0
 40
0.0
 40
0.2571361857
 40
0.5101514665
 40
0.7572215914
 40
1.0
 40
1.0
 40
1.0
 40
1.0
 10
122.8093357735
 20
158.9238370676
 30
0.0
 10
122.8093357735
 20
158.9887222494
 30
0.0
 10
122.7853814645
 20
159.1187405574
 30
0.0
 10
122.6819533917
 20
159.2847820469
 30
0.0
 10
122.5258190774
 20
159.3972159585
 30
0.0
 10
122.4007516348
 20
159.4238370676
 30
0.0
 10
122.3394894631
 20
159.4238370676
 30
0.0
  0
SPLINE
  5
312
100
AcDbEntity
  8
RUNDUNGEN
100
AcDbSpline
 62
7
  6
CONTINUOUS
 70
0
 71
3
 72
11
 73
7
 74
0
 42
0.0000001
 43
0.0000001
 44
0.0000000001
 40
0.0
 40
0.0
 40
0.0
 40
0.0
 40
0.2571360361
 40
0.5101512625
 40
0.7572214569
 40
1.0
 40
1.0
 40
1.0
 40
1.0
 10
130.781585353
 20
158.923840002
 30
0.0
 10
130.7815849242
 20
158.9887247637
 30
0.0
 10
130.7576300665
 20
159.1187420781
 30
0.0
 10
130.6542021681
 20
159.2847822024
 30
0.0
 10
130.4980687929
 20
159.3972154115
 30
0.0
 10
130.3730021889
 20
159.4238367674
 30
0.0
 10
130.3117403442
 20
159.4238370676
 30
0.0
  0
SPLINE
  5
313
100
AcDbEntity
  8
RUNDUNGEN
100
AcDbSpline
 62
7
  6
CONTINUOUS
 70
0
 71
3
 72
10
 73
6
 74
0
 42
0.0000001
 43
0.0000001
 44
0.0000000001
 40
0.0
 40
0.0
 40
0.0
 40
0.0
 40
0.2404997845
 40
0.4893169834
 40
1.0
 40
1.0
 40
1.0
 40
1.0
 10
81.7994230716
 20
147.9238370676
 30
0.0
 10
81.5868703327
 20
147.9238386658
 30
0.0
 10
81.1546609191
 20
147.96596801
 30
0.0
 10
80.2866063428
 20
148.1332671451
 30
0.0
 10
79.6377868927
 20
148.3075655245
 30
0.0
 10
79.2016809964
 20
148.4238370676
 30
0.0
  0
SPLINE
  5
314
100
AcDbEntity
  8
RUNDUNGEN
100
AcDbSpline
 62
7
  6
CONTINUOUS
 70
0
 71
3
 72
10
 73
6
 74
0
 42
0.0000001
 43
0.0000001
 44
0.0000000001
 40
0.0
 40
0.0
 40
0.0
 40
0.0
 40
0.2404999982
 40
0.4893171537
 40
1.0
 40
1.0
 40
1.0
 40
1.0
 10
76.6039389213
 20
147.9238370676
 30
0.0
 10
76.8164918332
 20
147.9238338314
 30
0.0
 10
77.2487010497
 20
147.9659734758
 30
0.0
 10
78.1167563278
 20
148.1332641004
 30
0.0
 10
78.7655749278
 20
148.307566886
 30
0.0
 10
79.2016809964
 20
148.4238370676
 30
0.0
  0
SPLINE
  5
315
100
AcDbEntity
  8
RUNDUNGEN
100
AcDbSpline
 62
7
  6
CONTINUOUS
 70
0
 71
3
 72
12
 73
8
 74
0
 42
0.0000001
 43
0.0000001
 44
0.0000000001
 40
0.0
 40
0.0
 40
0.0
 40
0.0
 40
0.2779285478
 40
0.5456891392
 40
0.7911945163
 40
0.9011154971
 40
1.0
 40
1.0
 40
1.0
 40
1.0
 10
112.3299505319
 20
158.4238370676
 30
0.0
 10
112.1957075723
 20
158.4821443778
 30
0.0
 10
111.9319041675
 20
158.5961863834
 30
0.0
 10
111.5459168208
 20
158.7529088366
 30
0.0
 10
111.2347919604
 20
158.8594471421
 30
0.0
 10
111.0012328225
 20
158.9122397658
 30
0.0
 10
110.8913117237
 20
158.9238470121
 30
0.0
 10
110.8392385469
 20
158.9238370676
 30
0.0
  0
SPLINE
  5
316
100
AcDbEntity
  8
RUNDUNGEN
100
AcDbSpline
 62
7
  6
CONTINUOUS
 70
0
 71
3
 72
10
 73
6
 74
0
 42
0.0000001
 43
0.0000001
 44
0.0000000001
 40
0.0
 40
0.0
 40
0.0
 40
0.0
 40
0.5106834879
 40
0.7595007395
 40
1.0
 40
1.0
 40
1.0
 40
1.0
 10
79.2016809964
 20
158.4238370676
 30
0.0
 10
78.7655769739
 20
158.5401181556
 30
0.0
 10
78.1167528054
 20
158.7143869395
 30
0.0
 10
77.2487025542
 20
158.8817435813
 30
0.0
 10
76.816491303
 20
158.9237996921
 30
0.0
 10
76.6039389213
 20
158.9238370676
 30
0.0
  0
SPLINE
  5
317
100
AcDbEntity
  8
RUNDUNGEN
100
AcDbSpline
 62
7
  6
CONTINUOUS
 70
0
 71
3
 72
10
 73
6
 74
0
 42
0.0000001
 43
0.0000001
 44
0.0000000001
 40
0.0
 40
0.0
 40
0.0
 40
0.0
 40
0.5106829148
 40
0.7595000512
 40
1.0
 40
1.0
 40
1.0
 40
1.0
 10
79.2016809964
 20
158.4238370676
 30
0.0
 10
79.6377873801
 20
158.5401061955
 30
0.0
 10
80.2866054736
 20
158.7144126422
 30
0.0
 10
81.154661347
 20
158.8816962355
 30
0.0
 10
81.5868702165
 20
158.9238442062
 30
0.0
 10
81.7994230716
 20
158.9238370676
 30
0.0
  0
SPLINE
  5
318
100
AcDbEntity
  8
RUNDUNGEN
100
AcDbSpline
 62
7
  6
CONTINUOUS
 70
0
 71
3
 72
13
 73
9
 74
0
 42
0.0000001
 43
0.0000001
 44
0.0000000001
 40
0.0
 40
0.0
 40
0.0
 40
0.0
 40
0.3368893761
 40
0.6309116668
 40
0.751392758
 40
0.8513955875
 40
0.9321308809
 40
1.0
 40
1.0
 40
1.0
 40
1.0
 10
89.7016809964
 20
151.1161447606
 30
0.0
 10
89.6377140478
 20
151.1161447605
 30
0.0
 10
89.5178241016
 20
151.1074731215
 30
0.0
 10
89.3778008371
 20
151.0746829687
 30
0.0
 10
89.2884997718
 20
151.0342448175
 30
0.0
 10
89.2409823768
 20
151.001673135
 30
0.0
 10
89.2098444053
 20
150.9650871961
 30
0.0
 10
89.2016809964
 20
150.9367237325
 30
0.0
 10
89.2016809964
 20
150.9238370677
 30
0.0
  0
SPLINE
  5
319
100
AcDbEntity
  8
RUNDUNGEN
100
AcDbSpline
 62
7
  6
CONTINUOUS
 70
0
 71
3
 72
13
 73
9
 74
0
 42
0.0000001
 43
0.0000001
 44
0.0000000001
 40
0.0
 40
0.0
 40
0.0
 40
0.0
 40
0.0698387917
 40
0.1519255908
 40
0.2525265629
 40
0.3729697201
 40
0.6655313556
 40
1.0
 40
1.0
 40
1.0
 40
1.0
 10
81.5995967581
 20
159.4238370676
 30
0.0
 10
81.6129564951
 20
159.4238370676
 30
0.0
 10
81.6421895625
 20
159.4158028813
 30
0.0
 10
81.6802987011
 20
159.3847532777
 30
0.0
 10
81.7142282442
 20
159.3371853488
 30
0.0
 10
81.7562435891
 20
159.2479789955
 30
0.0
 10
81.7904009292
 20
159.1078735744
 30
0.0
 10
81.7994230649
 20
158.9878188894
 30
0.0
 10
81.7994230656
 20
158.9238370676
 30
0.0
  0
SPLINE
  5
31A
100
AcDbEntity
  8
RUNDUNGEN
100
AcDbSpline
 62
7
  6
CONTINUOUS
 70
0
 71
3
 72
12
 73
8
 74
0
 42
0.0000001
 43
0.0000001
 44
0.0000000001
 40
0.0
 40
0.0
 40
0.0
 40
0.0
 40
0.0988865508
 40
0.2088034229
 40
0.4543109781
 40
0.7220713646
 40
1.0
 40
1.0
 40
1.0
 40
1.0
 10
110.8392385469
 20
147.9238370676
 30
0.0
 10
110.8913127929
 20
147.9238403675
 30
0.0
 10
111.0012327002
 20
147.9354279763
 30
0.0
 10
111.2347925149
 20
147.9882293014
 30
0.0
 10
111.5459126587
 20
148.0947717463
 30
0.0
 10
111.931905728
 20
148.2514847407
 30
0.0
 10
112.1957013313
 20
148.3655440835
 30
0.0
 10
112.3299505319
 20
148.4238370676
 30
0.0
  0
SPLINE
  5
31B
100
AcDbEntity
  8
RUNDUNGEN
100
AcDbSpline
 62
7
  6
CONTINUOUS
 70
0
 71
3
 72
13
 73
9
 74
0
 42
0.0000001
 43
0.0000001
 44
0.0000000001
 40
0.0
 40
0.0
 40
0.0
 40
0.0
 40
0.3368893795
 40
0.6309116701
 40
0.7513927601
 40
0.8513955885
 40
0.9321308812
 40
1.0
 40
1.0
 40
1.0
 40
1.0
 10
89.7016809964
 20
155.7315293751
 30
0.0
 10
89.6377140471
 20
155.7315293751
 30
0.0
 10
89.5178241004
 20
155.7402010143
 30
0.0
 10
89.3778008355
 20
155.7729911672
 30
0.0
 10
89.2884997708
 20
155.8134293185
 30
0.0
 10
89.2409823764
 20
155.8460010008
 30
0.0
 10
89.2098444051
 20
155.8825869392
 30
0.0
 10
89.2016809965
 20
155.9109504027
 30
0.0
 10
89.2016809964
 20
155.9238370674
 30
0.0
  0
SPLINE
  5
31C
100
AcDbEntity
  8
RUNDUNGEN
100
AcDbSpline
 62
7
  6
CONTINUOUS
 70
0
 71
3
 72
11
 73
7
 74
0
 42
0.0000001
 43
0.0000001
 44
0.0000000001
 40
0.0
 40
0.0
 40
0.0
 40
0.0
 40
0.3137124458
 40
0.6007780715
 40
0.8344694033
 40
1.0
 40
1.0
 40
1.0
 40
1.0
 10
89.6846439083
 20
151.4268635106
 30
0.0
 10
89.6303943379
 20
151.4223006825
 30
0.0
 10
89.5269532463
 20
151.4079963672
 30
0.0
 10
89.3859984231
 20
151.3720531338
 30
0.0
 10
89.2763468209
 20
151.3259845952
 30
0.0
 10
89.2182874254
 20
151.2838735275
 30
0.0
 10
89.2016897425
 20
151.2604279746
 30
0.0
  0
SPLINE
  5
31D
100
AcDbEntity
  8
RUNDUNGEN
100
AcDbSpline
 62
7
  6
CONTINUOUS
 70
0
 71
3
 72
11
 73
7
 74
0
 42
0.0000001
 43
0.0000001
 44
0.0000000001
 40
0.0
 40
0.0
 40
0.0
 40
0.0
 40
0.3136968471
 40
0.600755584
 40
0.834452889
 40
1.0
 40
1.0
 40
1.0
 40
1.0
 10
89.6846439096
 20
155.4208294525
 30
0.0
 10
89.6303971954
 20
155.4253914927
 30
0.0
 10
89.5269601522
 20
155.4396938081
 30
0.0
 10
89.3860080287
 20
155.4756323828
 30
0.0
 10
89.2763517459
 20
155.5216967752
 30
0.0
 10
89.2182861593
 20
155.5638025258
 30
0.0
 10
89.2016809964
 20
155.5872461609
 30
0.0
  0
SPLINE
  5
31E
100
AcDbEntity
  8
RUNDUNGEN
100
AcDbSpline
 62
7
  6
CONTINUOUS
 70
0
 71
3
 72
11
 73
7
 74
0
 42
0.0000001
 43
0.0000001
 44
0.0000000001
 40
0.0
 40
0.0
 40
0.0
 40
0.0
 40
0.2777545116
 40
0.5382227881
 40
0.7772996057
 40
1.0
 40
1.0
 40
1.0
 40
1.0
 10
69.2016809964
 20
147.9238370676
 30
0.0
 10
69.2016802602
 20
147.8524978879
 30
0.0
 10
69.1601542808
 20
147.7139843334
 30
0.0
 10
69.0359189141
 20
147.5540460845
 30
0.0
 10
68.8785283633
 20
147.4490521892
 30
0.0
 10
68.7588799357
 20
147.4238359732
 30
0.0
 10
68.7016809964
 20
147.4238370676
 30
0.0
  0
SPLINE
  5
31F
100
AcDbEntity
  8
RUNDUNGEN
100
AcDbSpline
 62
7
  6
CONTINUOUS
 70
0
 71
3
 72
13
 73
9
 74
0
 42
0.0000001
 43
0.0000001
 44
0.0000000001
 40
0.0
 40
0.0
 40
0.0
 40
0.0
 40
0.0678691191
 40
0.1486044125
 40
0.2486072419
 40
0.3690883331
 40
0.6631106237
 40
1.0
 40
1.0
 40
1.0
 40
1.0
 10
69.2016809964
 20
150.9238370677
 30
0.0
 10
69.2016809964
 20
150.9367237325
 30
0.0
 10
69.1935175876
 20
150.9650871961
 30
0.0
 10
69.1623796161
 20
151.0016731349
 30
0.0
 10
69.1148622211
 20
151.0342448174
 30
0.0
 10
69.0255611558
 20
151.0746829686
 30
0.0
 10
68.8855378913
 20
151.1074731214
 30
0.0
 10
68.7656479451
 20
151.1161447604
 30
0.0
 10
68.7016809964
 20
151.1161447604
 30
0.0
  0
SPLINE
  5
320
100
AcDbEntity
  8
RUNDUNGEN
100
AcDbSpline
 62
7
  6
CONTINUOUS
 70
0
 71
3
 72
11
 73
7
 74
0
 42
0.0000001
 43
0.0000001
 44
0.0000000001
 40
0.0
 40
0.0
 40
0.0
 40
0.0
 40
0.2227070315
 40
0.4617795113
 40
0.7222480705
 40
1.0
 40
1.0
 40
1.0
 40
1.0
 10
68.7016809964
 20
159.4238370676
 30
0.0
 10
68.7588816222
 20
159.423839716
 30
0.0
 10
68.8785308899
 20
159.3986198454
 30
0.0
 10
69.0359191296
 20
159.2936234749
 30
0.0
 10
69.1601568327
 20
159.1336898706
 30
0.0
 10
69.2016831755
 20
158.9951755614
 30
0.0
 10
69.2016809964
 20
158.9238370676
 30
0.0
  0
SPLINE
  5
321
100
AcDbEntity
  8
RUNDUNGEN
100
AcDbSpline
 62
7
  6
CONTINUOUS
 70
0
 71
3
 72
13
 73
9
 74
0
 42
0.0000001
 43
0.0000001
 44
0.0000000001
 40
0.0
 40
0.0
 40
0.0
 40
0.0
 40
0.0678691192
 40
0.1486044122
 40
0.2486072407
 40
0.3690883309
 40
0.6631106213
 40
1.0
 40
1.0
 40
1.0
 40
1.0
 10
69.2016809964
 20
155.9238370676
 30
0.0
 10
69.2016809964
 20
155.9109504028
 30
0.0
 10
69.1935175878
 20
155.8825869391
 30
0.0
 10
69.1623796165
 20
155.8460010003
 30
0.0
 10
69.114862222
 20
155.8134293177
 30
0.0
 10
69.0255611573
 20
155.7729911661
 30
0.0
 10
68.8855378924
 20
155.7402010127
 30
0.0
 10
68.7656479457
 20
155.7315293733
 30
0.0
 10
68.7016809964
 20
155.7315293731
 30
0.0
  0
SPLINE
  5
322
100
AcDbEntity
  8
RUNDUNGEN
100
AcDbSpline
 62
7
  6
CONTINUOUS
 70
0
 71
3
 72
11
 73
7
 74
0
 42
0.0000001
 43
0.0000001
 44
0.0000000001
 40
0.0
 40
0.0
 40
0.0
 40
0.0
 40
0.1655313814
 40
0.3992230061
 40
0.6862883074
 40
1.0
 40
1.0
 40
1.0
 40
1.0
 10
69.2016726863
 20
151.2604279746
 30
0.0
 10
69.185074646
 20
151.2838734356
 30
0.0
 10
69.1270149486
 20
151.3259842454
 30
0.0
 10
69.017363117
 20
151.3720525796
 30
0.0
 10
68.8764084178
 20
151.4079955847
 30
0.0
 10
68.772967518
 20
151.422299802
 30
0.0
 10
68.7187180844
 20
151.4268625915
 30
0.0
  0
SPLINE
  5
323
100
AcDbEntity
  8
RUNDUNGEN
100
AcDbSpline
 62
7
  6
CONTINUOUS
 70
0
 71
3
 72
11
 73
7
 74
0
 42
0.0000001
 43
0.0000001
 44
0.0000000001
 40
0.0
 40
0.0
 40
0.0
 40
0.0
 40
0.1655471115
 40
0.3992444193
 40
0.6863031571
 40
1.0
 40
1.0
 40
1.0
 40
1.0
 10
69.2016809964
 20
155.5872461609
 30
0.0
 10
69.1850758329
 20
155.5638025265
 30
0.0
 10
69.1270102446
 20
155.5216967783
 30
0.0
 10
69.0173539609
 20
155.4756323891
 30
0.0
 10
68.8764018381
 20
155.4396938174
 30
0.0
 10
68.7729647963
 20
155.4253915035
 30
0.0
 10
68.7187180833
 20
155.4208294638
 30
0.0
  0
SPLINE
  5
324
100
AcDbEntity
  8
RUNDUNGEN
100
AcDbSpline
 62
7
  6
CONTINUOUS
 70
0
 71
3
 72
13
 73
9
 74
0
 42
0.0000001
 43
0.0000001
 44
0.0000000001
 40
0.0
 40
0.0
 40
0.0
 40
0.0
 40
0.0716839174
 40
0.1621408067
 40
0.2718381496
 40
0.3981189004
 40
0.6864676658
 40
1.0
 40
1.0
 40
1.0
 40
1.0
 10
122.0479845206
 20
159.4238370676
 30
0.0
 10
122.0115891139
 20
159.423840988
 30
0.0
 10
121.9298294961
 20
159.401549471
 30
0.0
 10
121.8104612841
 20
159.3315283303
 30
0.0
 10
121.6799579192
 20
159.2287056001
 30
0.0
 10
121.4853188964
 20
159.0469065085
 30
0.0
 10
121.2339624128
 20
158.7753260573
 30
0.0
 10
121.0345458913
 20
158.5438381654
 30
0.0
 10
120.9299505319
 20
158.4238370676
 30
0.0
  0
SPLINE
  5
325
100
AcDbEntity
  8
RUNDUNGEN
100
AcDbSpline
 62
7
  6
CONTINUOUS
 70
0
 71
3
 72
13
 73
9
 74
0
 42
0.0000001
 43
0.0000001
 44
0.0000000001
 40
0.0
 40
0.0
 40
0.0
 40
0.0
 40
0.0698328453
 40
0.1519164679
 40
0.2525166463
 40
0.372960644
 40
0.6655266083
 40
1.0
 40
1.0
 40
1.0
 40
1.0
 10
81.5995967581
 20
147.4238370676
 30
0.0
 10
81.6129552092
 20
147.4238370676
 30
0.0
 10
81.6421860861
 20
147.4318717706
 30
0.0
 10
81.6802918536
 20
147.4629214732
 30
0.0
 10
81.7142194308
 20
147.5104891558
 30
0.0
 10
81.756233977
 20
147.5996955191
 30
0.0
 10
81.7903936296
 20
147.7398004005
 30
0.0
 10
81.7994200948
 20
147.8598550484
 30
0.0
 10
81.7994230674
 20
147.9238370676
 30
0.0
  0
SPLINE
  5
326
100
AcDbEntity
  8
RUNDUNGEN
100
AcDbSpline
 62
7
  6
CONTINUOUS
 70
0
 71
3
 72
13
 73
9
 74
0
 42
0.0000001
 43
0.0000001
 44
0.0000000001
 40
0.0
 40
0.0
 40
0.0
 40
0.0
 40
0.3135314524
 40
0.6018802731
 40
0.7281612025
 40
0.837858696
 40
0.9283163967
 40
1.0
 40
1.0
 40
1.0
 40
1.0
 10
112.3299505319
 20
158.4238370676
 30
0.0
 10
112.2253649141
 20
158.5438460713
 30
0.0
 10
112.0259360721
 20
158.7753226952
 30
0.0
 10
111.7745834293
 20
159.0469060629
 30
0.0
 10
111.5799439241
 20
159.2287049579
 30
0.0
 10
111.4494406544
 20
159.3315288077
 30
0.0
 10
111.3300714789
 20
159.4015491025
 30
0.0
 10
111.248311792
 20
159.4238406868
 30
0.0
 10
111.2119165431
 20
159.4238370676
 30
0.0
  0
SPLINE
  5
327
100
AcDbEntity
  8
RUNDUNGEN
100
AcDbSpline
 62
7
  6
CONTINUOUS
 70
0
 71
3
 72
15
 73
11
 74
0
 42
0.0000001
 43
0.0000001
 44
0.0000000001
 40
0.0
 40
0.0
 40
0.0
 40
0.0
 40
0.1715937975
 40
0.3360536259
 40
0.4876389196
 40
0.6225693246
 40
0.7393289937
 40
0.8385922378
 40
0.923496781
 40
1.0
 40
1.0
 40
1.0
 40
1.0
 10
131.4018885346
 20
156.4238370676
 30
0.0
 10
131.4019098453
 20
156.6297524755
 30
0.0
 10
131.4218837839
 20
157.033333053
 30
0.0
 10
131.5103873144
 20
157.6128294778
 30
0.0
 10
131.650948124
 20
158.1367400674
 30
0.0
 10
131.8352850133
 20
158.5858808682
 30
0.0
 10
132.0545696195
 20
158.9479036171
 30
0.0
 10
132.3014676781
 20
159.2157790809
 30
0.0
 10
132.5708851328
 20
159.38402596
 30
0.0
 10
132.7660207799
 20
159.4238373244
 30
0.0
 10
132.8578259143
 20
159.4238370654
 30
0.0
  0
SPLINE
  5
328
100
AcDbEntity
  8
RUNDUNGEN
100
AcDbSpline
 62
7
  6
CONTINUOUS
 70
0
 71
3
 72
11
 73
7
 74
0
 42
0.0000001
 43
0.0000001
 44
0.0000000001
 40
0.0
 40
0.0
 40
0.0
 40
0.0
 40
0.2723932652
 40
0.5357746903
 40
0.7809189599
 40
1.0
 40
1.0
 40
1.0
 40
1.0
 10
79.2016809964
 20
158.4238370676
 30
0.0
 10
79.4077573308
 20
158.5427656479
 30
0.0
 10
79.8128857437
 20
158.7768966871
 30
0.0
 10
80.4171269475
 20
159.0950330012
 30
0.0
 10
81.0042545734
 20
159.3391888375
 30
0.0
 10
81.4081437951
 20
159.423843234
 30
0.0
 10
81.5995079609
 20
159.4238370651
 30
0.0
  0
SPLINE
  5
329
100
AcDbEntity
  8
RUNDUNGEN
100
AcDbSpline
 62
7
  6
CONTINUOUS
 70
0
 71
3
 72
11
 73
7
 74
0
 42
0.0000001
 43
0.0000001
 44
0.0000000001
 40
0.0
 40
0.0
 40
0.0
 40
0.0
 40
0.2723962181
 40
0.5357779246
 40
0.7809243717
 40
1.0
 40
1.0
 40
1.0
 40
1.0
 10
79.2016809964
 20
158.4238370676
 30
0.0
 10
78.9955962305
 20
158.5427724889
 30
0.0
 10
78.5904522151
 20
158.7769172768
 30
0.0
 10
77.9861879604
 20
159.095056831
 30
0.0
 10
77.3990368116
 20
159.339252813
 30
0.0
 10
76.9951312162
 20
159.4237894296
 30
0.0
 10
76.8037652344
 20
159.4238370676
 30
0.0
  0
SPLINE
  5
32A
100
AcDbEntity
  8
RUNDUNGEN
100
AcDbSpline
 62
7
  6
CONTINUOUS
 70
0
 71
3
 72
13
 73
9
 74
0
 42
0.0000001
 43
0.0000001
 44
0.0000000001
 40
0.0
 40
0.0
 40
0.0
 40
0.0
 40
0.3135295304
 40
0.6018806076
 40
0.7281582928
 40
0.8378195547
 40
0.928290782
 40
1.0
 40
1.0
 40
1.0
 40
1.0
 10
120.9299505319
 20
148.4238370676
 30
0.0
 10
121.0345027614
 20
148.3037988982
 30
0.0
 10
121.2339840831
 20
148.0723661816
 30
0.0
 10
121.4853274593
 20
147.8007700084
 30
0.0
 10
121.6799713785
 20
147.6190057871
 30
0.0
 10
121.8103982496
 20
147.5161057554
 30
0.0
 10
121.9297959721
 20
147.4461089976
 30
0.0
 10
122.0115760312
 20
147.4238464382
 30
0.0
 10
122.0479845206
 20
147.4238370676
 30
0.0
  0
SPLINE
  5
32B
100
AcDbEntity
  8
RUNDUNGEN
100
AcDbSpline
 62
7
  6
CONTINUOUS
 70
0
 71
3
 72
11
 73
7
 74
0
 42
0.0000001
 43
0.0000001
 44
0.0000000001
 40
0.0
 40
0.0
 40
0.0
 40
0.0
 40
0.2190798372
 40
0.4642232574
 40
0.7276053017
 40
1.0
 40
1.0
 40
1.0
 40
1.0
 10
81.5995828773
 20
147.4238370677
 30
0.0
 10
81.4082142986
 20
147.423836087
 30
0.0
 10
81.0043105191
 20
147.5084533764
 30
0.0
 10
80.4171655955
 20
147.7526232757
 30
0.0
 10
79.8129055896
 20
148.0707646092
 30
0.0
 10
79.4077637343
 20
148.3049034885
 30
0.0
 10
79.2016809964
 20
148.4238370676
 30
0.0
  0
SPLINE
  5
32C
100
AcDbEntity
  8
RUNDUNGEN
100
AcDbSpline
 62
7
  6
CONTINUOUS
 70
0
 71
3
 72
11
 73
7
 74
0
 42
0.0000001
 43
0.0000001
 44
0.0000000001
 40
0.0
 40
0.0
 40
0.0
 40
0.0
 40
0.2190809298
 40
0.464224785
 40
0.7276062482
 40
1.0
 40
1.0
 40
1.0
 40
1.0
 10
76.8038215056
 20
147.4238370687
 30
0.0
 10
76.9951879483
 20
147.4238331484
 30
0.0
 10
77.3990838303
 20
147.5084714925
 30
0.0
 10
77.9862189841
 20
147.7526337358
 30
0.0
 10
78.5904679223
 20
148.0707722338
 30
0.0
 10
78.995602263
 20
148.3049058907
 30
0.0
 10
79.2016809964
 20
148.4238370676
 30
0.0
  0
SPLINE
  5
32D
100
AcDbEntity
  8
RUNDUNGEN
100
AcDbSpline
 62
7
  6
CONTINUOUS
 70
0
 71
3
 72
9
 73
5
 74
0
 42
0.0000001
 43
0.0000001
 44
0.0000000001
 40
0.0
 40
0.0
 40
0.0
 40
0.0
 40
0.2479456325
 40
1.0
 40
1.0
 40
1.0
 40
1.0
 10
68.7016809964
 20
151.1161447599
 30
0.0
 10
68.7016814091
 20
151.1418688552
 30
0.0
 10
68.7033080272
 20
151.2456174935
 30
0.0
 10
68.7107677908
 20
151.3492253208
 30
0.0
 10
68.7187180833
 20
151.4268440585
 30
0.0
  0
SPLINE
  5
32E
100
AcDbEntity
  8
RUNDUNGEN
100
AcDbSpline
 62
7
  6
CONTINUOUS
 70
0
 71
3
 72
13
 73
9
 74
0
 42
0.0000001
 43
0.0000001
 44
0.0000000001
 40
0.0
 40
0.0
 40
0.0
 40
0.0
 40
0.0717095771
 40
0.1621802539
 40
0.2718419628
 40
0.3981200709
 40
0.686471433
 40
1.0
 40
1.0
 40
1.0
 40
1.0
 10
111.2119165431
 20
147.4238370676
 30
0.0
 10
111.2483252164
 20
147.423846521
 30
0.0
 10
111.3301053697
 20
147.4461083275
 30
0.0
 10
111.4495027278
 20
147.5161062106
 30
0.0
 10
111.5799299778
 20
147.6190058982
 30
0.0
 10
111.7745739848
 20
147.8007709187
 30
0.0
 10
112.025920192
 20
148.072364459
 30
0.0
 10
112.2253914669
 20
148.3038054914
 30
0.0
 10
112.3299505319
 20
148.4238370676
 30
0.0
  0
SPLINE
  5
32F
100
AcDbEntity
  8
RUNDUNGEN
100
AcDbSpline
 62
7
  6
CONTINUOUS
 70
0
 71
3
 72
11
 73
7
 74
0
 42
0.0000001
 43
0.0000001
 44
0.0000000001
 40
0.0
 40
0.0
 40
0.0
 40
0.0
 40
0.2074188543
 40
0.4491815328
 40
0.7173596933
 40
1.0
 40
1.0
 40
1.0
 40
1.0
 10
100.0542477036
 20
147.9238368911
 30
0.0
 10
100.2325463837
 20
148.2712589285
 30
0.0
 10
100.5455830404
 20
149.0612934868
 30
0.0
 10
100.8763857511
 20
150.3733638222
 30
0.0
 10
101.0855733835
 20
151.8533433354
 30
0.0
 10
101.1329253805
 20
152.8910055723
 30
0.0
 10
101.1329643625
 20
153.4231261984
 30
0.0
  0
SPLINE
  5
330
100
AcDbEntity
  8
RUNDUNGEN
100
AcDbSpline
 62
7
  6
CONTINUOUS
 70
0
 71
3
 72
9
 73
5
 74
0
 42
0.0000001
 43
0.0000001
 44
0.0000000001
 40
0.0
 40
0.0
 40
0.0
 40
0.0
 40
0.5000003688
 40
1.0
 40
1.0
 40
1.0
 40
1.0
 10
68.7187180833
 20
151.4268440585
 30
0.0
 10
68.7866233012
 20
152.0898630194
 30
0.0
 10
68.8494115255
 20
153.4238375405
 30
0.0
 10
68.786623659
 20
154.7578121408
 30
0.0
 10
68.7187180833
 20
155.4208300768
 30
0.0
  0
SPLINE
  5
331
100
AcDbEntity
  8
RUNDUNGEN
100
AcDbSpline
 62
7
  6
CONTINUOUS
 70
0
 71
3
 72
9
 73
5
 74
0
 42
0.0000001
 43
0.0000001
 44
0.0000000001
 40
0.0
 40
0.0
 40
0.0
 40
0.0
 40
0.2520709241
 40
1.0
 40
1.0
 40
1.0
 40
1.0
 10
68.7187180833
 20
155.4208300768
 30
0.0
 10
68.7160532229
 20
155.4468451761
 30
0.0
 10
68.7065406273
 20
155.5501498647
 30
0.0
 10
68.7016835116
 20
155.6539350795
 30
0.0
 10
68.7016809964
 20
155.7315293753
 30
0.0
  0
SPLINE
  5
332
100
AcDbEntity
  8
RUNDUNGEN
100
AcDbSpline
 62
7
  6
CONTINUOUS
 70
0
 71
3
 72
11
 73
7
 74
0
 42
0.0000001
 43
0.0000001
 44
0.0000000001
 40
0.0
 40
0.0
 40
0.0
 40
0.0
 40
0.2826275456
 40
0.5508104157
 40
0.7925783888
 40
1.0
 40
1.0
 40
1.0
 40
1.0
 10
101.1329643625
 20
153.4231261984
 30
0.0
 10
101.132993161
 20
153.955356347
 30
0.0
 10
101.0856563332
 20
154.9932664754
 30
0.0
 10
100.8765412614
 20
156.4736293366
 30
0.0
 10
100.5456864246
 20
157.7860624692
 30
0.0
 10
100.2325987076
 20
158.5763242421
 30
0.0
 10
100.0542511239
 20
158.92383718
 30
0.0
  0
SPLINE
  5
333
100
AcDbEntity
  8
RUNDUNGEN
100
AcDbSpline
 62
7
  6
CONTINUOUS
 70
0
 71
3
 72
13
 73
9
 74
0
 42
0.0000001
 43
0.0000001
 44
0.0000000001
 40
0.0
 40
0.0
 40
0.0
 40
0.0
 40
0.2732375683
 40
0.542401133
 40
0.6723708313
 40
0.7956221961
 40
0.9073099874
 40
1.0
 40
1.0
 40
1.0
 40
1.0
 10
132.8577768954
 20
159.4238297232
 30
0.0
 10
132.661581913
 20
159.4238533299
 30
0.0
 10
132.2716479113
 20
159.3967076661
 30
0.0
 10
131.7972507889
 20
159.3009170938
 30
0.0
 10
131.4368855034
 20
159.1964281487
 30
0.0
 10
131.189077738
 20
159.1108281203
 30
0.0
 10
130.9711419058
 20
159.0222166757
 30
0.0
 10
130.8387636869
 20
158.9579715852
 30
0.0
 10
130.781613823
 20
158.9238621174
 30
0.0
  0
LINE
  5
334
100
AcDbEntity
  8
RUNDUNGEN
100
AcDbLine
 62
7
  6
CONTINUOUS
 10
221.4341727464
 20
150.9238370676
 11
221.4341727464
 21
151.2604279744
  0
LINE
  5
335
100
AcDbEntity
  8
RUNDUNGEN
100
AcDbLine
 62
7
  6
CONTINUOUS
 10
221.4341727464
 20
155.5872461609
 11
221.4341727464
 21
155.9238370676
  0
SPLINE
  5
336
100
AcDbEntity
  8
RUNDUNGEN
100
AcDbSpline
 62
7
  6
CONTINUOUS
 70
0
 71
3
 72
13
 73
9
 74
0
 42
0.0000001
 43
0.0000001
 44
0.0000000001
 40
0.0
 40
0.0
 40
0.0
 40
0.0
 40
0.3753861775
 40
0.6936433905
 40
0.8161814111
 40
0.9087095305
 40
0.9688595763
 40
1.0
 40
1.0
 40
1.0
 40
1.0
 10
221.4341727464
 20
147.9238370676
 30
0.0
 10
221.4341727464
 20
147.8597900228
 30
0.0
 10
221.43130386
 20
147.7414976328
 30
0.0
 10
221.4201114216
 20
147.6023373818
 30
0.0
 10
221.4066729333
 20
147.5126291735
 30
0.0
 10
221.3953738046
 20
147.4663007791
 30
0.0
 10
221.3858497655
 20
147.4378035891
 30
0.0
 10
221.3736595652
 20
147.4238370676
 30
0.0
 10
221.3683464976
 20
147.4238370676
 30
0.0
  0
SPLINE
  5
337
100
AcDbEntity
  8
RUNDUNGEN
100
AcDbSpline
 62
7
  6
CONTINUOUS
 70
0
 71
3
 72
11
 73
7
 74
0
 42
0.0000001
 43
0.0000001
 44
0.0000000001
 40
0.0
 40
0.0
 40
0.0
 40
0.0
 40
0.2599511601
 40
0.5141874151
 40
0.760116715
 40
1.0
 40
1.0
 40
1.0
 40
1.0
 10
245.8925060787
 20
147.9238370676
 30
0.0
 10
245.8925073473
 20
147.8590050477
 30
0.0
 10
245.8693172802
 20
147.7295315998
 30
0.0
 10
245.7688731624
 20
147.5635969152
 30
0.0
 10
245.6166301783
 20
147.4507195075
 30
0.0
 10
245.4939998208
 20
147.4238370676
 30
0.0
 10
245.4341727444
 20
147.4238370676
 30
0.0
  0
SPLINE
  5
338
100
AcDbEntity
  8
RUNDUNGEN
100
AcDbSpline
 62
7
  6
CONTINUOUS
 70
0
 71
3
 72
13
 73
9
 74
0
 42
0.0000001
 43
0.0000001
 44
0.0000000001
 40
0.0
 40
0.0
 40
0.0
 40
0.0
 40
0.3753861775
 40
0.6936433905
 40
0.8161814111
 40
0.9087095305
 40
0.9688595763
 40
1.0
 40
1.0
 40
1.0
 40
1.0
 10
234.4963505729
 20
147.9238370676
 30
0.0
 10
234.4963505729
 20
147.8597900228
 30
0.0
 10
234.4934816865
 20
147.7414976328
 30
0.0
 10
234.4822892481
 20
147.6023373818
 30
0.0
 10
234.4688507598
 20
147.5126291735
 30
0.0
 10
234.4575516311
 20
147.4663007791
 30
0.0
 10
234.4480275919
 20
147.4378035891
 30
0.0
 10
234.4358373917
 20
147.4238370676
 30
0.0
 10
234.4305243241
 20
147.4238370676
 30
0.0
  0
SPLINE
  5
339
100
AcDbEntity
  8
RUNDUNGEN
100
AcDbSpline
 62
7
  6
CONTINUOUS
 70
0
 71
3
 72
9
 73
5
 74
0
 42
0.0000001
 43
0.0000001
 44
0.0000000001
 40
0.0
 40
0.0
 40
0.0
 40
0.0
 40
0.4971874972
 40
1.0
 40
1.0
 40
1.0
 40
1.0
 10
215.4341727464
 20
159.4238370676
 30
0.0
 10
216.0154925951
 20
159.4238423275
 30
0.0
 10
217.1863786749
 20
159.3291207531
 30
0.0
 10
218.3296884456
 20
159.0732779724
 30
0.0
 10
218.8982743616
 20
158.9238370676
 30
0.0
  0
SPLINE
  5
33A
100
AcDbEntity
  8
RUNDUNGEN
100
AcDbSpline
 62
7
  6
CONTINUOUS
 70
0
 71
3
 72
13
 73
9
 74
0
 42
0.0000001
 43
0.0000001
 44
0.0000000001
 40
0.0
 40
0.0
 40
0.0
 40
0.0
 40
0.3753861775
 40
0.6936433905
 40
0.8161814111
 40
0.9087095305
 40
0.9688595763
 40
1.0
 40
1.0
 40
1.0
 40
1.0
 10
221.4341727464
 20
158.9238370676
 30
0.0
 10
221.4341727464
 20
158.9878841125
 30
0.0
 10
221.43130386
 20
159.1061765025
 30
0.0
 10
221.4201114216
 20
159.2453367534
 30
0.0
 10
221.4066729333
 20
159.3350449618
 30
0.0
 10
221.3953738046
 20
159.3813733562
 30
0.0
 10
221.3858497655
 20
159.4098705462
 30
0.0
 10
221.3736595652
 20
159.4238370676
 30
0.0
 10
221.3683464976
 20
159.4238370676
 30
0.0
  0
SPLINE
  5
33B
100
AcDbEntity
  8
RUNDUNGEN
100
AcDbSpline
 62
7
  6
CONTINUOUS
 70
0
 71
3
 72
13
 73
9
 74
0
 42
0.0000001
 43
0.0000001
 44
0.0000000001
 40
0.0
 40
0.0
 40
0.0
 40
0.0
 40
0.3753861775
 40
0.6936433905
 40
0.8161814111
 40
0.9087095305
 40
0.9688595763
 40
1.0
 40
1.0
 40
1.0
 40
1.0
 10
234.4963505729
 20
158.9238370676
 30
0.0
 10
234.4963505729
 20
158.9878841125
 30
0.0
 10
234.4934816865
 20
159.1061765025
 30
0.0
 10
234.4822892481
 20
159.2453367534
 30
0.0
 10
234.4688507598
 20
159.3350449618
 30
0.0
 10
234.4575516311
 20
159.3813733562
 30
0.0
 10
234.4480275919
 20
159.4098705462
 30
0.0
 10
234.4358373917
 20
159.4238370676
 30
0.0
 10
234.4305243241
 20
159.4238370676
 30
0.0
  0
SPLINE
  5
33C
100
AcDbEntity
  8
RUNDUNGEN
100
AcDbSpline
 62
7
  6
CONTINUOUS
 70
0
 71
3
 72
11
 73
7
 74
0
 42
0.0000001
 43
0.0000001
 44
0.0000000001
 40
0.0
 40
0.0
 40
0.0
 40
0.0
 40
0.259952656
 40
0.5141904727
 40
0.7601195956
 40
1.0
 40
1.0
 40
1.0
 40
1.0
 10
245.8925060787
 20
158.9238370676
 30
0.0
 10
245.8925060796
 20
158.9886692343
 30
0.0
 10
245.8693140512
 20
159.118142466
 30
0.0
 10
245.7688693793
 20
159.2840765817
 30
0.0
 10
245.6166279944
 20
159.3969541398
 30
0.0
 10
245.4939988956
 20
159.4238370676
 30
0.0
 10
245.4341727464
 20
159.4238370676
 30
0.0
  0
SPLINE
  5
33D
100
AcDbEntity
  8
RUNDUNGEN
100
AcDbSpline
 62
7
  6
CONTINUOUS
 70
0
 71
3
 72
11
 73
7
 74
0
 42
0.0000001
 43
0.0000001
 44
0.0000000001
 40
0.0
 40
0.0
 40
0.0
 40
0.0
 40
0.2998762517
 40
0.5546947592
 40
0.7834854407
 40
1.0
 40
1.0
 40
1.0
 40
1.0
 10
245.8925060798
 20
147.9238370676
 30
0.0
 10
245.9737870874
 20
147.923834229
 30
0.0
 10
246.1262959607
 20
147.9557684335
 30
0.0
 10
246.30434482
 20
148.0805661305
 30
0.0
 10
246.4104858943
 20
148.2432658797
 30
0.0
 10
246.4341508698
 20
148.3651511256
 30
0.0
 10
246.4341727464
 20
148.4238370676
 30
0.0
  0
SPLINE
  5
33E
100
AcDbEntity
  8
RUNDUNGEN
100
AcDbSpline
 62
7
  6
CONTINUOUS
 70
0
 71
3
 72
14
 73
10
 74
0
 42
0.0000001
 43
0.0000001
 44
0.0000000001
 40
0.0
 40
0.0
 40
0.0
 40
0.0
 40
0.0620982211
 40
0.1389825941
 40
0.2373347269
 40
0.357954153
 40
0.4988840301
 40
0.656391597
 40
1.0
 40
1.0
 40
1.0
 40
1.0
 10
210.4341727464
 20
147.4238370676
 30
0.0
 10
210.422619437
 20
147.4238370676
 30
0.0
 10
210.3967166091
 20
147.4324411523
 30
0.0
 10
210.3645179741
 20
147.4637923527
 30
0.0
 10
210.3357774785
 20
147.5111253131
 30
0.0
 10
210.3106913382
 20
147.5734296682
 30
0.0
 10
210.2900945557
 20
147.6487628501
 30
0.0
 10
210.2690294677
 20
147.7664485324
 30
0.0
 10
210.2631626568
 20
147.8599090818
 30
0.0
 10
210.2631626748
 20
147.9238370676
 30
0.0
  0
SPLINE
  5
33F
100
AcDbEntity
  8
RUNDUNGEN
100
AcDbSpline
 62
7
  6
CONTINUOUS
 70
0
 71
3
 72
11
 73
7
 74
0
 42
0.0000001
 43
0.0000001
 44
0.0000000001
 40
0.0
 40
0.0
 40
0.0
 40
0.0
 40
0.2165157319
 40
0.4453059763
 40
0.700131041
 40
1.0
 40
1.0
 40
1.0
 40
1.0
 10
246.4341727464
 20
158.4238370676
 30
0.0
 10
246.4341478404
 20
158.482523751
 30
0.0
 10
246.4104879727
 20
158.6044117629
 30
0.0
 10
246.3043413053
 20
158.7671066328
 30
0.0
 10
246.1263013069
 20
158.8919398985
 30
0.0
 10
245.9737856923
 20
158.9238042894
 30
0.0
 10
245.8925060798
 20
158.9238370676
 30
0.0
  0
SPLINE
  5
340
100
AcDbEntity
  8
RUNDUNGEN
100
AcDbSpline
 62
7
  6
CONTINUOUS
 70
0
 71
3
 72
14
 73
10
 74
0
 42
0.0000001
 43
0.0000001
 44
0.0000000001
 40
0.0
 40
0.0
 40
0.0
 40
0.0
 40
0.0620981788
 40
0.1389825126
 40
0.2373346119
 40
0.3579540136
 40
0.4988838885
 40
0.6563914927
 40
1.0
 40
1.0
 40
1.0
 40
1.0
 10
210.4341727464
 20
159.4238370676
 30
0.0
 10
210.4226194456
 20
159.4238370676
 30
0.0
 10
210.396716633
 20
159.4152329895
 30
0.0
 10
210.3645180258
 20
159.3838817942
 30
0.0
 10
210.3357775458
 20
159.3365488514
 30
0.0
 10
210.3106914092
 20
159.2742445112
 30
0.0
 10
210.290094617
 20
159.198911335
 30
0.0
 10
210.2690295109
 20
159.0812256369
 30
0.0
 10
210.2631626748
 20
158.987765069
 30
0.0
 10
210.2631626748
 20
158.9238370676
 30
0.0
  0
SPLINE
  5
341
100
AcDbEntity
  8
RUNDUNGEN
100
AcDbSpline
 62
7
  6
CONTINUOUS
 70
0
 71
3
 72
9
 73
5
 74
0
 42
0.0000001
 43
0.0000001
 44
0.0000000001
 40
0.0
 40
0.0
 40
0.0
 40
0.0
 40
0.5028173
 40
1.0
 40
1.0
 40
1.0
 40
1.0
 10
218.8982743616
 20
147.9238370676
 30
0.0
 10
218.3296869851
 20
147.7743796169
 30
0.0
 10
217.1863711727
 20
147.5185576927
 30
0.0
 10
216.0154869956
 20
147.423834894
 30
0.0
 10
215.4341727464
 20
147.4238370676
 30
0.0
  0
SPLINE
  5
342
100
AcDbEntity
  8
RUNDUNGEN
100
AcDbSpline
 62
7
  6
CONTINUOUS
 70
0
 71
3
 72
14
 73
10
 74
0
 42
0.0000001
 43
0.0000001
 44
0.0000000001
 40
0.0
 40
0.0
 40
0.0
 40
0.0
 40
0.3931203146
 40
0.5640564232
 40
0.7106819374
 40
0.8296016466
 40
0.9178064218
 40
0.9738716955
 40
1.0
 40
1.0
 40
1.0
 40
1.0
 10
221.434174972
 20
151.2604279746
 30
0.0
 10
221.3871099389
 20
151.2782318762
 30
0.0
 10
221.3199123234
 20
151.3047563312
 30
0.0
 10
221.2363815273
 20
151.3406597723
 30
0.0
 10
221.1855685586
 20
151.3642117617
 30
0.0
 10
221.1453924458
 20
151.38435056
 30
0.0
 10
221.1156704377
 20
151.4020436793
 30
0.0
 10
221.099110113
 20
151.4135028539
 30
0.0
 10
221.0909246352
 20
151.4237084329
 30
0.0
 10
221.0920367001
 20
151.4268625915
 30
0.0
  0
SPLINE
  5
343
100
AcDbEntity
  8
RUNDUNGEN
100
AcDbSpline
 62
7
  6
CONTINUOUS
 70
0
 71
3
 72
14
 73
10
 74
0
 42
0.0000001
 43
0.0000001
 44
0.0000000001
 40
0.0
 40
0.0
 40
0.0
 40
0.0
 40
0.3931345203
 40
0.56407224
 40
0.7106966672
 40
0.8296133303
 40
0.9178138701
 40
0.9738745314
 40
1.0
 40
1.0
 40
1.0
 40
1.0
 10
221.4341727464
 20
155.5872461609
 30
0.0
 10
221.3871129435
 20
155.5694435795
 30
0.0
 10
221.3199233495
 20
155.5429213503
 30
0.0
 10
221.2364032208
 20
155.5070211464
 30
0.0
 10
221.1855982258
 20
155.4834717287
 30
0.0
 10
221.1454290816
 20
155.4633356736
 30
0.0
 10
221.1157134683
 20
155.4456444637
 30
0.0
 10
221.0991566028
 20
155.4341878874
 30
0.0
 10
221.090974735
 20
155.4239824876
 30
0.0
 10
221.092087492
 20
155.4208294638
 30
0.0
  0
SPLINE
  5
344
100
AcDbEntity
  8
RUNDUNGEN
100
AcDbSpline
 62
7
  6
CONTINUOUS
 70
0
 71
3
 72
11
 73
7
 74
0
 42
0.0000001
 43
0.0000001
 44
0.0000000001
 40
0.0
 40
0.0
 40
0.0
 40
0.0
 40
0.2496899956
 40
0.4997021492
 40
0.7498319482
 40
1.0
 40
1.0
 40
1.0
 40
1.0
 10
100.517846087
 20
84.3855206377
 30
0.0
 10
100.3637842545
 20
84.7668407369
 30
0.0
 10
99.9480310989
 20
85.4868263749
 30
0.0
 10
99.1611845647
 20
86.4415324945
 30
0.0
 10
98.2878089303
 20
87.3174494094
 30
0.0
 10
97.6809330441
 20
87.8748636945
 30
0.0
 10
97.3775872443
 20
88.1537358568
 30
0.0
  0
LINE
  5
345
100
AcDbEntity
  8
RUNDUNGEN
100
AcDbLine
 62
7
  6
CONTINUOUS
 10
69.6677673794
 20
94.1537038662
 11
71.6695921102
 21
88.1537358568
  0
LINE
  5
346
100
AcDbEntity
  8
RUNDUNGEN
100
AcDbLine
 62
7
  6
CONTINUOUS
 10
100.2057805282
 20
82.1537358512
 11
97.3775872443
 21
88.1537358568
  0
SPLINE
  5
347
100
AcDbEntity
  8
RUNDUNGEN
100
AcDbSpline
 62
7
  6
CONTINUOUS
 70
0
 71
3
 72
11
 73
7
 74
0
 42
0.0000001
 43
0.0000001
 44
0.0000000001
 40
0.0
 40
0.0
 40
0.0
 40
0.0
 40
0.2529030707
 40
0.5039639586
 40
0.7526211326
 40
1.0
 40
1.0
 40
1.0
 40
1.0
 10
132.8577768954
 20
83.153744017
 30
0.0
 10
132.6613468479
 20
82.9351535182
 30
0.0
 10
132.2699813375
 20
82.499592342
 30
0.0
 10
131.697406046
 20
81.8379683359
 30
0.0
 10
131.1664431252
 20
81.151303051
 30
0.0
 10
130.8799264044
 20
80.6434644732
 30
0.0
 10
130.781613823
 20
80.373336031
 30
0.0
  0
LINE
  5
348
100
AcDbEntity
  8
RUNDUNGEN
100
AcDbLine
 62
7
  6
CONTINUOUS
 10
72.7016809964
 20
69.0915580303
 11
73.2016809964
 21
69.1573842791
  0
SPLINE
  5
349
100
AcDbEntity
  8
RUNDUNGEN
100
AcDbSpline
 62
7
  6
CONTINUOUS
 70
0
 71
3
 72
12
 73
8
 74
0
 42
0.0000001
 43
0.0000001
 44
0.0000000001
 40
0.0
 40
0.0
 40
0.0
 40
0.0
 40
0.123941614
 40
0.2481606536
 40
0.4975916555
 40
0.7483868967
 40
1.0
 40
1.0
 40
1.0
 40
1.0
 10
100.0542509153
 20
84.1982264735
 30
0.0
 10
99.9801176405
 20
84.3817132973
 30
0.0
 10
99.8104133716
 20
84.740604338
 30
0.0
 10
99.4154430711
 20
85.4304856622
 30
0.0
 10
98.8520287989
 20
86.2545478967
 30
0.0
 10
98.1258169062
 20
87.2104848355
 30
0.0
 10
97.6271787409
 20
87.8389240806
 30
0.0
 10
97.3775872444
 20
88.1537358567
 30
0.0
  0
SPLINE
  5
34A
100
AcDbEntity
  8
RUNDUNGEN
100
AcDbSpline
 62
7
  6
CONTINUOUS
 70
0
 71
3
 72
11
 73
7
 74
0
 42
0.0000001
 43
0.0000001
 44
0.0000000001
 40
0.0
 40
0.0
 40
0.0
 40
0.0
 40
0.250165243
 40
0.5003102123
 40
0.750320976
 40
1.0
 40
1.0
 40
1.0
 40
1.0
 10
132.8578968612
 20
83.1538520749
 30
0.0
 10
132.6046556481
 20
82.9776583803
 30
0.0
 10
132.0985367125
 20
82.6247916779
 30
0.0
 10
131.3730605769
 20
82.0479708114
 30
0.0
 10
130.7320865904
 20
81.375978685
 30
0.0
 10
130.417029782
 20
80.8336220316
 30
0.0
 10
130.3117403442
 20
80.5442781878
 30
0.0
  0
LINE
  5
34B
100
AcDbEntity
  8
RUNDUNGEN
100
AcDbLine
 62
7
  6
CONTINUOUS
 10
72.2016809964
 20
88.1537358568
 11
71.7016809964
 21
88.0655723665
  0
LINE
  5
34C
100
AcDbEntity
  8
RUNDUNGEN
100
AcDbLine
 62
7
  6
CONTINUOUS
 10
86.2016809964
 20
88.1537358568
 11
86.7016809964
 21
88.0655723665
  0
SPLINE
  5
34D
100
AcDbEntity
  8
RUNDUNGEN
100
AcDbSpline
 62
7
  6
CONTINUOUS
 70
0
 71
3
 72
10
 73
6
 74
0
 42
0.0000001
 43
0.0000001
 44
0.0000000001
 40
0.0
 40
0.0
 40
0.0
 40
0.0
 40
0.5001640312
 40
0.7502027377
 40
1.0
 40
1.0
 40
1.0
 40
1.0
 10
68.7016307725
 20
88.1538547426
 30
0.0
 10
68.9388517655
 20
87.5975720987
 30
0.0
 10
69.2968452217
 20
86.7616953223
 30
0.0
 10
69.6255360507
 20
85.5961696716
 30
0.0
 10
69.7016887222
 20
84.9916656131
 30
0.0
 10
69.7016809964
 20
84.6896342417
 30
0.0
  0
LINE
  5
34E
100
AcDbEntity
  8
RUNDUNGEN
100
AcDbLine
 62
7
  6
CONTINUOUS
 10
69.2016809964
 20
82.1537358568
 11
69.7016809964
 21
82.2195621056
  0
LINE
  5
34F
100
AcDbEntity
  8
RUNDUNGEN
100
AcDbLine
 62
7
  6
CONTINUOUS
 10
85.7016809964
 20
69.0915580303
 11
85.2016809964
 21
69.1573842791
  0
SPLINE
  5
350
100
AcDbEntity
  8
RUNDUNGEN
100
AcDbSpline
 62
7
  6
CONTINUOUS
 70
0
 71
3
 72
12
 73
8
 74
0
 42
0.0000001
 43
0.0000001
 44
0.0000000001
 40
0.0
 40
0.0
 40
0.0
 40
0.0
 40
0.2991844708
 40
0.5663993756
 40
0.7952350919
 40
0.8992914454
 40
1.0
 40
1.0
 40
1.0
 40
1.0
 10
122.0479845206
 20
58.1537358568
 30
0.0
 10
121.9835577497
 20
58.0100617375
 30
0.0
 10
121.8422877855
 20
57.7456757746
 30
0.0
 10
121.5745204502
 20
57.4196721047
 30
0.0
 10
121.3094391641
 20
57.2362456838
 30
0.0
 10
121.0910341046
 20
57.165391354
 30
0.0
 10
120.9829525291
 20
57.1537811002
 30
0.0
 10
120.9299505319
 20
57.1537358568
 30
0.0
  0
SPLINE
  5
351
100
AcDbEntity
  8
RUNDUNGEN
100
AcDbSpline
 62
7
  6
CONTINUOUS
 70
0
 71
3
 72
11
 73
7
 74
0
 42
0.0000001
 43
0.0000001
 44
0.0000000001
 40
0.0
 40
0.0
 40
0.0
 40
0.0
 40
0.2352032987
 40
0.4776664969
 40
0.7326615642
 40
1.0
 40
1.0
 40
1.0
 40
1.0
 10
79.2016809964
 20
57.1537358568
 30
0.0
 10
79.4096087578
 20
57.1537583141
 30
0.0
 10
79.8330957122
 20
57.1983151082
 30
0.0
 10
80.4540509618
 20
57.3959201174
 30
0.0
 10
81.0526278225
 20
57.7172702339
 30
0.0
 10
81.4215217315
 20
57.99817875
 30
0.0
 10
81.5995079609
 20
58.1536643113
 30
0.0
  0
LINE
  5
352
100
AcDbEntity
  8
RUNDUNGEN
100
AcDbLine
 62
7
  6
CONTINUOUS
 10
68.8180175028
 20
82.1537358565
 11
68.7187180833
 21
82.4958193745
  0
SPLINE
  5
353
100
AcDbEntity
  8
RUNDUNGEN
100
AcDbSpline
 62
7
  6
CONTINUOUS
 70
0
 71
3
 72
12
 73
8
 74
0
 42
0.0000001
 43
0.0000001
 44
0.0000000001
 40
0.0
 40
0.0
 40
0.0
 40
0.0
 40
0.100705435
 40
0.2047641033
 40
0.4335997771
 40
0.7008152427
 40
1.0
 40
1.0
 40
1.0
 40
1.0
 10
112.3299505319
 20
57.1537358568
 30
0.0
 10
112.2769501861
 20
57.1537796772
 30
0.0
 10
112.1688689735
 20
57.1653911927
 30
0.0
 10
111.9504646569
 20
57.2362452186
 30
0.0
 10
111.685380498
 20
57.4196706694
 30
0.0
 10
111.4176163592
 20
57.7456768974
 30
0.0
 10
111.2763398726
 20
58.0100600642
 30
0.0
 10
111.2119165431
 20
58.1537358568
 30
0.0
  0
SPLINE
  5
354
100
AcDbEntity
  8
RUNDUNGEN
100
AcDbSpline
 62
7
  6
CONTINUOUS
 70
0
 71
3
 72
11
 73
7
 74
0
 42
0.0000001
 43
0.0000001
 44
0.0000000001
 40
0.0
 40
0.0
 40
0.0
 40
0.0
 40
0.2352033962
 40
0.4776664403
 40
0.7326632396
 40
1.0
 40
1.0
 40
1.0
 40
1.0
 10
79.2016809964
 20
57.1537358568
 30
0.0
 10
78.9937442837
 20
57.1537613456
 30
0.0
 10
78.570238325
 20
57.1983165137
 30
0.0
 10
77.9492627205
 20
57.3959553841
 30
0.0
 10
77.350658497
 20
57.7173094851
 30
0.0
 10
76.9817423065
 20
57.9982267501
 30
0.0
 10
76.8037652344
 20
58.1537358571
 30
0.0
  0
LINE
  5
355
100
AcDbEntity
  8
RUNDUNGEN
100
AcDbLine
 62
7
  6
CONTINUOUS
 10
104.6852989652
 20
88.1537358568
 11
102.4631547535
 21
94.1537358461
  0
LINE
  5
356
100
AcDbEntity
  8
RUNDUNGEN
100
AcDbLine
 62
7
  6
CONTINUOUS
 10
89.5853444904
 20
82.1537358568
 11
89.6846439096
 21
82.4958193745
  0
SPLINE
  5
357
100
AcDbEntity
  8
RUNDUNGEN
100
AcDbSpline
 62
7
  6
CONTINUOUS
 70
0
 71
3
 72
10
 73
6
 74
0
 42
0.0000001
 43
0.0000001
 44
0.0000000001
 40
0.0
 40
0.0
 40
0.0
 40
0.0
 40
0.2499238939
 40
0.4999361701
 40
1.0
 40
1.0
 40
1.0
 40
1.0
 10
89.2016809964
 20
85.6537358568
 30
0.0
 10
89.2016809965
 20
85.8667371359
 30
0.0
 10
89.2406143658
 20
86.2928050761
 30
0.0
 10
89.405163971
 20
87.1296016806
 30
0.0
 10
89.583478078
 20
87.7442689362
 30
0.0
 10
89.7016809964
 20
88.1537358568
 30
0.0
  0
SPLINE
  5
358
100
AcDbEntity
  8
RUNDUNGEN
100
AcDbSpline
 62
7
  6
CONTINUOUS
 70
0
 71
3
 72
11
 73
7
 74
0
 42
0.0000001
 43
0.0000001
 44
0.0000000001
 40
0.0
 40
0.0
 40
0.0
 40
0.0
 40
0.2591633486
 40
0.5130566939
 40
0.7593046645
 40
1.0
 40
1.0
 40
1.0
 40
1.0
 10
89.7016809964
 20
82.6152743183
 30
0.0
 10
89.6368342179
 20
82.6152743183
 30
0.0
 10
89.5072101414
 20
82.5918715128
 30
0.0
 10
89.3412433329
 20
82.4905971919
 30
0.0
 10
89.2284891141
 20
82.3372689831
 30
0.0
 10
89.2016809965
 20
82.213961646
 30
0.0
 10
89.2016809964
 20
82.1537358571
 30
0.0
  0
LINE
  5
359
100
AcDbEntity
  8
RUNDUNGEN
100
AcDbLine
 62
7
  6
CONTINUOUS
 10
86.7337698827
 20
88.1537358568
 11
88.7355946317
 21
94.1537039099
  0
SPLINE
  5
35A
100
AcDbEntity
  8
RUNDUNGEN
100
AcDbSpline
 62
7
  6
CONTINUOUS
 70
0
 71
3
 72
11
 73
7
 74
0
 42
0.0000001
 43
0.0000001
 44
0.0000000001
 40
0.0
 40
0.0
 40
0.0
 40
0.0
 40
0.2565752146
 40
0.508927477
 40
0.7562526322
 40
1.0
 40
1.0
 40
1.0
 40
1.0
 10
89.6846439096
 20
82.4958211435
 30
0.0
 10
89.6303099426
 20
82.4974337533
 30
0.0
 10
89.5212712561
 20
82.4835759006
 30
0.0
 10
89.3741020475
 20
82.4133732145
 30
0.0
 10
89.2604421748
 20
82.3000216261
 30
0.0
 10
89.2150464217
 20
82.2036164621
 30
0.0
 10
89.2016809964
 20
82.1537358568
 30
0.0
  0
SPLINE
  5
35B
100
AcDbEntity
  8
RUNDUNGEN
100
AcDbSpline
 62
7
  6
CONTINUOUS
 70
0
 71
3
 72
11
 73
7
 74
0
 42
0.0000001
 43
0.0000001
 44
0.0000000001
 40
0.0
 40
0.0
 40
0.0
 40
0.0
 40
0.2530665485
 40
0.5046984568
 40
0.7538262448
 40
1.0
 40
1.0
 40
1.0
 40
1.0
 10
68.7016809964
 20
88.1537358568
 30
0.0
 10
68.7583753624
 20
87.8636220597
 30
0.0
 10
68.8714813267
 20
87.2850631476
 30
0.0
 10
69.0289145339
 20
86.4185842121
 30
0.0
 10
69.1563986713
 20
85.5554620843
 30
0.0
 10
69.201683305
 20
84.9771844528
 30
0.0
 10
69.2016809964
 20
84.6896342417
 30
0.0
  0
SPLINE
  5
35C
100
AcDbEntity
  8
RUNDUNGEN
100
AcDbSpline
 62
7
  6
CONTINUOUS
 70
0
 71
3
 72
11
 73
7
 74
0
 42
0.0000001
 43
0.0000001
 44
0.0000000001
 40
0.0
 40
0.0
 40
0.0
 40
0.0
 40
0.2406953355
 40
0.4869433063
 40
0.7408366515
 40
1.0
 40
1.0
 40
1.0
 40
1.0
 10
69.2016809964
 20
82.1537358569
 30
0.0
 10
69.2016809964
 20
82.2139616457
 30
0.0
 10
69.1748728788
 20
82.3372689829
 30
0.0
 10
69.0621186599
 20
82.4905971916
 30
0.0
 10
68.8961518513
 20
82.5918715122
 30
0.0
 10
68.7665277749
 20
82.6152743175
 30
0.0
 10
68.7016809964
 20
82.6152743174
 30
0.0
  0
SPLINE
  5
35D
100
AcDbEntity
  8
RUNDUNGEN
100
AcDbSpline
 62
7
  6
CONTINUOUS
 70
0
 71
3
 72
11
 73
7
 74
0
 42
0.0000001
 43
0.0000001
 44
0.0000000001
 40
0.0
 40
0.0
 40
0.0
 40
0.0
 40
0.2437473678
 40
0.4910725231
 40
0.7434247857
 40
1.0
 40
1.0
 40
1.0
 40
1.0
 10
69.2016809964
 20
82.1537358568
 30
0.0
 10
69.1883155708
 20
82.2036164606
 30
0.0
 10
69.1429198164
 20
82.3000216212
 30
0.0
 10
69.0292599416
 20
82.4133732018
 30
0.0
 10
68.882090733
 20
82.483575878
 30
0.0
 10
68.7730520486
 20
82.4974337241
 30
0.0
 10
68.7187180833
 20
82.4958211113
 30
0.0
  0
LINE
  5
35E
100
AcDbEntity
  8
RUNDUNGEN
100
AcDbLine
 62
7
  6
CONTINUOUS
 10
131.4018885346
 20
80.1537358568
 11
132.8578259143
 21
83.1538520759
  0
LINE
  5
35F
100
AcDbEntity
  8
RUNDUNGEN
100
AcDbLine
 62
7
  6
CONTINUOUS
 10
130.9378145313
 20
96.1537358568
 11
130.0278889456
 21
93.1537358568
  0
ELLIPSE
  5
360
100
AcDbEntity
  8
0
100
AcDbEllipse
 62
7
  6
CONTINUOUS
 10
108.4557695867
 20
153.4238370676
 30
0.0
 11
-0.0
 21
2.75
 31
0.0
 40
0.4040262258
 41
-3.1415926536
 42
0.0
  0
ELLIPSE
  5
361
100
AcDbEntity
  8
0
100
AcDbEllipse
 62
7
  6
CONTINUOUS
 10
124.6051795725
 20
153.4238370676
 30
0.0
 11
-0.0
 21
2.75
 31
0.0
 40
0.3639702343
 41
-0.0
 42
3.1415926536
  0
ELLIPSE
  5
362
100
AcDbEntity
  8
0
100
AcDbEllipse
 62
7
  6
CONTINUOUS
 10
72.2161094113
 20
153.4238370676
 30
0.0
 11
-0.0
 21
2.75
 31
0.0
 40
0.2679491924
 41
0.0
 42
3.1415926536
  0
ELLIPSE
  5
363
100
AcDbEntity
  8
0
100
AcDbEllipse
 62
7
  6
CONTINUOUS
 10
86.1872525816
 20
153.4238370676
 30
0.0
 11
-0.0
 21
2.75
 31
0.0
 40
0.2679491924
 41
-3.1415926536
 42
0.0
  0
ELLIPSE
  5
364
100
AcDbEntity
  8
0
100
AcDbEllipse
 62
7
  6
CONTINUOUS
 10
105.425572893
 20
153.4238370676
 30
0.0
 11
0.0
 21
2.75
 31
0.0
 40
0.4040262258
 41
0.0
 42
3.1415926536
  0
ELLIPSE
  5
365
100
AcDbEntity
  8
0
100
AcDbEllipse
 62
7
  6
CONTINUOUS
 10
127.3349563295
 20
153.4238370676
 30
0.0
 11
-0.0
 21
2.75
 31
0.0
 40
0.3639702343
 41
-3.1415926536
 42
-0.0
  0
ENDSEC
  0
SECTION
  2
OBJECTS
  0
DICTIONARY
  5
C
100
AcDbDictionary
280
0
281
1
  3
ACAD_GROUP
350
D
  3
ACAD_MLINESTYLE
350
17
  3
ACAD_LAYOUT
350
1A
  3
ACAD_PLOTSETTINGS
350
19
  3
ACAD_PLOTSTYLENAME
350
E
  0
DICTIONARY
  5
D
102
{ACAD_REACTORS
330
C
102
}
100
AcDbDictionary
280
0
281
1
  0
ACDBDICTIONARYWDFLT
  5
E
102
{ACAD_REACTORS
330
C
102
}
100
AcDbDictionary
281
1
  3
Normal
350
F
100
AcDbDictionaryWithDefault
340
F
  0
DICTIONARY
  5
17
102
{ACAD_REACTORS
330
C
102
}
100
AcDbDictionary
280
0
281
1
  3
Standard
350
18
  0
DICTIONARY
  5
19
102
{ACAD_REACTORS
330
C
102
}
100
AcDbDictionary
281
1
  0
DICTIONARY
  5
1A
102
{ACAD_REACTORS
330
C
102
}
100
AcDbDictionary
281
1
  3
Model
350
366
  3
Layout1
350
367
  0
ACDBPLACEHOLDER
  5
F
102
{ACAD_REACTORS
330
E
102
}
  0
MLINESTYLE
  5
18
102
{ACAD_REACTORS
330
17
102
}
100
AcDbMlineStyle
  2
STANDARD
 70
0
  3

 62
256
 51
90.0
 52
90.0
 71
2
 49
0.5
 62
256
  6
BYLAYER
 49
-0.5
 62
256
  6
BYLAYER
  0
LAYOUT
  5
366
102
{ACAD_REACTORS
330
1A
102
}
100
AcDbPlotSettings
  1

  2
none_device
  4
ISO_A4_(297.00_x_210.00_MM)
  6

 40
0.0
 41
0.0
 42
0.0
 43
0.0
 44
297.0
 45
210.0
 46
0.0
 47
0.0
 48
0.0
 49
0.0
140
0.0
141
0.0
142
1.0
143
1.0
 70
1024
 72
1
 73
0
 74
0
  7

 75
0
147
1.0
148
0.0
149
0.0
100
AcDbLayout
  1
Model
 70
0
 71
0
 10
0.0
 20
0.0
 11
297.0
 21
210.0
 12
0.0
 22
0.0
 32
0.0
 14
0.0
 24
0.0
 34
0.0
 15
0.0
 25
0.0
 35
0.0
146
0.0
 13
0.0
 23
0.0
 33
0.0
 16
1.0
 26
0.0
 36
0.0
 17
0.0
 27
1.0
 37
0.0
 76
0
330
210
345
0
346
0
  0
LAYOUT
  5
367
102
{ACAD_REACTORS
330
1A
102
}
100
AcDbPlotSettings
  1

  2
none_device
  4
ISO_A4_(297.00_x_210.00_MM)
  6

 40
0.0
 41
0.0
 42
0.0
 43
0.0
 44
297.0
 45
210.0
 46
0.0
 47
0.0
 48
0.0
 49
0.0
140
0.0
141
0.0
142
1.0
143
1.0
 70
0
 72
1
 73
0
 74
0
  7

 75
0
147
1.0
148
0.0
149
0.0
100
AcDbLayout
  1
Layout1
 70
0
 71
1
 10
0.0
 20
0.0
 11
297.0
 21
210.0
 12
0.0
 22
0.0
 32
0.0
 14
0.0
 24
0.0
 34
0.0
 15
0.0
 25
0.0
 35
0.0
146
0.0
 13
0.0
 23
0.0
 33
0.0
 16
1.0
 26
0.0
 36
0.0
 17
0.0
 27
1.0
 37
0.0
 76
0
330
211
345
0
346
0
  0
ENDSEC
  0
EOF
