999
DXF file: S:\Prolink\03_Konstruktion\CAD-Plots\Internet\2D_neu\S5\s5-45_grt_sml_sg_h50_w38.dxf
999
Pro/ENGINEER 2012230 by Parametric Technology Corporation
  0
SECTION
  2
HEADER
  9
$ACADVER
  1
AC1021
  9
$DWGCODEPAGE
  3
ANSI_1252
  9
$EXTMAX
 10
297.0
 20
210.0
 30
0.0
  9
$EXTMIN
 10
0.0
 20
0.0
 30
0.0
  9
$LIMMIN
 10
0.0
 20
0.0
  9
$LIMMAX
 10
297.0
 20
210.0
  9
$VIEWCTR
 10
148.5
 20
105.0
  9
$VIEWSIZE
 40
210.0
  9
$CLAYER
  8
0
  9
$LTSCALE
 40
16.335
  9
$CELTYPE
  6
BYLAYER
  9
$DIMSCALE
 40
1.0
  9
$DIMASZ
 40
3.5
  9
$DIMEXO
 40
0.0
  9
$DIMDLI
 40
11.286
  9
$DIMEXE
 40
1.5
  9
$DIMCEN
 40
2.673
  9
$DIMLFAC
 40
1.0
  9
$DIMBLK
  1
_FILLED
  9
$DIMTXT
 40
3.5
  9
$DIMTOL
 70
1
  9
$DIMLIM
 70
0
  9
$DIMTFAC
 40
1.0
  9
$DIMTP
 40
0.005
  9
$DIMTM
 40
0.005
  9
$DIMGAP
 40
0.625
  9
$DIMDSEP
 70
46
  9
$PDMODE
 70
3
  9
$PDSIZE
 40
0.3125
  9
$HANDSEED
  5
34B
  9
$TILEMODE
 70
1
  9
$MEASUREMENT
 70
1
  9
$INSUNITS
 70
4
  0
ENDSEC
  0
SECTION
  2
CLASSES
  0
CLASS
  1
ACDBDICTIONARYWDFLT
  2
AcDbDictionaryWithDefault
  3
AutoCAD 2000
 90
0
 91
1
280
0
281
0
  0
CLASS
  1
ACDBPLACEHOLDER
  2
AcDbPlaceHolder
  3
AutoCAD 2000
 90
0
 91
1
280
0
281
0
  0
CLASS
  1
LAYOUT
  2
AcDbLayout
  3
AutoCAD 2000
 90
0
 91
0
280
0
281
0
  0
ENDSEC
  0
SECTION
  2
TABLES
  0
TABLE
  2
VPORT
  5
8
100
AcDbSymbolTable
 70
2
  0
VPORT
  5
1F4
100
AcDbSymbolTableRecord
100
AcDbViewportTableRecord
  2
*ACTIVE
 70
0
 10
0.0
 20
0.0
 11
1.0
 21
1.0
 12
148.5
 22
105.0
 13
0.0
 23
0.0
 14
1.0
 24
1.0
 15
0.0
 25
0.0
 16
0.0
 26
0.0
 36
1.0
 17
0.0
 27
0.0
 37
0.0
 40
210.0
 41
1.4142857143
 42
50.0
 43
0.0
 44
0.0
 50
0.0
 51
0.0
 71
0
 72
100
 73
1
 74
1
 75
0
 76
0
 77
0
 78
0
  0
ENDTAB
  0
TABLE
  2
LTYPE
  5
5
100
AcDbSymbolTable
 70
6
  0
LTYPE
  5
14
100
AcDbSymbolTableRecord
100
AcDbLinetypeTableRecord
  2
BYBLOCK
 70
0
  3

 72
65
 73
0
 40
0.0
  0
LTYPE
  5
15
100
AcDbSymbolTableRecord
100
AcDbLinetypeTableRecord
  2
BYLAYER
 70
0
  3

 72
65
 73
0
 40
0.0
  0
LTYPE
  5
16
100
AcDbSymbolTableRecord
100
AcDbLinetypeTableRecord
  2
CONTINUOUS
 70
64
  3
Solid line
 72
65
 73
0
 40
0.0
  0
LTYPE
  5
1F5
100
AcDbSymbolTableRecord
100
AcDbLinetypeTableRecord
  2
CENTER
 70
64
  3
____ _ ____ _ ____ _ ____ _ ____ _ ____ _ ____
 72
65
 73
4
 40
0.6
 49
0.375
 74
0
 49
-0.075
 74
0
 49
0.075
 74
0
 49
-0.075
 74
0
  0
LTYPE
  5
1F6
100
AcDbSymbolTableRecord
100
AcDbLinetypeTableRecord
  2
HIDDEN
 70
64
  3
- - - - - - - - - - - - - - - - - - - -
 72
65
 73
2
 40
0.2
 49
0.1
 74
0
 49
-0.1
 74
0
  0
LTYPE
  5
1F7
100
AcDbSymbolTableRecord
100
AcDbLinetypeTableRecord
  2
PHANTOM
 70
64
  3
_____ _ _ _____ _ _ _____ _ _ _____
 72
65
 73
6
 40
0.8
 49
0.45
 74
0
 49
-0.05
 74
0
 49
0.1
 74
0
 49
-0.05
 74
0
 49
0.1
 74
0
 49
-0.05
 74
0
  0
LTYPE
  5
1F8
100
AcDbSymbolTableRecord
100
AcDbLinetypeTableRecord
  2
DOT
 70
64
  3
. . . . . . . . . . . . . . . . . . . .
 72
65
 73
2
 40
0.2
 49
0.1
 74
0
 49
-0.1
 74
0
  0
LTYPE
  5
1F9
100
AcDbSymbolTableRecord
100
AcDbLinetypeTableRecord
  2
DASHED
 70
64
  3
- - - - - - - - - - - - - - - - - - - -
 72
65
 73
2
 40
0.2
 49
0.1
 74
0
 49
-0.1
 74
0
  0
ENDTAB
  0
TABLE
  2
LAYER
  5
2
100
AcDbSymbolTable
 70
36
  0
LAYER
  5
10
100
AcDbSymbolTableRecord
100
AcDbLayerTableRecord
  2
0
 70
0
 62
7
  6
CONTINUOUS
370
-3
390
F
  0
LAYER
  5
1FA
100
AcDbSymbolTableRecord
100
AcDbLayerTableRecord
  2
DEFAULT_1
 70
0
 62
7
  6
CENTER
370
-3
390
F
  0
LAYER
  5
1FB
100
AcDbSymbolTableRecord
100
AcDbLayerTableRecord
  2
DEFAULT_2
 70
0
 62
8
  6
HIDDEN
370
-3
390
F
  0
LAYER
  5
1FC
100
AcDbSymbolTableRecord
100
AcDbLayerTableRecord
  2
DEFAULT_3
 70
0
 62
7
  6
PHANTOM
370
-3
390
F
  0
LAYER
  5
1FD
100
AcDbSymbolTableRecord
100
AcDbLayerTableRecord
  2
01___PRT_ALL_DTM_PLN
 70
0
 62
7
  6
CONTINUOUS
370
-3
390
F
  0
LAYER
  5
1FE
100
AcDbSymbolTableRecord
100
AcDbLayerTableRecord
  2
01___PRT_DEF_DTM_PLN
 70
0
 62
7
  6
CONTINUOUS
370
-3
390
F
  0
LAYER
  5
1FF
100
AcDbSymbolTableRecord
100
AcDbLayerTableRecord
  2
02___PRT_ALL_AXES
 70
0
 62
7
  6
CONTINUOUS
370
-3
390
F
  0
LAYER
  5
200
100
AcDbSymbolTableRecord
100
AcDbLayerTableRecord
  2
03___PRT_ALL_CURVES
 70
0
 62
7
  6
CONTINUOUS
370
-3
390
F
  0
LAYER
  5
201
100
AcDbSymbolTableRecord
100
AcDbLayerTableRecord
  2
04___PRT_ALL_DTM_PNT
 70
0
 62
7
  6
CONTINUOUS
370
-3
390
F
  0
LAYER
  5
202
100
AcDbSymbolTableRecord
100
AcDbLayerTableRecord
  2
05___PRT_ALL_DTM_CSYS
 70
0
 62
7
  6
CONTINUOUS
370
-3
390
F
  0
LAYER
  5
203
100
AcDbSymbolTableRecord
100
AcDbLayerTableRecord
  2
05___PRT_DEF_DTM_CSYS
 70
0
 62
7
  6
CONTINUOUS
370
-3
390
F
  0
LAYER
  5
204
100
AcDbSymbolTableRecord
100
AcDbLayerTableRecord
  2
06___PRT_ALL_SURFS
 70
0
 62
7
  6
CONTINUOUS
370
-3
390
F
  0
LAYER
  5
205
100
AcDbSymbolTableRecord
100
AcDbLayerTableRecord
  2
AUSFORMSCHRAEGEN
 70
0
 62
7
  6
CONTINUOUS
370
-3
390
F
  0
LAYER
  5
206
100
AcDbSymbolTableRecord
100
AcDbLayerTableRecord
  2
BEZUGSACHSEN
 70
0
 62
7
  6
CONTINUOUS
370
-3
390
F
  0
LAYER
  5
207
100
AcDbSymbolTableRecord
100
AcDbLayerTableRecord
  2
BEZUGSEBENE
 70
0
 62
7
  6
CONTINUOUS
370
-3
390
F
  0
LAYER
  5
208
100
AcDbSymbolTableRecord
100
AcDbLayerTableRecord
  2
BEZUGSEBENEN
 70
0
 62
7
  6
CONTINUOUS
370
-3
390
F
  0
LAYER
  5
209
100
AcDbSymbolTableRecord
100
AcDbLayerTableRecord
  2
BEZUGSEBENEN-KES
 70
0
 62
7
  6
CONTINUOUS
370
-3
390
F
  0
LAYER
  5
20A
100
AcDbSymbolTableRecord
100
AcDbLayerTableRecord
  2
KURVEN
 70
0
 62
7
  6
CONTINUOUS
370
-3
390
F
  0
LAYER
  5
20B
100
AcDbSymbolTableRecord
100
AcDbLayerTableRecord
  2
RUNDUNGEN
 70
0
 62
7
  6
CONTINUOUS
370
-3
390
F
  0
ENDTAB
  0
TABLE
  2
STYLE
  5
3
100
AcDbSymbolTable
 70
1
  0
STYLE
  5
11
100
AcDbSymbolTableRecord
100
AcDbTextStyleTableRecord
  2
STANDARD
 70
0
 40
0.0
 41
0.7
 50
0.0
 71
0
 42
0.2
  3
txt
  4

  0
STYLE
  5
20C
100
AcDbSymbolTableRecord
100
AcDbTextStyleTableRecord
  2
TEXTSTYLE_1
 70
0
 40
0.0
 41
0.8
 50
0.0
 71
0
 42
0.2
  3
gdt
  4

  0
ENDTAB
  0
TABLE
  2
VIEW
  5
6
100
AcDbSymbolTable
 70
0
  0
ENDTAB
  0
TABLE
  2
UCS
  5
7
100
AcDbSymbolTable
 70
0
  0
ENDTAB
  0
TABLE
  2
APPID
  5
9
100
AcDbSymbolTable
 70
1
  0
APPID
  5
20D
100
AcDbSymbolTableRecord
100
AcDbRegAppTableRecord
  2
ACAD
 70
0
  0
ENDTAB
  0
TABLE
  2
BLOCK_RECORD
  5
1
100
AcDbSymbolTable
 70
0
  0
BLOCK_RECORD
  5
20E
100
AcDbSymbolTableRecord
100
AcDbBlockTableRecord
  2
*Model_Space
  0
BLOCK_RECORD
  5
20F
100
AcDbSymbolTableRecord
100
AcDbBlockTableRecord
  2
*Paper_Space
  0
ENDTAB
  0
TABLE
  2
DIMSTYLE
  5
A
100
AcDbSymbolTable
 70
1
100
AcDbDimStyleTable
 71
0
  0
DIMSTYLE
105
210
100
AcDbSymbolTableRecord
100
AcDbDimStyleTableRecord
  2
STANDARD
 70
0
  3

  4

 40
1.0
 41
3.5
 42
0.0
 43
0.38
 44
1.5
 45
0.0
 46
0.0
 47
0.005
 48
0.005
140
3.5
141
0.09
142
0.0
143
25.4
144
1.0
145
0.0
146
1.0
147
0.625
 71
1.0
 72
0.0
 73
0
 74
0
 75
0
 76
0
 77
1
 78
8
170
0
171
2
172
0
173
0
174
0
175
0
176
0
177
0
178
5
270
2
271
3
272
3
273
2
274
2
275
0
280
0
281
0
282
0
283
1
284
8
285
0
286
0
287
3
288
0
340
11
278
46
  0
ENDTAB
  0
ENDSEC
  0
SECTION
  2
BLOCKS
  0
BLOCK
  5
20
100
AcDbEntity
  8
0
100
AcDbBlockBegin
  2
*Model_Space
 70
0
 10
0.0
 20
0.0
 30
0.0
  3
*Model_Space
  1

  0
ENDBLK
  5
21
100
AcDbEntity
  8
0
100
AcDbBlockEnd
  0
BLOCK
  5
1C
100
AcDbEntity
  8
0
100
AcDbBlockBegin
  2
*Paper_Space
 70
0
 10
0.0
 20
0.0
 30
0.0
  3
*Paper_Space
  1

  0
ENDBLK
  5
1D
100
AcDbEntity
  8
0
100
AcDbBlockEnd
  0
ENDSEC
  0
SECTION
  2
ENTITIES
  0
LINE
  5
211
100
AcDbEntity
  8
0
100
AcDbLine
 62
7
  6
CONTINUOUS
 10
0.0
 20
0.0
 11
0.0
 21
210.0
  0
LINE
  5
212
100
AcDbEntity
  8
0
100
AcDbLine
 62
7
  6
CONTINUOUS
 10
0.0
 20
0.0
 11
297.0
 21
0.0
  0
LINE
  5
213
100
AcDbEntity
  8
0
100
AcDbLine
 62
7
  6
CONTINUOUS
 10
0.0
 20
210.0
 11
297.0
 21
210.0
  0
LINE
  5
214
100
AcDbEntity
  8
0
100
AcDbLine
 62
7
  6
CONTINUOUS
 10
297.0
 20
0.0
 11
297.0
 21
210.0
  0
LWPOLYLINE
  5
215
100
AcDbEntity
  8
RUNDUNGEN
100
AcDbPolyline
 62
7
  6
CONTINUOUS
 90
6
 70
0
 10
69.9542362903
 20
201.4457133577
 10
69.8440107236
 20
201.2312986792
 10
69.7484034454
 20
200.9898080047
 10
69.6668919519
 20
200.7212112772
 10
69.5993591253
 20
200.4258273946
 10
69.5467601209
 20
200.1086785866
  0
LINE
  5
216
100
AcDbEntity
  8
RUNDUNGEN
100
AcDbLine
 62
7
  6
CONTINUOUS
 10
69.5467601209
 20
200.1086785866
 11
69.5254443504
 21
199.9362468207
  0
LINE
  5
217
100
AcDbEntity
  8
RUNDUNGEN
100
AcDbLine
 62
7
  6
CONTINUOUS
 10
69.5254969673
 20
199.936845854
 11
69.5182545857
 21
199.8133689528
  0
LINE
  5
218
100
AcDbEntity
  8
RUNDUNGEN
100
AcDbLine
 62
7
  6
CONTINUOUS
 10
69.5255101598
 20
199.9368443738
 11
69.5254443504
 21
199.9362468207
  0
LINE
  5
219
100
AcDbEntity
  8
RUNDUNGEN
100
AcDbLine
 62
7
  6
CONTINUOUS
 10
69.5182560189
 20
199.8131995581
 11
69.5182545097
 21
199.8132663388
  0
LINE
  5
21A
100
AcDbEntity
  8
02___PRT_ALL_AXES
100
AcDbLine
 62
7
  6
CONTINUOUS
 10
67.767578125
 20
152.1722369459
 11
67.767578125
 21
140.1722369459
  0
LWPOLYLINE
  5
21B
100
AcDbEntity
  8
0
100
AcDbPolyline
 62
7
  6
CONTINUOUS
 90
7
 70
0
 10
69.5182549924
 20
199.8134189517
 10
69.4420518175
 20
190.6560512204
 10
69.2955336901
 20
181.4377270851
 10
69.1206323936
 20
172.3607103242
 10
68.9553175059
 20
163.4242883162
 10
68.8343160321
 20
154.6277213899
 10
68.8146008123
 20
152.1722369459
  0
LINE
  5
21C
100
AcDbEntity
  8
RUNDUNGEN
100
AcDbLine
 62
7
  6
CONTINUOUS
 10
79.440578909
 20
140.2701239133
 11
79.440578909
 21
152.0743499785
  0
LINE
  5
21D
100
AcDbEntity
  8
RUNDUNGEN
100
AcDbLine
 62
7
  6
CONTINUOUS
 10
81.3426919416
 20
142.1722369459
 11
81.3426919416
 21
150.1722369459
  0
LINE
  5
21E
100
AcDbEntity
  8
RUNDUNGEN
100
AcDbLine
 62
7
  6
CONTINUOUS
 10
82.4562335906
 20
197.3616434496
 11
82.4562344971
 21
197.3618284603
  0
LINE
  5
21F
100
AcDbEntity
  8
02___PRT_ALL_AXES
100
AcDbLine
 62
7
  6
CONTINUOUS
 10
67.767578125
 20
140.1722369459
 11
68.7656341079
 21
140.1722369459
  0
LINE
  5
220
100
AcDbEntity
  8
RUNDUNGEN
100
AcDbLine
 62
7
  6
CONTINUOUS
 10
68.7656341079
 20
140.1722369459
 11
100.2720520145
 21
140.1722369459
  0
LINE
  5
221
100
AcDbEntity
  8
0
100
AcDbLine
 62
7
  6
CONTINUOUS
 10
100.2720520145
 20
140.1722369459
 11
104.267427207
 21
140.1722369459
  0
LINE
  5
222
100
AcDbEntity
  8
RUNDUNGEN
100
AcDbLine
 62
7
  6
CONTINUOUS
 10
105.267578125
 20
142.1722252886
 11
104.267578125
 21
142.1722252912
  0
LINE
  5
223
100
AcDbEntity
  8
RUNDUNGEN
100
AcDbLine
 62
7
  6
CONTINUOUS
 10
90.6626919416
 20
142.1722369459
 11
81.3426919416
 21
142.1722369459
  0
LINE
  5
224
100
AcDbEntity
  8
RUNDUNGEN
100
AcDbLine
 62
7
  6
CONTINUOUS
 10
82.4508557522
 20
197.4762561849
 11
82.4508751001
 21
197.4760253798
  0
LINE
  5
225
100
AcDbEntity
  8
RUNDUNGEN
100
AcDbLine
 62
7
  6
CONTINUOUS
 10
82.4562325652
 20
197.3618111572
 11
82.4508703621
 21
197.4762574155
  0
LWPOLYLINE
  5
226
100
AcDbEntity
  8
0
100
AcDbPolyline
 62
7
  6
CONTINUOUS
 90
3
 70
0
 10
82.6638877503
 20
181.6344624415
 10
82.535069024
 20
189.5890985148
 10
82.4562334501
 20
197.3619985961
  0
LWPOLYLINE
  5
227
100
AcDbEntity
  8
0
100
AcDbPolyline
 62
7
  6
CONTINUOUS
 90
4
 70
0
 10
83.1490240292
 20
152.356447914
 10
83.089423445
 20
158.0022674393
 10
82.9657586728
 20
165.8412979953
 10
82.6638877503
 20
181.6344624415
  0
LINE
  5
228
100
AcDbEntity
  8
RUNDUNGEN
100
AcDbLine
 62
7
  6
CONTINUOUS
 10
83.1490345345
 20
152.3550930744
 11
83.1490337616
 21
152.355183832
  0
LINE
  5
229
100
AcDbEntity
  8
0
100
AcDbLine
 62
7
  6
CONTINUOUS
 10
77.8604833826
 20
143.4272369459
 11
75.4203364639
 21
143.4272369459
  0
LINE
  5
22A
100
AcDbEntity
  8
0
100
AcDbLine
 62
7
  6
CONTINUOUS
 10
93.9605249759
 20
143.4272369459
 11
96.1139828229
 21
143.4272369459
  0
LWPOLYLINE
  5
22B
100
AcDbEntity
  8
RUNDUNGEN
100
AcDbPolyline
 62
7
  6
CONTINUOUS
 90
3
 70
0
 10
83.1677697102
 20
152.2774989964
 10
83.1524761095
 20
152.3228260192
 10
83.1490036933
 20
152.3564691663
  0
LWPOLYLINE
  5
22C
100
AcDbEntity
  8
RUNDUNGEN
100
AcDbPolyline
 62
7
  6
CONTINUOUS
 90
14
 70
0
 10
82.4508751001
 20
197.4760253798
 10
82.4099115946
 20
197.8979519971
 10
82.3317658775
 20
198.4916170604
 10
82.2293074173
 20
199.0701282265
 10
82.1041325227
 20
199.6146460002
 10
81.9581794644
 20
200.1134906996
 10
81.793657745
 20
200.55861428
 10
81.6127994039
 20
200.9458426546
 10
81.4154660681
 20
201.2773079855
 10
81.2017537909
 20
201.5545603976
 10
80.9662540533
 20
201.7839735937
 10
80.7035651227
 20
201.9663975439
 10
80.415299915
 20
202.0951319613
 10
80.1077958794
 20
202.1629212485
  0
LINE
  5
22D
100
AcDbEntity
  8
RUNDUNGEN
100
AcDbLine
 62
7
  6
CONTINUOUS
 10
90.6626919416
 20
142.1722369459
 11
90.6626919416
 21
150.1722369459
  0
LINE
  5
22E
100
AcDbEntity
  8
0
100
AcDbLine
 62
7
  6
CONTINUOUS
 10
96.1139828229
 20
148.9172369459
 11
93.9605249759
 21
148.9172369459
  0
LINE
  5
22F
100
AcDbEntity
  8
0
100
AcDbLine
 62
7
  6
CONTINUOUS
 10
75.4203364639
 20
148.9172369459
 11
77.8604833826
 21
148.9172369459
  0
LINE
  5
230
100
AcDbEntity
  8
RUNDUNGEN
100
AcDbLine
 62
7
  6
CONTINUOUS
 10
90.6626919416
 20
150.1722369459
 11
81.3426919416
 21
150.1722369459
  0
LINE
  5
231
100
AcDbEntity
  8
RUNDUNGEN
100
AcDbLine
 62
7
  6
CONTINUOUS
 10
105.267578125
 20
150.1722484676
 11
104.267578125
 21
150.1722484676
  0
LINE
  5
232
100
AcDbEntity
  8
RUNDUNGEN
100
AcDbLine
 62
7
  6
CONTINUOUS
 10
83.346508898
 20
152.1640214223
 11
83.3325449969
 21
152.1722369452
  0
LINE
  5
233
100
AcDbEntity
  8
RUNDUNGEN
100
AcDbLine
 62
7
  6
CONTINUOUS
 10
92.5852153335
 20
140.3458397236
 11
92.5852153335
 21
151.9986341682
  0
LINE
  5
234
100
AcDbEntity
  8
RUNDUNGEN
100
AcDbLine
 62
7
  6
CONTINUOUS
 10
104.267578125
 20
152.1722369459
 11
83.3325374609
 21
152.1722369459
  0
LINE
  5
235
100
AcDbEntity
  8
02___PRT_ALL_AXES
100
AcDbLine
 62
7
  6
CONTINUOUS
 10
67.767578125
 20
152.1722369459
 11
68.7656341076
 21
152.1722369459
  0
LINE
  5
236
100
AcDbEntity
  8
RUNDUNGEN
100
AcDbLine
 62
7
  6
CONTINUOUS
 10
68.7656341076
 20
152.1722369459
 11
79.2397674932
 21
152.1722369459
  0
LWPOLYLINE
  5
237
100
AcDbEntity
  8
RUNDUNGEN
100
AcDbPolyline
 62
7
  6
CONTINUOUS
 90
6
 70
0
 10
83.332423414
 20
152.1721900695
 10
83.3196938922
 20
152.1726878011
 10
83.2838287882
 20
152.1792663221
 10
83.2385559782
 20
152.1993879684
 10
83.1969254247
 20
152.2341716799
 10
83.1677697102
 20
152.2774989964
  0
LINE
  5
238
100
AcDbEntity
  8
RUNDUNGEN
100
AcDbLine
 62
7
  6
CONTINUOUS
 10
98.3495283425
 20
152.072147027
 11
98.3495283503
 21
140.2723270238
  0
LINE
  5
239
100
AcDbEntity
  8
RUNDUNGEN
100
AcDbLine
 62
7
  6
CONTINUOUS
 10
100.2720520145
 20
152.1722369459
 11
100.2720520145
 21
140.1722369459
  0
LINE
  5
23A
100
AcDbEntity
  8
RUNDUNGEN
100
AcDbLine
 62
7
  6
CONTINUOUS
 10
104.267578125
 20
152.172236946
 11
104.267578125
 21
142.172433452
  0
LINE
  5
23B
100
AcDbEntity
  8
0
100
AcDbLine
 62
7
  6
CONTINUOUS
 10
104.2675781242
 20
142.172433452
 11
104.267578125
 21
140.1722369459
  0
LINE
  5
23C
100
AcDbEntity
  8
RUNDUNGEN
100
AcDbLine
 62
7
  6
CONTINUOUS
 10
105.267578125
 20
151.1722369459
 11
105.267578125
 21
142.1722252886
  0
LINE
  5
23D
100
AcDbEntity
  8
0
100
AcDbLine
 62
7
  6
CONTINUOUS
 10
105.267578125
 20
142.1722252886
 11
105.267578125
 21
141.1722490468
  0
LWPOLYLINE
  5
23E
100
AcDbEntity
  8
RUNDUNGEN
100
AcDbPolyline
 62
7
  6
CONTINUOUS
 90
8
 70
0
 10
71.1020899944
 20
202.1721905677
 10
70.9438636033
 20
202.161057765
 10
70.7451479171
 20
202.1163167618
 10
70.5572258178
 20
202.0394305431
 10
70.3824280054
 20
201.9322014697
 10
70.2236108087
 20
201.7971181071
 10
70.0803915265
 20
201.6342506291
 10
69.9542362903
 20
201.4457133577
  0
LINE
  5
23F
100
AcDbEntity
  8
0
100
AcDbLine
 62
7
  6
CONTINUOUS
 10
79.9423315504
 20
202.1722369459
 11
79.9088323207
 21
202.1722369459
  0
LINE
  5
240
100
AcDbEntity
  8
0
100
AcDbLine
 62
7
  6
CONTINUOUS
 10
71.1398227487
 20
202.1722369459
 11
71.1063233433
 21
202.1722369459
  0
LINE
  5
241
100
AcDbEntity
  8
RUNDUNGEN
100
AcDbLine
 62
7
  6
CONTINUOUS
 10
71.102089826
 20
202.1722270385
 11
79.948985351
 21
202.1722124721
  0
LINE
  5
242
100
AcDbEntity
  8
RUNDUNGEN
100
AcDbLine
 62
7
  6
CONTINUOUS
 10
80.1077958794
 20
202.1629212485
 11
79.9489852875
 21
202.1722034754
  0
LINE
  5
243
100
AcDbEntity
  8
RUNDUNGEN
100
AcDbLine
 62
7
  6
CONTINUOUS
 10
188.631156741
 20
200.1410989132
 11
188.6113690106
 21
200.0764583297
  0
LINE
  5
244
100
AcDbEntity
  8
RUNDUNGEN
100
AcDbLine
 62
7
  6
CONTINUOUS
 10
188.631156741
 20
200.1410989132
 11
188.6311190555
 21
200.1409874919
  0
LINE
  5
245
100
AcDbEntity
  8
RUNDUNGEN
100
AcDbLine
 62
7
  6
CONTINUOUS
 10
188.6808940899
 20
200.280148635
 11
188.6311692706
 21
200.1409709086
  0
LWPOLYLINE
  5
246
100
AcDbEntity
  8
RUNDUNGEN
100
AcDbPolyline
 62
7
  6
CONTINUOUS
 90
5
 70
0
 10
188.6113690106
 20
200.0764583297
 10
188.5911183104
 20
199.9946034487
 10
188.5775608872
 20
199.9203343234
 10
188.5684984749
 20
199.8359539311
 10
188.5662233984
 20
199.7698399999
  0
LINE
  5
247
100
AcDbEntity
  8
RUNDUNGEN
100
AcDbLine
 62
7
  6
CONTINUOUS
 10
185.8369773293
 20
142.1722369459
 11
185.8369773293
 21
150.1722369459
  0
LWPOLYLINE
  5
248
100
AcDbEntity
  8
0
100
AcDbPolyline
 62
7
  6
CONTINUOUS
 90
7
 70
0
 10
188.5662228306
 20
199.7699586198
 10
188.4901986674
 20
190.6694858104
 10
188.3437190435
 20
181.4601161925
 10
188.1688097947
 20
172.3860325418
 10
188.0034512796
 20
163.4468083128
 10
187.8823745682
 20
154.6420719479
 10
187.8371102668
 20
146.1718172399
  0
LINE
  5
249
100
AcDbEntity
  8
RUNDUNGEN
100
AcDbLine
 62
7
  6
CONTINUOUS
 10
188.5662242368
 20
199.7703950454
 11
188.5662354724
 21
199.7702730977
  0
LINE
  5
24A
100
AcDbEntity
  8
RUNDUNGEN
100
AcDbLine
 62
7
  6
CONTINUOUS
 10
187.8369773293
 20
140.1722369459
 11
222.8369773293
 21
140.1722369459
  0
LINE
  5
24B
100
AcDbEntity
  8
0
100
AcDbLine
 62
7
  6
CONTINUOUS
 10
218.5919773293
 20
143.4272369459
 11
211.0819773293
 21
143.4272369459
  0
LINE
  5
24C
100
AcDbEntity
  8
0
100
AcDbLine
 62
7
  6
CONTINUOUS
 10
211.0819773293
 20
148.9172369459
 11
218.5919773293
 21
148.9172369459
  0
LINE
  5
24D
100
AcDbEntity
  8
RUNDUNGEN
100
AcDbLine
 62
7
  6
CONTINUOUS
 10
187.8369773293
 20
152.1722369459
 11
187.8691759857
 21
152.1722369459
  0
LINE
  5
24E
100
AcDbEntity
  8
RUNDUNGEN
100
AcDbLine
 62
7
  6
CONTINUOUS
 10
193.8369773293
 20
152.1722369459
 11
222.8369773293
 21
152.1722369459
  0
LWPOLYLINE
  5
24F
100
AcDbEntity
  8
0
100
AcDbPolyline
 62
7
  6
CONTINUOUS
 90
3
 70
0
 10
224.326717923
 20
181.6531603986
 10
224.197903783
 20
189.6013990894
 10
224.1196578397
 20
197.2685831878
  0
LWPOLYLINE
  5
250
100
AcDbEntity
  8
RUNDUNGEN
100
AcDbPolyline
 62
7
  6
CONTINUOUS
 90
7
 70
0
 10
224.119665785
 20
197.2685524663
 10
224.1195736358
 20
197.2773759097
 10
224.1166531144
 20
197.3430834126
 10
224.1097964198
 20
197.4107279664
 10
224.0992879944
 20
197.4803492546
 10
224.0845667849
 20
197.5583061881
 10
224.0689619949
 20
197.6274176182
  0
LWPOLYLINE
  5
251
100
AcDbEntity
  8
0
100
AcDbPolyline
 62
7
  6
CONTINUOUS
 90
4
 70
0
 10
224.8249251494
 20
150.4011340309
 10
224.7523175512
 20
158.0130807356
 10
224.6286001215
 20
165.8594733537
 10
224.326717923
 20
181.6531603986
  0
LINE
  5
252
100
AcDbEntity
  8
RUNDUNGEN
100
AcDbLine
 62
7
  6
CONTINUOUS
 10
223.455011318
 20
140.2701239133
 11
223.455011318
 21
152.0743499785
  0
LINE
  5
253
100
AcDbEntity
  8
0
100
AcDbLine
 62
7
  6
CONTINUOUS
 10
224.8369773293
 20
150.1722369459
 11
224.8369773293
 21
142.1722369459
  0
LINE
  5
254
100
AcDbEntity
  8
RUNDUNGEN
100
AcDbLine
 62
7
  6
CONTINUOUS
 10
224.8369773293
 20
142.1722369459
 11
224.8369773293
 21
150.1722369459
  0
LINE
  5
255
100
AcDbEntity
  8
RUNDUNGEN
100
AcDbLine
 62
7
  6
CONTINUOUS
 10
224.1196595867
 20
197.268304642
 11
224.119659062
 21
197.2682387638
  0
LWPOLYLINE
  5
256
100
AcDbEntity
  8
RUNDUNGEN
100
AcDbPolyline
 62
7
  6
CONTINUOUS
 90
15
 70
0
 10
224.0689084159
 20
197.6273719149
 10
223.9607380755
 20
198.0190760667
 10
223.7560908864
 20
198.5792122758
 10
223.4991712154
 20
199.1148615411
 10
223.1926446132
 20
199.6209561434
 10
222.8394239404
 20
200.0926384872
 10
222.443199285
 20
200.5252767047
 10
222.0079132083
 20
200.9144246264
 10
221.5380179981
 20
201.2563756789
 10
221.0382548434
 20
201.5477148041
 10
220.5137348528
 20
201.7857083922
 10
219.9698938777
 20
201.9680675817
 10
219.4120805937
 20
202.0932310284
 10
218.8458012226
 20
202.1601574498
 10
218.4810478919
 20
202.1722281504
  0
LINE
  5
257
100
AcDbEntity
  8
RUNDUNGEN
100
AcDbLine
 62
7
  6
CONTINUOUS
 10
224.0689619949
 20
197.6274176182
 11
224.068969571
 21
197.6273866878
  0
LWPOLYLINE
  5
258
100
AcDbEntity
  8
RUNDUNGEN
100
AcDbPolyline
 62
7
  6
CONTINUOUS
 90
12
 70
0
 10
191.3787035044
 20
202.1721996435
 10
191.266603552
 20
202.1699408636
 10
190.9360252162
 20
202.1371252543
 10
190.6107176412
 20
202.0653272945
 10
190.2949686067
 20
201.9553154625
 10
189.9927754739
 20
201.8081965689
 10
189.7084034111
 20
201.6258272215
 10
189.4458596074
 20
201.4104841317
 10
189.2087644143
 20
201.1649303537
 10
189.0003572153
 20
200.8923266458
 10
188.8235745657
 20
200.596152278
 10
188.6808940899
 20
200.280148635
  0
LINE
  5
259
100
AcDbEntity
  8
0
100
AcDbLine
 62
7
  6
CONTINUOUS
 10
191.37878291
 20
202.1722369459
 11
191.3896675267
 21
202.1722369459
  0
LINE
  5
25A
100
AcDbEntity
  8
RUNDUNGEN
100
AcDbLine
 62
7
  6
CONTINUOUS
 10
191.37878291
 20
202.1722369459
 11
218.4810041941
 21
202.1722369459
  0
LINE
  5
25B
100
AcDbEntity
  8
RUNDUNGEN
100
AcDbLine
 62
7
  6
CONTINUOUS
 10
68.890502297
 20
85.6427582159
 11
69.568407326
 21
85.8630331235
  0
LINE
  5
25C
100
AcDbEntity
  8
02___PRT_ALL_AXES
100
AcDbLine
 62
7
  6
CONTINUOUS
 10
67.767578125
 20
87.9284348858
 11
67.767578125
 21
75.9284348858
  0
LINE
  5
25D
100
AcDbEntity
  8
RUNDUNGEN
100
AcDbLine
 62
7
  6
CONTINUOUS
 10
70.1552677379
 20
84.0667279533
 11
72.0908782874
 21
84.6956459442
  0
LINE
  5
25E
100
AcDbEntity
  8
RUNDUNGEN
100
AcDbLine
 62
7
  6
CONTINUOUS
 10
90.6626919416
 20
50.9284348858
 11
81.3426919416
 21
50.9284348858
  0
LINE
  5
25F
100
AcDbEntity
  8
RUNDUNGEN
100
AcDbLine
 62
7
  6
CONTINUOUS
 10
69.8959163581
 20
81.9284348858
 11
70.0861220252
 21
81.9902362871
  0
LINE
  5
260
100
AcDbEntity
  8
RUNDUNGEN
100
AcDbLine
 62
7
  6
CONTINUOUS
 10
83.3325467073
 20
52.9284348858
 11
83.1342465312
 21
52.9024527444
  0
LINE
  5
261
100
AcDbEntity
  8
RUNDUNGEN
100
AcDbLine
 62
7
  6
CONTINUOUS
 10
79.3185846068
 20
52.9284505048
 11
79.2397674932
 21
52.9284348858
  0
LINE
  5
262
100
AcDbEntity
  8
RUNDUNGEN
100
AcDbLine
 62
7
  6
CONTINUOUS
 10
92.6392608698
 20
52.9284348858
 11
83.3325374609
 21
52.9284868326
  0
LINE
  5
263
100
AcDbEntity
  8
RUNDUNGEN
100
AcDbLine
 62
7
  6
CONTINUOUS
 10
73.9441380107
 20
81.9284348845
 11
73.7539330301
 21
81.8666334153
  0
LINE
  5
264
100
AcDbEntity
  8
RUNDUNGEN
100
AcDbLine
 62
7
  6
CONTINUOUS
 10
92.7353870394
 20
52.9008711502
 11
92.6392608698
 21
52.9284348858
  0
LINE
  5
265
100
AcDbEntity
  8
RUNDUNGEN
100
AcDbLine
 62
7
  6
CONTINUOUS
 10
79.440578909
 20
52.3104008971
 11
70.887825912
 21
78.6330679936
  0
LINE
  5
266
100
AcDbEntity
  8
RUNDUNGEN
100
AcDbLine
 62
7
  6
CONTINUOUS
 10
70.0861220252
 20
81.9902362871
 11
79.5087952702
 21
52.9902365269
  0
LINE
  5
267
100
AcDbEntity
  8
RUNDUNGEN
100
AcDbLine
 62
7
  6
CONTINUOUS
 10
70.1552677379
 20
84.0667279533
 11
78.9577766977
 21
56.9753913392
  0
LINE
  5
268
100
AcDbEntity
  8
RUNDUNGEN
100
AcDbLine
 62
7
  6
CONTINUOUS
 10
80.8933871621
 20
57.604309301
 11
72.090878377
 21
84.6956459733
  0
LINE
  5
269
100
AcDbEntity
  8
RUNDUNGEN
100
AcDbLine
 62
7
  6
CONTINUOUS
 10
83.0645429204
 20
53.211510185
 11
73.7539324249
 21
81.8666332186
  0
LINE
  5
26A
100
AcDbEntity
  8
0
100
AcDbLine
 62
7
  6
CONTINUOUS
 10
78.3057264724
 20
69.4107967956
 11
73.343966804
 21
87.9283359731
  0
LINE
  5
26B
100
AcDbEntity
  8
0
100
AcDbLine
 62
7
  6
CONTINUOUS
 10
90.897578125
 20
67.9284348858
 11
80.237578125
 21
67.9284348858
  0
LINE
  5
26C
100
AcDbEntity
  8
RUNDUNGEN
100
AcDbLine
 62
7
  6
CONTINUOUS
 10
104.267578125
 20
73.9284348858
 11
100.2720530861
 21
73.9284348858
  0
LINE
  5
26D
100
AcDbEntity
  8
RUNDUNGEN
100
AcDbLine
 62
7
  6
CONTINUOUS
 10
105.267578125
 20
75.9284233641
 11
104.267578125
 21
75.9284233682
  0
LINE
  5
26E
100
AcDbEntity
  8
02___PRT_ALL_AXES
100
AcDbLine
 62
7
  6
CONTINUOUS
 10
67.767578125
 20
75.9284348858
 11
71.0400704957
 21
75.9284348858
  0
LINE
  5
26F
100
AcDbEntity
  8
RUNDUNGEN
100
AcDbLine
 62
7
  6
CONTINUOUS
 10
98.3495286226
 20
72.4797095974
 11
98.2533160175
 21
72.507298118
  0
LINE
  5
270
100
AcDbEntity
  8
0
100
AcDbLine
 62
7
  6
CONTINUOUS
 10
97.2686983945
 20
81.9284348858
 11
92.7828611072
 21
69.2608211673
  0
LINE
  5
271
100
AcDbEntity
  8
RUNDUNGEN
100
AcDbLine
 62
7
  6
CONTINUOUS
 10
97.2686983945
 20
81.9284348858
 11
100.1804602687
 21
89.9284348858
  0
LINE
  5
272
100
AcDbEntity
  8
RUNDUNGEN
100
AcDbLine
 62
7
  6
CONTINUOUS
 10
98.3495283425
 20
72.4797086207
 11
92.5852153335
 21
52.3771601742
  0
LINE
  5
273
100
AcDbEntity
  8
0
100
AcDbLine
 62
7
  6
CONTINUOUS
 10
93.9605249759
 20
57.1734348858
 11
96.1139828229
 21
64.6834348858
  0
LINE
  5
274
100
AcDbEntity
  8
RUNDUNGEN
100
AcDbLine
 62
7
  6
CONTINUOUS
 10
80.8933871621
 20
57.604309301
 11
78.9577767647
 21
56.9753913609
  0
LINE
  5
275
100
AcDbEntity
  8
RUNDUNGEN
100
AcDbLine
 62
7
  6
CONTINUOUS
 10
73.9442348136
 20
81.9281369558
 11
74.951635455
 21
81.9284348858
  0
LINE
  5
276
100
AcDbEntity
  8
RUNDUNGEN
100
AcDbLine
 62
7
  6
CONTINUOUS
 10
68.7656341076
 20
81.9284348858
 11
69.8959841283
 21
81.9282263098
  0
LINE
  5
277
100
AcDbEntity
  8
RUNDUNGEN
100
AcDbLine
 62
7
  6
CONTINUOUS
 10
100.2720520145
 20
73.9284348858
 11
100.2720520145
 21
75.9284002113
  0
LINE
  5
278
100
AcDbEntity
  8
RUNDUNGEN
100
AcDbLine
 62
7
  6
CONTINUOUS
 10
79.3185896817
 20
52.928434886
 11
79.5087938867
 21
52.9902360774
  0
LINE
  5
279
100
AcDbEntity
  8
RUNDUNGEN
100
AcDbLine
 62
7
  6
CONTINUOUS
 10
83.2547500685
 20
53.2733070393
 11
83.0645444506
 21
53.2115054777
  0
LINE
  5
27A
100
AcDbEntity
  8
RUNDUNGEN
100
AcDbLine
 62
7
  6
CONTINUOUS
 10
79.7820820816
 20
52.1449734506
 11
80.4424390063
 21
52.3595317733
  0
LINE
  5
27B
100
AcDbEntity
  8
RUNDUNGEN
100
AcDbLine
 62
7
  6
CONTINUOUS
 10
104.267578125
 20
89.9284348858
 11
104.2675781242
 21
73.9284348966
  0
LINE
  5
27C
100
AcDbEntity
  8
RUNDUNGEN
100
AcDbLine
 62
7
  6
CONTINUOUS
 10
105.267578125
 20
87.9284348858
 11
99.4525198001
 21
87.9284348858
  0
LINE
  5
27D
100
AcDbEntity
  8
02___PRT_ALL_AXES
100
AcDbLine
 62
7
  6
CONTINUOUS
 10
67.767578125
 20
87.9284348858
 11
73.3505147273
 21
87.9284348858
  0
LINE
  5
27E
100
AcDbEntity
  8
RUNDUNGEN
100
AcDbLine
 62
7
  6
CONTINUOUS
 10
105.267578125
 20
88.9284348858
 11
105.267578125
 21
74.9284348858
  0
LINE
  5
27F
100
AcDbEntity
  8
RUNDUNGEN
100
AcDbLine
 62
7
  6
CONTINUOUS
 10
104.267578125
 20
89.9284348858
 11
100.1804602687
 21
89.9284348858
  0
ARC
  5
280
100
AcDbEntity
  8
RUNDUNGEN
100
AcDbCircle
 62
7
  6
CONTINUOUS
 10
70.3362868432
 20
151.2174390634
 40
1.2187365033
100
AcDbArc
 50
126.7870757215
 51
128.2286432422
  0
ARC
  5
281
100
AcDbEntity
  8
RUNDUNGEN
100
AcDbCircle
 62
7
  6
CONTINUOUS
 10
104.267578125
 20
151.1722248425
 40
1.0
100
AcDbArc
 50
0.0006934734
 51
89.9999999994
  0
ARC
  5
282
100
AcDbEntity
  8
0
100
AcDbCircle
 62
7
  6
CONTINUOUS
 10
104.267578125
 20
141.1722490477
 40
1.0
100
AcDbArc
 50
269.9913531422
 51
359.9993066512
  0
ARC
  5
283
100
AcDbEntity
  8
RUNDUNGEN
100
AcDbCircle
 62
7
  6
CONTINUOUS
 10
79.9097662406
 20
201.2641412264
 40
0.9080874143
100
AcDbArc
 50
90.0589256987
 51
101.8379835166
  0
ARC
  5
284
100
AcDbEntity
  8
RUNDUNGEN
100
AcDbCircle
 62
7
  6
CONTINUOUS
 10
69.7540120944
 20
199.9953782449
 40
0.2484074965
100
AcDbArc
 50
218.7270774136
 51
221.6532896233
  0
ARC
  5
285
100
AcDbEntity
  8
RUNDUNGEN
100
AcDbCircle
 62
7
  6
CONTINUOUS
 10
69.4928383404
 20
200.018057273
 40
0.2024116369
100
AcDbArc
 50
288.7009821822
 51
291.9219413057
  0
ARC
  5
286
100
AcDbEntity
  8
RUNDUNGEN
100
AcDbCircle
 62
7
  6
CONTINUOUS
 10
92.7354286034
 20
140.4296541516
 40
0.1574172112
100
AcDbArc
 50
263.045333853
 51
269.9848717769
  0
ARC
  5
287
100
AcDbEntity
  8
RUNDUNGEN
100
AcDbCircle
 62
7
  6
CONTINUOUS
 10
193.5290857143
 20
146.1721725383
 40
6.9988745356
100
AcDbArc
 50
300.9863595504
 51
59.0136406636
  0
ARC
  5
288
100
AcDbEntity
  8
RUNDUNGEN
100
AcDbCircle
 62
7
  6
CONTINUOUS
 10
193.7751226137
 20
146.1697334672
 40
6.2009571987
100
AcDbArc
 50
89.9995073854
 51
126.0872757619
  0
CIRCLE
  5
289
100
AcDbEntity
  8
02___PRT_ALL_AXES
100
AcDbCircle
 62
7
  6
CONTINUOUS
 10
193.8369773293
 20
146.1722369459
 40
6.0
  0
ARC
  5
28A
100
AcDbEntity
  8
0
100
AcDbCircle
 62
7
  6
CONTINUOUS
 10
211.0819773293
 20
146.1722369459
 40
2.745
100
AcDbArc
 50
90.0
 51
270.0
  0
ARC
  5
28B
100
AcDbEntity
  8
0
100
AcDbCircle
 62
7
  6
CONTINUOUS
 10
218.5919773293
 20
146.1722369459
 40
2.745
100
AcDbArc
 50
270.0
 51
90.0
  0
ARC
  5
28C
100
AcDbEntity
  8
RUNDUNGEN
100
AcDbCircle
 62
7
  6
CONTINUOUS
 10
191.3802684067
 20
199.4430600171
 40
2.7292077121
100
AcDbArc
 50
94.1627557295
 51
101.3524018336
  0
ARC
  5
28D
100
AcDbEntity
  8
RUNDUNGEN
100
AcDbCircle
 62
7
  6
CONTINUOUS
 10
191.3909865784
 20
199.4446318435
 40
2.727626257
100
AcDbArc
 50
94.6685490562
 51
102.533772978
  0
ARC
  5
28E
100
AcDbEntity
  8
RUNDUNGEN
100
AcDbCircle
 62
7
  6
CONTINUOUS
 10
191.3789987156
 20
199.4497645674
 40
2.7223844074
100
AcDbArc
 50
101.3539780573
 51
103.4670116631
  0
ARC
  5
28F
100
AcDbEntity
  8
RUNDUNGEN
100
AcDbCircle
 62
7
  6
CONTINUOUS
 10
191.3901864751
 20
199.4569447056
 40
2.7152922899
100
AcDbArc
 50
90.0109504073
 51
94.6708302253
  0
ARC
  5
290
100
AcDbEntity
  8
RUNDUNGEN
100
AcDbCircle
 62
7
  6
CONTINUOUS
 10
191.3792679014
 20
199.4581845302
 40
2.714052459
100
AcDbArc
 50
90.0102385487
 51
94.1641430984
  0
CIRCLE
  5
291
100
AcDbEntity
  8
02___PRT_ALL_AXES
100
AcDbCircle
 62
7
  6
CONTINUOUS
 10
193.8369773293
 20
146.1722369459
 40
2.695
  0
ARC
  5
292
100
AcDbEntity
  8
RUNDUNGEN
100
AcDbCircle
 62
7
  6
CONTINUOUS
 10
222.7351233607
 20
149.9197198823
 40
2.271710704
100
AcDbArc
 50
67.4733050056
 51
71.5249032146
  0
ARC
  5
293
100
AcDbEntity
  8
RUNDUNGEN
100
AcDbCircle
 62
7
  6
CONTINUOUS
 10
222.7752514778
 20
150.1706289356
 40
2.2000616345
100
AcDbArc
 50
67.4080705528
 51
90.0019737745
  0
ARC
  5
294
100
AcDbEntity
  8
RUNDUNGEN
100
AcDbCircle
 62
7
  6
CONTINUOUS
 10
222.8362288741
 20
150.1721840052
 40
2.0007484559
100
AcDbArc
 50
0.0015160738
 51
12.2487476537
  0
ARC
  5
295
100
AcDbEntity
  8
RUNDUNGEN
100
AcDbCircle
 62
7
  6
CONTINUOUS
 10
222.8369248079
 20
142.1725685527
 40
2.0003316075
100
AcDbArc
 50
270.0015043766
 51
287.9984956234
  0
ARC
  5
296
100
AcDbEntity
  8
RUNDUNGEN
100
AcDbCircle
 62
7
  6
CONTINUOUS
 10
187.8369773293
 20
142.1722369459
 40
2.0
100
AcDbArc
 50
180.0
 51
270.0
  0
ARC
  5
297
100
AcDbEntity
  8
RUNDUNGEN
100
AcDbCircle
 62
7
  6
CONTINUOUS
 10
187.8369773293
 20
150.1722369459
 40
2.0
100
AcDbArc
 50
90.0
 51
180.0
  0
ARC
  5
298
100
AcDbEntity
  8
RUNDUNGEN
100
AcDbCircle
 62
7
  6
CONTINUOUS
 10
222.8374998389
 20
150.1754424426
 40
1.9967521603
100
AcDbArc
 50
72.0001491773
 51
89.9978683444
  0
ARC
  5
299
100
AcDbEntity
  8
RUNDUNGEN
100
AcDbCircle
 62
7
  6
CONTINUOUS
 10
222.8136845976
 20
150.4684088891
 40
1.9119972138
100
AcDbArc
 50
56.4664983178
 51
65.0426711029
  0
ARC
  5
29A
100
AcDbEntity
  8
RUNDUNGEN
100
AcDbCircle
 62
7
  6
CONTINUOUS
 10
-752.2227934837
 20
-185.1631359949
 40
864.6171851444
100
AcDbArc
 50
17.9980468426
 51
18.2527272833
  0
ARC
  5
29B
100
AcDbEntity
  8
RUNDUNGEN
100
AcDbCircle
 62
7
  6
CONTINUOUS
 10
895.1790968243
 20
348.7814106747
 40
863.7029576961
100
AcDbArc
 50
197.6881193192
 51
198.0011080323
  0
ARC
  5
29C
100
AcDbEntity
  8
RUNDUNGEN
100
AcDbCircle
 62
7
  6
CONTINUOUS
 10
-705.2381152006
 20
-178.2932264422
 40
817.6478946765
100
AcDbArc
 50
18.5574956133
 51
18.8189881098
  0
ARC
  5
29D
100
AcDbEntity
  8
RUNDUNGEN
100
AcDbCircle
 62
7
  6
CONTINUOUS
 10
844.1936719654
 20
340.5617343108
 40
812.5118641351
100
AcDbArc
 50
198.2122045052
 51
198.5609707281
  0
ARC
  5
29E
100
AcDbEntity
  8
RUNDUNGEN
100
AcDbCircle
 62
7
  6
CONTINUOUS
 10
95.4034160365
 20
73.3203789684
 40
2.9636177841
100
AcDbArc
 50
344.0764703257
 51
349.1676586929
  0
ARC
  5
29F
100
AcDbEntity
  8
RUNDUNGEN
100
AcDbCircle
 62
7
  6
CONTINUOUS
 10
81.4229914341
 20
52.9863367019
 40
2.0469008487
100
AcDbArc
 50
259.6511795097
 51
275.8001929462
  0
ARC
  5
2A0
100
AcDbEntity
  8
0
100
AcDbCircle
 62
7
  6
CONTINUOUS
 10
80.237578125
 20
69.9284348858
 40
2.0
100
AcDbArc
 50
195.0
 51
270.0
  0
ARC
  5
2A1
100
AcDbEntity
  8
0
100
AcDbCircle
 62
7
  6
CONTINUOUS
 10
90.897578125
 20
69.9284348858
 40
2.0
100
AcDbArc
 50
270.0
 51
340.5
  0
ARC
  5
2A2
100
AcDbEntity
  8
RUNDUNGEN
100
AcDbCircle
 62
7
  6
CONTINUOUS
 10
90.6626919416
 20
52.9284348858
 40
2.0
100
AcDbArc
 50
270.0
 51
344.0
  0
ARC
  5
2A3
100
AcDbEntity
  8
RUNDUNGEN
100
AcDbCircle
 62
7
  6
CONTINUOUS
 10
81.3426919416
 20
52.9284348858
 40
2.0
100
AcDbArc
 50
198.0
 51
270.0
  0
ARC
  5
2A4
100
AcDbEntity
  8
RUNDUNGEN
100
AcDbCircle
 62
7
  6
CONTINUOUS
 10
100.272051409
 20
71.928435115
 40
1.9999993547
100
AcDbArc
 50
89.9999652984
 51
164.0000306393
  0
ARC
  5
2A5
100
AcDbEntity
  8
RUNDUNGEN
100
AcDbCircle
 62
7
  6
CONTINUOUS
 10
81.4196940829
 20
52.6781558771
 40
1.9291540571
100
AcDbArc
 50
7.4558414288
 51
17.9690795539
  0
ARC
  5
2A6
100
AcDbEntity
  8
RUNDUNGEN
100
AcDbCircle
 62
7
  6
CONTINUOUS
 10
70.6116041547
 20
86.0345967269
 40
1.8673757524
100
AcDbArc
 50
23.3644606231
 51
29.9432267372
  0
ARC
  5
2A7
100
AcDbEntity
  8
RUNDUNGEN
100
AcDbCircle
 62
7
  6
CONTINUOUS
 10
70.4356733472
 20
86.0536881974
 40
1.8331104851
100
AcDbArc
 50
184.1602076559
 51
198.7933047777
  0
ARC
  5
2A8
100
AcDbEntity
  8
RUNDUNGEN
100
AcDbCircle
 62
7
  6
CONTINUOUS
 10
70.6527996276
 20
86.052185918
 40
1.8225827896
100
AcDbArc
 50
18.2018961513
 51
23.3704445659
  0
ARC
  5
2A9
100
AcDbEntity
  8
RUNDUNGEN
100
AcDbCircle
 62
7
  6
CONTINUOUS
 10
70.5415309816
 20
86.1895405671
 40
1.7390064669
100
AcDbArc
 50
90.0251634439
 51
198.323671329
  0
ARC
  5
2AA
100
AcDbEntity
  8
RUNDUNGEN
100
AcDbCircle
 62
7
  6
CONTINUOUS
 10
81.4354923271
 20
52.6760129063
 40
1.7365866152
100
AcDbArc
 50
197.8058901084
 51
257.2838285874
  0
ARC
  5
2AB
100
AcDbEntity
  8
RUNDUNGEN
100
AcDbCircle
 62
7
  6
CONTINUOUS
 10
81.4177889929
 20
52.677712724
 40
1.7311089655
100
AcDbArc
 50
7.459444393
 51
17.960170337
  0
ARC
  5
2AC
100
AcDbEntity
  8
RUNDUNGEN
100
AcDbCircle
 62
7
  6
CONTINUOUS
 10
81.1401360867
 20
52.7079696127
 40
1.6423654151
100
AcDbArc
 50
199.4898867421
 51
202.7012827635
  0
ARC
  5
2AD
100
AcDbEntity
  8
RUNDUNGEN
100
AcDbCircle
 62
7
  6
CONTINUOUS
 10
81.42415082
 20
52.6822784853
 40
1.0365258391
100
AcDbArc
 50
269.3686560271
 51
272.514398296
  0
ARC
  5
2AE
100
AcDbEntity
  8
RUNDUNGEN
100
AcDbCircle
 62
7
  6
CONTINUOUS
 10
81.4237482115
 20
52.6778600006
 40
1.0323538918
100
AcDbArc
 50
293.5349325897
 51
18.0273670502
  0
ARC
  5
2AF
100
AcDbEntity
  8
RUNDUNGEN
100
AcDbCircle
 62
7
  6
CONTINUOUS
 10
81.4243307785
 20
52.6780263151
 40
1.0322912599
100
AcDbArc
 50
197.9714183079
 51
269.3560675659
  0
ARC
  5
2B0
100
AcDbEntity
  8
RUNDUNGEN
100
AcDbCircle
 62
7
  6
CONTINUOUS
 10
70.539088588
 20
86.1785848615
 40
1.0206502985
100
AcDbArc
 50
17.990452717
 51
198.004539286
  0
ARC
  5
2B1
100
AcDbEntity
  8
RUNDUNGEN
100
AcDbCircle
 62
7
  6
CONTINUOUS
 10
104.267578125
 20
88.9284348858
 40
1.0
100
AcDbArc
 50
0.0
 51
90.0
  0
ARC
  5
2B2
100
AcDbEntity
  8
RUNDUNGEN
100
AcDbCircle
 62
7
  6
CONTINUOUS
 10
104.267578125
 20
74.9284428157
 40
1.0
100
AcDbArc
 50
270.0
 51
359.9995456479
  0
ARC
  5
2B3
100
AcDbEntity
  8
RUNDUNGEN
100
AcDbCircle
 62
7
  6
CONTINUOUS
 10
71.0400719115
 20
74.9284350098
 40
0.9999999787
100
AcDbArc
 50
17.9999977149
 51
89.9999991852
  0
LINE
  5
2B4
100
AcDbEntity
  8
RUNDUNGEN
100
AcDbLine
 62
7
  6
CONTINUOUS
 10
90.6626919416
 20
142.1722369459
 11
92.5852153335
 21
140.3458397236
  0
LINE
  5
2B5
100
AcDbEntity
  8
RUNDUNGEN
100
AcDbLine
 62
7
  6
CONTINUOUS
 10
92.5852153335
 20
151.9986341682
 11
90.6626919416
 21
150.1722369459
  0
SPLINE
  5
2B6
100
AcDbEntity
  8
RUNDUNGEN
100
AcDbSpline
 62
7
  6
CONTINUOUS
 70
0
 71
3
 72
14
 73
10
 74
0
 42
0.0000001
 43
0.0000001
 44
0.0000000001
 40
0.0
 40
0.0
 40
0.0
 40
0.0
 40
0.0768246113
 40
0.1779578928
 40
0.2960695582
 40
0.425843903
 40
0.7064103367
 40
0.8524587179
 40
1.0
 40
1.0
 40
1.0
 40
1.0
 10
79.440578909
 20
140.2701239133
 30
0.0
 10
79.4885631812
 20
140.3195483912
 30
0.0
 10
79.6025975344
 20
140.4311952432
 30
0.0
 10
79.7896627943
 20
140.6195596424
 30
0.0
 10
80.0111912875
 20
140.8406169404
 30
0.0
 10
80.3461378438
 20
141.1757866652
 30
0.0
 10
80.6990496334
 20
141.5284191835
 30
0.0
 10
81.0628431749
 20
141.8926978306
 30
0.0
 10
81.2494948509
 20
142.0783418747
 30
0.0
 10
81.3426919416
 20
142.1722369459
 30
0.0
  0
SPLINE
  5
2B7
100
AcDbEntity
  8
RUNDUNGEN
100
AcDbSpline
 62
7
  6
CONTINUOUS
 70
0
 71
3
 72
14
 73
10
 74
0
 42
0.0000001
 43
0.0000001
 44
0.0000000001
 40
0.0
 40
0.0
 40
0.0
 40
0.0
 40
0.1475410245
 40
0.2935890242
 40
0.5741547998
 40
0.70392904
 40
0.8220413343
 40
0.9231747886
 40
1.0
 40
1.0
 40
1.0
 40
1.0
 10
81.3426919416
 20
150.1722369459
 30
0.0
 10
81.2494936455
 20
150.2661304952
 30
0.0
 10
81.0628437941
 20
150.4517755386
 30
0.0
 10
80.6990512932
 20
150.816053589
 30
0.0
 10
80.3461404764
 20
151.1686856237
 30
0.0
 10
80.0111928303
 20
151.5038540942
 30
0.0
 10
79.7896658939
 20
151.7249138209
 30
0.0
 10
79.6025963052
 20
151.9132757041
 30
0.0
 10
79.4885650058
 20
152.0249265221
 30
0.0
 10
79.440578909
 20
152.0743499785
 30
0.0
  0
LINE
  5
2B8
100
AcDbEntity
  8
RUNDUNGEN
100
AcDbLine
 62
7
  6
CONTINUOUS
 10
100.2720531241
 20
142.1722023367
 11
104.267578125
 21
142.172433452
  0
SPLINE
  5
2B9
100
AcDbEntity
  8
RUNDUNGEN
100
AcDbSpline
 62
7
  6
CONTINUOUS
 70
0
 71
3
 72
9
 73
5
 74
0
 42
0.0000001
 43
0.0000001
 44
0.0000000001
 40
0.0
 40
0.0
 40
0.0
 40
0.0
 40
0.4584486115
 40
1.0
 40
1.0
 40
1.0
 40
1.0
 10
79.2397674932
 20
140.1722369459
 30
0.0
 10
79.274591611
 20
140.1722369459
 30
0.0
 10
79.3510107893
 20
140.1925928816
 30
0.0
 10
79.4114908905
 20
140.2410358948
 30
0.0
 10
79.440578909
 20
140.2701239133
 30
0.0
  0
SPLINE
  5
2BA
100
AcDbEntity
  8
RUNDUNGEN
100
AcDbSpline
 62
7
  6
CONTINUOUS
 70
0
 71
3
 72
9
 73
5
 74
0
 42
0.0000001
 43
0.0000001
 44
0.0000000001
 40
0.0
 40
0.0
 40
0.0
 40
0.0
 40
0.2796502044
 40
1.0
 40
1.0
 40
1.0
 40
1.0
 10
79.440578909
 20
152.0743499785
 30
0.0
 10
79.4290118621
 20
152.0859170254
 30
0.0
 10
79.3858869028
 20
152.1252384904
 30
0.0
 10
79.3329764794
 20
152.155576109
 30
0.0
 10
79.2920837514
 20
152.1657412157
 30
0.0
  0
SPLINE
  5
2BB
100
AcDbEntity
  8
RUNDUNGEN
100
AcDbSpline
 62
7
  6
CONTINUOUS
 70
0
 71
3
 72
8
 73
4
 74
0
 42
0.0000001
 43
0.0000001
 44
0.0000000001
 40
0.0
 40
0.0
 40
0.0
 40
0.0
 40
1.0
 40
1.0
 40
1.0
 40
1.0
 10
79.2920837514
 20
152.1657412157
 30
0.0
 10
79.2750300838
 20
152.1699804132
 30
0.0
 10
79.2573401531
 20
152.1722369459
 30
0.0
 10
79.2397674932
 20
152.1722369459
 30
0.0
  0
SPLINE
  5
2BC
100
AcDbEntity
  8
RUNDUNGEN
100
AcDbSpline
 62
7
  6
CONTINUOUS
 70
0
 71
3
 72
13
 73
9
 74
0
 42
0.0000001
 43
0.0000001
 44
0.0000000001
 40
0.0
 40
0.0
 40
0.0
 40
0.0
 40
0.0901067855
 40
0.1926177534
 40
0.3068240647
 40
0.4315714755
 40
0.7060675369
 40
1.0
 40
1.0
 40
1.0
 40
1.0
 10
70.887825912
 20
152.1722369459
 30
0.0
 10
70.975734217
 20
152.0097547837
 30
0.0
 10
71.1418924401
 20
151.6505516094
 30
0.0
 10
71.3538870136
 20
151.0576784366
 30
0.0
 10
71.5413286215
 20
150.3825968391
 30
0.0
 10
71.7604794319
 20
149.3524463239
 30
0.0
 10
71.9428222804
 20
147.9406095894
 30
0.0
 10
71.9911339543
 20
146.7746815682
 30
0.0
 10
71.9911284401
 20
146.1720560303
 30
0.0
  0
SPLINE
  5
2BD
100
AcDbEntity
  8
RUNDUNGEN
100
AcDbSpline
 62
7
  6
CONTINUOUS
 70
0
 71
3
 72
13
 73
9
 74
0
 42
0.0000001
 43
0.0000001
 44
0.0000000001
 40
0.0
 40
0.0
 40
0.0
 40
0.0
 40
0.2939335642
 40
0.5684287659
 40
0.6931756479
 40
0.8073816491
 40
0.9098926801
 40
1.0
 40
1.0
 40
1.0
 40
1.0
 10
71.9911284401
 20
146.1720560303
 30
0.0
 10
71.9911238508
 20
145.569463663
 30
0.0
 10
71.9427980003
 20
144.4036045219
 30
0.0
 10
71.7604491176
 20
142.9918536709
 30
0.0
 10
71.5413016033
 20
141.9617693438
 30
0.0
 10
71.3538657336
 20
141.2867305841
 30
0.0
 10
71.1418796523
 20
140.6938930935
 30
0.0
 10
70.9757295712
 20
140.3347105188
 30
0.0
 10
70.887825912
 20
140.1722369459
 30
0.0
  0
LINE
  5
2BE
100
AcDbEntity
  8
RUNDUNGEN
100
AcDbLine
 62
7
  6
CONTINUOUS
 10
104.267578125
 20
150.1720403044
 11
100.2720530861
 21
150.1722716204
  0
SPLINE
  5
2BF
100
AcDbEntity
  8
RUNDUNGEN
100
AcDbSpline
 62
7
  6
CONTINUOUS
 70
0
 71
3
 72
9
 73
5
 74
0
 42
0.0000001
 43
0.0000001
 44
0.0000000001
 40
0.0
 40
0.0
 40
0.0
 40
0.0
 40
0.5467330299
 40
1.0
 40
1.0
 40
1.0
 40
1.0
 10
92.4890891639
 20
140.249713554
 30
0.0
 10
92.5107522178
 20
140.2269102845
 30
0.0
 10
92.5553736584
 20
140.1887925585
 30
0.0
 10
92.6131850652
 20
140.1722368628
 30
0.0
 10
92.6392608698
 20
140.1722369459
 30
0.0
  0
LINE
  5
2C0
100
AcDbEntity
  8
RUNDUNGEN
100
AcDbLine
 62
7
  6
CONTINUOUS
 10
90.6626919416
 20
142.1722369459
 11
92.4890891639
 21
140.249713554
  0
SPLINE
  5
2C1
100
AcDbEntity
  8
RUNDUNGEN
100
AcDbSpline
 62
7
  6
CONTINUOUS
 70
0
 71
3
 72
38
 73
34
 74
0
 42
0.0000001
 43
0.0000001
 44
0.0000000001
 40
0.0
 40
0.0
 40
0.0
 40
0.0
 40
0.0451000114
 40
0.1023295127
 40
0.1675855228
 40
0.2380812757
 40
0.2747098053
 40
0.3120183833
 40
0.3498592877
 40
0.388107932
 40
0.4073513046
 40
0.426656753
 40
0.4460100166
 40
0.4653815148
 40
0.4846812262
 40
0.5040060495
 40
0.5233809446
 40
0.5427279504
 40
0.5620247198
 40
0.5812576065
 40
0.6194776917
 40
0.6572745572
 40
0.6945224282
 40
0.76677471
 40
0.8346940955
 40
0.895982049
 40
0.9231388973
 40
0.9472289576
 40
0.9675809442
 40
0.9834914845
 40
0.9943321069
 40
0.9977537854
 40
1.0
 40
1.0
 40
1.0
 40
1.0
 10
79.5918775586
 20
152.0187263895
 30
0.0
 10
79.6418061636
 20
151.9599977741
 30
0.0
 10
79.761034861
 20
151.831886436
 30
0.0
 10
79.9611961232
 20
151.6270272532
 30
0.0
 10
80.1959182759
 20
151.395265458
 30
0.0
 10
80.4071005252
 20
151.1898193308
 30
0.0
 10
80.585713949
 20
151.0194113397
 30
0.0
 10
80.7248863598
 20
150.8885245159
 30
0.0
 10
80.8671969635
 20
150.7569457569
 30
0.0
 10
80.988357367
 20
150.6479706143
 30
0.0
 10
81.088102475
 20
150.5626353987
 30
0.0
 10
81.1651344024
 20
150.5004598131
 30
0.0
 10
81.2458013754
 20
150.4426230225
 30
0.0
 10
81.3326572715
 20
150.3938894276
 30
0.0
 10
81.433031184
 20
150.3732392554
 30
0.0
 10
81.5306602186
 20
150.4026394313
 30
0.0
 10
81.6159953668
 20
150.4534029743
 30
0.0
 10
81.696174766
 20
150.5119466675
 30
0.0
 10
81.7730921303
 20
150.5741610331
 30
0.0
 10
81.8728336714
 20
150.6593829947
 30
0.0
 10
81.9939486073
 20
150.7681959242
 30
0.0
 10
82.1357353518
 20
150.9000087902
 30
0.0
 10
82.3185585864
 20
151.073092323
 30
0.0
 10
82.537278548
 20
151.2831372099
 30
0.0
 10
82.7833389694
 20
151.5240188209
 30
0.0
 10
82.9716076623
 20
151.7137113414
 30
0.0
 10
83.1051233266
 20
151.8521857844
 30
0.0
 10
83.1885232736
 20
151.9417144553
 30
0.0
 10
83.2569548302
 20
152.0190311404
 30
0.0
 10
83.3074334072
 20
152.0815422815
 30
0.0
 10
83.3370870365
 20
152.1243105221
 30
0.0
 10
83.3482493135
 20
152.1501244184
 30
0.0
 10
83.3493550101
 20
152.1603100159
 30
0.0
 10
83.3481692503
 20
152.1639614859
 30
0.0
  0
SPLINE
  5
2C2
100
AcDbEntity
  8
RUNDUNGEN
100
AcDbSpline
 62
7
  6
CONTINUOUS
 70
0
 71
3
 72
9
 73
5
 74
0
 42
0.0000001
 43
0.0000001
 44
0.0000000001
 40
0.0
 40
0.0
 40
0.0
 40
0.0
 40
0.4532669957
 40
1.0
 40
1.0
 40
1.0
 40
1.0
 10
92.6392608698
 20
152.1722369459
 30
0.0
 10
92.6131850636
 20
152.172237214
 30
0.0
 10
92.5553736279
 20
152.1556812511
 30
0.0
 10
92.5107522816
 20
152.1175635449
 30
0.0
 10
92.4890891639
 20
152.0947603378
 30
0.0
  0
LINE
  5
2C3
100
AcDbEntity
  8
RUNDUNGEN
100
AcDbLine
 62
7
  6
CONTINUOUS
 10
92.4890891639
 20
152.0947603378
 11
90.6626919416
 21
150.1722369459
  0
SPLINE
  5
2C4
100
AcDbEntity
  8
RUNDUNGEN
100
AcDbSpline
 62
7
  6
CONTINUOUS
 70
0
 71
3
 72
9
 73
5
 74
0
 42
0.0000001
 43
0.0000001
 44
0.0000000001
 40
0.0
 40
0.0
 40
0.0
 40
0.0
 40
0.4503441502
 40
1.0
 40
1.0
 40
1.0
 40
1.0
 10
79.3185841246
 20
152.1722369459
 30
0.0
 10
79.3667850714
 20
152.1722364214
 30
0.0
 10
79.4743297143
 20
152.1388646115
 30
0.0
 10
79.5537702836
 20
152.0635466202
 30
0.0
 10
79.5918775586
 20
152.0187263895
 30
0.0
  0
SPLINE
  5
2C5
100
AcDbEntity
  8
RUNDUNGEN
100
AcDbSpline
 62
7
  6
CONTINUOUS
 70
0
 71
3
 72
19
 73
15
 74
0
 42
0.0000001
 43
0.0000001
 44
0.0000000001
 40
0.0
 40
0.0
 40
0.0
 40
0.0
 40
0.0740302233
 40
0.1477652661
 40
0.2209693495
 40
0.2936063148
 40
0.4370056733
 40
0.5772962137
 40
0.7123830373
 40
0.8370063054
 40
0.8918762751
 40
0.9386582574
 40
0.9749399323
 40
1.0
 40
1.0
 40
1.0
 40
1.0
 10
100.2720530861
 20
150.1722715672
 30
0.0
 10
100.2035196913
 20
150.1722688602
 30
0.0
 10
100.0662148154
 20
150.2017066045
 30
0.0
 10
99.8860355556
 20
150.3016150159
 30
0.0
 10
99.7275657677
 20
150.429958328
 30
0.0
 10
99.5393430012
 20
150.6208723463
 30
0.0
 10
99.3335840029
 20
150.8795378218
 30
0.0
 10
99.1114908453
 20
151.1973187296
 30
0.0
 10
98.9046295571
 20
151.5043490936
 30
0.0
 10
98.7353411632
 20
151.7417319874
 30
0.0
 10
98.6000774749
 20
151.9017435661
 30
0.0
 10
98.508605315
 20
151.9916431625
 30
0.0
 10
98.4280525598
 20
152.0506820242
 30
0.0
 10
98.3727276716
 20
152.0721466853
 30
0.0
 10
98.3495283425
 20
152.0721470657
 30
0.0
  0
SPLINE
  5
2C6
100
AcDbEntity
  8
RUNDUNGEN
100
AcDbSpline
 62
7
  6
CONTINUOUS
 70
0
 71
3
 72
9
 73
5
 74
0
 42
0.0000001
 43
0.0000001
 44
0.0000000001
 40
0.0
 40
0.0
 40
0.0
 40
0.0
 40
0.7344476217
 40
1.0
 40
1.0
 40
1.0
 40
1.0
 10
98.3495283503
 20
140.2723269862
 30
0.0
 10
98.355517883
 20
140.2723270958
 30
0.0
 10
98.3636871456
 20
140.2732240966
 30
0.0
 10
98.3716578161
 20
140.2749409528
 30
0.0
 10
98.3737632648
 20
140.2754479015
 30
0.0
  0
SPLINE
  5
2C7
100
AcDbEntity
  8
RUNDUNGEN
100
AcDbSpline
 62
7
  6
CONTINUOUS
 70
0
 71
3
 72
9
 73
5
 74
0
 42
0.0000001
 43
0.0000001
 44
0.0000000001
 40
0.0
 40
0.0
 40
0.0
 40
0.0
 40
0.2276458686
 40
1.0
 40
1.0
 40
1.0
 40
1.0
 10
98.3737632648
 20
140.2754479015
 30
0.0
 10
98.3771474357
 20
140.2762627401
 30
0.0
 10
98.3918741549
 20
140.2804221075
 30
0.0
 10
98.4059768568
 20
140.2865873088
 30
0.0
 10
98.4164944945
 20
140.2919588356
 30
0.0
  0
SPLINE
  5
2C8
100
AcDbEntity
  8
RUNDUNGEN
100
AcDbSpline
 62
7
  6
CONTINUOUS
 70
0
 71
3
 72
18
 73
14
 74
0
 42
0.0000001
 43
0.0000001
 44
0.0000000001
 40
0.0
 40
0.0
 40
0.0
 40
0.0
 40
0.0345794576
 40
0.0787341791
 40
0.1875746559
 40
0.3118145598
 40
0.4434491871
 40
0.5791139224
 40
0.7173742981
 40
0.7873365124
 40
0.8578127147
 40
0.9287700491
 40
1.0
 40
1.0
 40
1.0
 40
1.0
 10
98.4164944945
 20
140.2919588356
 30
0.0
 10
98.4442887157
 20
140.3061537916
 30
0.0
 10
98.5025302419
 20
140.3479780108
 30
0.0
 10
98.6246426991
 20
140.4654806912
 30
0.0
 10
98.7800182619
 20
140.6627095178
 30
0.0
 10
98.9675425683
 20
140.9330317411
 30
0.0
 10
99.1652899668
 20
141.225987424
 30
0.0
 10
99.378013003
 20
141.5238717669
 30
0.0
 10
99.575642588
 20
141.7640925923
 30
0.0
 10
99.7561982892
 20
141.9396973781
 30
0.0
 10
99.9077155027
 20
142.0566749818
 30
0.0
 10
100.0789355834
 20
142.1463836714
 30
0.0
 10
100.2077654958
 20
142.1722043799
 30
0.0
 10
100.2720531241
 20
142.1722023917
 30
0.0
  0
SPLINE
  5
2C9
100
AcDbEntity
  8
RUNDUNGEN
100
AcDbSpline
 62
7
  6
CONTINUOUS
 70
0
 71
3
 72
17
 73
13
 74
0
 42
0.0000001
 43
0.0000001
 44
0.0000000001
 40
0.0
 40
0.0
 40
0.0
 40
0.0
 40
0.0318640552
 40
0.0654033095
 40
0.1020370623
 40
0.1428118369
 40
0.2391037246
 40
0.3569186781
 40
0.495643752
 40
0.6524611324
 40
0.8226615715
 40
1.0
 40
1.0
 40
1.0
 40
1.0
 10
68.7656341076
 20
152.1722369459
 30
0.0
 10
68.838148768
 20
152.1722370052
 30
0.0
 10
68.9875880441
 20
152.1530021088
 30
0.0
 10
69.2057884332
 20
152.0682388503
 30
0.0
 10
69.418513654
 20
151.9294228371
 30
0.0
 10
69.7090947903
 20
151.6592114894
 30
0.0
 10
70.0442208126
 20
151.1788177506
 30
0.0
 10
70.3816791437
 20
150.4476602885
 30
0.0
 10
70.6636932982
 20
149.5479441039
 30
0.0
 10
70.8768993548
 20
148.5082025722
 30
0.0
 10
71.0100773679
 20
147.366924825
 30
0.0
 10
71.0400760689
 20
146.5756609108
 30
0.0
 10
71.0400719257
 20
146.1720827773
 30
0.0
  0
SPLINE
  5
2CA
100
AcDbEntity
  8
RUNDUNGEN
100
AcDbSpline
 62
7
  6
CONTINUOUS
 70
0
 71
3
 72
9
 73
5
 74
0
 42
0.0000001
 43
0.0000001
 44
0.0000000001
 40
0.0
 40
0.0
 40
0.0
 40
0.0
 40
0.4999999897
 40
1.0
 40
1.0
 40
1.0
 40
1.0
 10
92.5852097207
 20
151.998634168
 30
0.0
 10
92.5833824374
 20
152.0226710489
 30
0.0
 10
92.5609843576
 20
152.0705294512
 30
0.0
 10
92.5131260432
 20
152.0929279659
 30
0.0
 10
92.4890891637
 20
152.0947552806
 30
0.0
  0
SPLINE
  5
2CB
100
AcDbEntity
  8
RUNDUNGEN
100
AcDbSpline
 62
7
  6
CONTINUOUS
 70
0
 71
3
 72
9
 73
5
 74
0
 42
0.0000001
 43
0.0000001
 44
0.0000000001
 40
0.0
 40
0.0
 40
0.0
 40
0.0
 40
0.5069819248
 40
1.0
 40
1.0
 40
1.0
 40
1.0
 10
92.7353870394
 20
152.0722369459
 30
0.0
 10
92.7353870093
 20
152.097606828
 30
0.0
 10
92.7158060245
 20
152.1499340674
 30
0.0
 10
92.6639319868
 20
152.1722368195
 30
0.0
 10
92.6392608698
 20
152.1722368195
 30
0.0
  0
SPLINE
  5
2CC
100
AcDbEntity
  8
RUNDUNGEN
100
AcDbSpline
 62
7
  6
CONTINUOUS
 70
0
 71
3
 72
9
 73
5
 74
0
 42
0.0000001
 43
0.0000001
 44
0.0000000001
 40
0.0
 40
0.0
 40
0.0
 40
0.0
 40
0.5069819276
 40
1.0
 40
1.0
 40
1.0
 40
1.0
 10
98.3495286226
 20
152.072147027
 30
0.0
 10
98.3495286226
 20
152.0975397413
 30
0.0
 10
98.3299300621
 20
152.1499141001
 30
0.0
 10
98.2780093376
 20
152.1722369459
 30
0.0
 10
98.2533160175
 20
152.1722369459
 30
0.0
  0
SPLINE
  5
2CD
100
AcDbEntity
  8
RUNDUNGEN
100
AcDbSpline
 62
7
  6
CONTINUOUS
 70
0
 71
3
 72
9
 73
5
 74
0
 42
0.0000001
 43
0.0000001
 44
0.0000000001
 40
0.0
 40
0.0
 40
0.0
 40
0.0
 40
0.506981842
 40
1.0
 40
1.0
 40
1.0
 40
1.0
 10
98.3495286226
 20
140.2723270238
 30
0.0
 10
98.3495286348
 20
140.2469342716
 30
0.0
 10
98.3299300493
 20
140.1945598133
 30
0.0
 10
98.2780092301
 20
140.1722369459
 30
0.0
 10
98.2533158646
 20
140.1722369459
 30
0.0
  0
SPLINE
  5
2CE
100
AcDbEntity
  8
RUNDUNGEN
100
AcDbSpline
 62
7
  6
CONTINUOUS
 70
0
 71
3
 72
9
 73
5
 74
0
 42
0.0000001
 43
0.0000001
 44
0.0000000001
 40
0.0
 40
0.0
 40
0.0
 40
0.0
 40
0.5069819274
 40
1.0
 40
1.0
 40
1.0
 40
1.0
 10
92.7353870394
 20
140.2722369459
 30
0.0
 10
92.7353870394
 20
140.246867044
 30
0.0
 10
92.7158060858
 20
140.1945397373
 30
0.0
 10
92.6639320059
 20
140.1722369459
 30
0.0
 10
92.6392608698
 20
140.1722369459
 30
0.0
  0
SPLINE
  5
2CF
100
AcDbEntity
  8
RUNDUNGEN
100
AcDbSpline
 62
7
  6
CONTINUOUS
 70
0
 71
3
 72
9
 73
5
 74
0
 42
0.0000001
 43
0.0000001
 44
0.0000000001
 40
0.0
 40
0.0
 40
0.0
 40
0.0
 40
0.5000000131
 40
1.0
 40
1.0
 40
1.0
 40
1.0
 10
92.5852153335
 20
140.3458397236
 30
0.0
 10
92.5833889643
 20
140.3218012605
 30
0.0
 10
92.5609899715
 20
140.2739389398
 30
0.0
 10
92.5131276278
 20
140.2515399947
 30
0.0
 10
92.4890891639
 20
140.2497136513
 30
0.0
  0
SPLINE
  5
2D0
100
AcDbEntity
  8
RUNDUNGEN
100
AcDbSpline
 62
7
  6
CONTINUOUS
 70
0
 71
3
 72
9
 73
5
 74
0
 42
0.0000001
 43
0.0000001
 44
0.0000000001
 40
0.0
 40
0.0
 40
0.0
 40
0.0
 40
0.4595623964
 40
1.0
 40
1.0
 40
1.0
 40
1.0
 10
69.5254983924
 20
199.9362409053
 30
0.0
 10
69.5238512573
 20
199.9203417943
 30
0.0
 10
69.5295059888
 20
199.8845997415
 30
0.0
 10
69.548468698
 20
199.854642134
 30
0.0
 10
69.5602207527
 20
199.8399716807
 30
0.0
  0
SPLINE
  5
2D1
100
AcDbEntity
  8
RUNDUNGEN
100
AcDbSpline
 62
7
  6
CONTINUOUS
 70
0
 71
3
 72
9
 73
5
 74
0
 42
0.0000001
 43
0.0000001
 44
0.0000000001
 40
0.0
 40
0.0
 40
0.0
 40
0.0
 40
0.2850976981
 40
1.0
 40
1.0
 40
1.0
 40
1.0
 10
92.5852153335
 20
140.3458397236
 30
0.0
 10
92.5953811825
 20
140.3356738205
 30
0.0
 10
92.6326652329
 20
140.3020153511
 30
0.0
 10
92.6805818333
 20
140.2777546318
 30
0.0
 10
92.7163679012
 20
140.2733951742
 30
0.0
  0
LINE
  5
2D2
100
AcDbEntity
  8
RUNDUNGEN
100
AcDbLine
 62
7
  6
CONTINUOUS
 10
92.7353870394
 20
140.2722369459
 11
98.2533148857
 21
140.2723269453
  0
LINE
  5
2D3
100
AcDbEntity
  8
RUNDUNGEN
100
AcDbLine
 62
7
  6
CONTINUOUS
 10
98.2533148857
 20
140.2723269453
 11
98.3495283503
 21
140.2723270238
  0
SPLINE
  5
2D4
100
AcDbEntity
  8
RUNDUNGEN
100
AcDbSpline
 62
7
  6
CONTINUOUS
 70
0
 71
3
 72
17
 73
13
 74
0
 42
0.0000001
 43
0.0000001
 44
0.0000000001
 40
0.0
 40
0.0
 40
0.0
 40
0.0
 40
0.1773399805
 40
0.3475405859
 40
0.5043573136
 40
0.6430814521
 40
0.760895614
 40
0.8571871541
 40
0.8979619778
 40
0.9345959352
 40
0.9681355274
 40
1.0
 40
1.0
 40
1.0
 40
1.0
 10
71.0400719257
 20
146.1720827773
 30
0.0
 10
71.0400682182
 20
145.7685193191
 30
0.0
 10
71.0100563828
 20
144.9772877793
 30
0.0
 10
70.8768649113
 20
143.836061374
 30
0.0
 10
70.6636521706
 20
142.7963734051
 30
0.0
 10
70.3816375384
 20
141.8967076295
 30
0.0
 10
70.044183835
 20
141.1655931964
 30
0.0
 10
69.7090655854
 20
140.6852293127
 30
0.0
 10
69.4184930175
 20
140.4150353849
 30
0.0
 10
69.2057741452
 20
140.2762282187
 30
0.0
 10
68.9875806748
 20
140.1914704921
 30
0.0
 10
68.8381464467
 20
140.172236886
 30
0.0
 10
68.7656341079
 20
140.1722369459
 30
0.0
  0
LINE
  5
2D5
100
AcDbEntity
  8
RUNDUNGEN
100
AcDbLine
 62
7
  6
CONTINUOUS
 10
98.3495283425
 20
152.072147027
 11
98.2533150405
 21
152.0721471054
  0
LINE
  5
2D6
100
AcDbEntity
  8
RUNDUNGEN
100
AcDbLine
 62
7
  6
CONTINUOUS
 10
98.2533150405
 20
152.0721471054
 11
92.7353870394
 21
152.0722369459
  0
SPLINE
  5
2D7
100
AcDbEntity
  8
RUNDUNGEN
100
AcDbSpline
 62
7
  6
CONTINUOUS
 70
0
 71
3
 72
9
 73
5
 74
0
 42
0.0000001
 43
0.0000001
 44
0.0000000001
 40
0.0
 40
0.0
 40
0.0
 40
0.0
 40
0.2427547661
 40
1.0
 40
1.0
 40
1.0
 40
1.0
 10
92.7353870394
 20
152.0722369459
 30
0.0
 10
92.7290350018
 20
152.0722370739
 30
0.0
 10
92.7028679978
 20
152.0706552694
 30
0.0
 10
92.677303301
 20
152.0624468462
 30
0.0
 10
92.6595133138
 20
152.0537216842
 30
0.0
  0
SPLINE
  5
2D8
100
AcDbEntity
  8
RUNDUNGEN
100
AcDbSpline
 62
7
  6
CONTINUOUS
 70
0
 71
3
 72
9
 73
5
 74
0
 42
0.0000001
 43
0.0000001
 44
0.0000000001
 40
0.0
 40
0.0
 40
0.0
 40
0.0
 40
0.2310597494
 40
1.0
 40
1.0
 40
1.0
 40
1.0
 10
92.6595133138
 20
152.0537216842
 30
0.0
 10
92.6531003575
 20
152.0505764271
 30
0.0
 10
92.6260411648
 20
152.0355403643
 30
0.0
 10
92.6020234488
 20
152.0154421881
 30
0.0
 10
92.5852153335
 20
151.9986341682
 30
0.0
  0
SPLINE
  5
2D9
100
AcDbEntity
  8
RUNDUNGEN
100
AcDbSpline
 62
7
  6
CONTINUOUS
 70
0
 71
3
 72
9
 73
5
 74
0
 42
0.0000001
 43
0.0000001
 44
0.0000000001
 40
0.0
 40
0.0
 40
0.0
 40
0.0
 40
0.746956365
 40
1.0
 40
1.0
 40
1.0
 40
1.0
 10
79.9088323207
 20
202.1722369459
 30
0.0
 10
79.9430833683
 20
202.17223363
 30
0.0
 10
79.9890758866
 20
202.1680467214
 30
0.0
 10
80.0339634636
 20
202.1586452926
 30
0.0
 10
80.0452490905
 20
202.1559496365
 30
0.0
  0
SPLINE
  5
2DA
100
AcDbEntity
  8
RUNDUNGEN
100
AcDbSpline
 62
7
  6
CONTINUOUS
 70
0
 71
3
 72
9
 73
5
 74
0
 42
0.0000001
 43
0.0000001
 44
0.0000000001
 40
0.0
 40
0.0
 40
0.0
 40
0.0
 40
0.2435664946
 40
1.0
 40
1.0
 40
1.0
 40
1.0
 10
80.0452490905
 20
202.1559496365
 30
0.0
 10
80.0574979161
 20
202.1530239131
 30
0.0
 10
80.1074165181
 20
202.1394799499
 30
0.0
 10
80.1556407401
 20
202.1199175429
 30
0.0
 10
80.1906507953
 20
202.1024834973
 30
0.0
  0
SPLINE
  5
2DB
100
AcDbEntity
  8
RUNDUNGEN
100
AcDbSpline
 62
7
  6
CONTINUOUS
 70
0
 71
3
 72
14
 73
10
 74
0
 42
0.0000001
 43
0.0000001
 44
0.0000000001
 40
0.0
 40
0.0
 40
0.0
 40
0.0
 40
0.0680038867
 40
0.1520584772
 40
0.2542214269
 40
0.3744483721
 40
0.5114729786
 40
0.6632094747
 40
1.0
 40
1.0
 40
1.0
 40
1.0
 10
80.1906507953
 20
202.1024834973
 30
0.0
 10
80.2888637128
 20
202.0535761627
 30
0.0
 10
80.4849335774
 20
201.8977492614
 30
0.0
 10
80.7330863319
 20
201.5685523494
 30
0.0
 10
80.9634284995
 20
201.1291882605
 30
0.0
 10
81.1712524805
 20
200.5868699583
 30
0.0
 10
81.3527358682
 20
199.9517382269
 30
0.0
 10
81.5610964658
 20
198.963646258
 30
0.0
 10
81.6536099756
 20
198.1788695316
 30
0.0
 10
81.693145698
 20
197.6369368529
 30
0.0
  0
SPLINE
  5
2DC
100
AcDbEntity
  8
RUNDUNGEN
100
AcDbSpline
 62
7
  6
CONTINUOUS
 70
0
 71
3
 72
12
 73
8
 74
0
 42
0.0000001
 43
0.0000001
 44
0.0000000001
 40
0.0
 40
0.0
 40
0.0
 40
0.0
 40
0.3739367255
 40
0.6764433483
 40
0.7929975399
 40
0.8844552242
 40
1.0
 40
1.0
 40
1.0
 40
1.0
 10
81.7540095835
 20
197.6369239652
 30
0.0
 10
81.8462839274
 20
197.637482854
 30
0.0
 10
82.0134643417
 20
197.6321624852
 30
0.0
 10
82.2076847974
 20
197.6080576143
 30
0.0
 10
82.3303967356
 20
197.5739141504
 30
0.0
 10
82.4019836468
 20
197.5444967414
 30
0.0
 10
82.4484788576
 20
197.5046697673
 30
0.0
 10
82.4507950792
 20
197.4762511186
 30
0.0
  0
SPLINE
  5
2DD
100
AcDbEntity
  8
RUNDUNGEN
100
AcDbSpline
 62
7
  6
CONTINUOUS
 70
0
 71
3
 72
12
 73
8
 74
0
 42
0.0000001
 43
0.0000001
 44
0.0000000001
 40
0.0
 40
0.0
 40
0.0
 40
0.0
 40
0.3006816845
 40
0.5935240202
 40
0.8369576355
 40
0.9298414053
 40
1.0
 40
1.0
 40
1.0
 40
1.0
 10
81.6931458222
 20
197.6369369541
 30
0.0
 10
81.5641804582
 20
197.6377141926
 30
0.0
 10
81.3093534563
 20
197.626452399
 30
0.0
 10
80.9533102414
 20
197.5791456144
 30
0.0
 10
80.6893729106
 20
197.5171157816
 30
0.0
 10
80.5271579963
 20
197.4528911974
 30
0.0
 10
80.4658160805
 20
197.4178951889
 30
0.0
 10
80.4424401589
 20
197.398944972
 30
0.0
  0
SPLINE
  5
2DE
100
AcDbEntity
  8
RUNDUNGEN
100
AcDbSpline
 62
7
  6
CONTINUOUS
 70
0
 71
3
 72
11
 73
7
 74
0
 42
0.0000001
 43
0.0000001
 44
0.0000000001
 40
0.0
 40
0.0
 40
0.0
 40
0.0
 40
0.2439820264
 40
0.4918424582
 40
0.7445151158
 40
1.0
 40
1.0
 40
1.0
 40
1.0
 10
69.8964496408
 20
152.1722377702
 30
0.0
 10
69.9210486639
 20
152.1723137955
 30
0.0
 10
69.9711259001
 20
152.1830291744
 30
0.0
 10
70.0341250485
 20
152.2273307902
 30
0.0
 10
70.0758332851
 20
152.2933041737
 30
0.0
 10
70.0859326194
 20
152.3449324622
 30
0.0
 10
70.0861220252
 20
152.3706906657
 30
0.0
  0
SPLINE
  5
2DF
100
AcDbEntity
  8
RUNDUNGEN
100
AcDbSpline
 62
7
  6
CONTINUOUS
 70
0
 71
3
 72
11
 73
7
 74
0
 42
0.0000001
 43
0.0000001
 44
0.0000000001
 40
0.0
 40
0.0
 40
0.0
 40
0.0
 40
0.2447424254
 40
0.4927874289
 40
0.7451684772
 40
1.0
 40
1.0
 40
1.0
 40
1.0
 10
79.7234767073
 20
202.1529150794
 30
0.0
 10
79.6166354386
 20
202.1305746422
 30
0.0
 10
79.4078790191
 20
202.0457780643
 30
0.0
 10
79.1577595247
 20
201.8172570831
 30
0.0
 10
78.9954865433
 20
201.5151665058
 30
0.0
 10
78.9579263088
 20
201.2872640415
 30
0.0
 10
78.9577767647
 20
201.1736125658
 30
0.0
  0
SPLINE
  5
2E0
100
AcDbEntity
  8
RUNDUNGEN
100
AcDbSpline
 62
7
  6
CONTINUOUS
 70
0
 71
3
 72
11
 73
7
 74
0
 42
0.0000001
 43
0.0000001
 44
0.0000000001
 40
0.0
 40
0.0
 40
0.0
 40
0.0
 40
0.2442014239
 40
0.4918360664
 40
0.7442568229
 40
1.0
 40
1.0
 40
1.0
 40
1.0
 10
71.1020898271
 20
202.1722267921
 30
0.0
 10
70.9785847531
 20
202.1716345069
 30
0.0
 10
70.7272078333
 20
202.1178721672
 30
0.0
 10
70.4128315321
 20
201.8935603186
 30
0.0
 10
70.2040848497
 20
201.5625000983
 30
0.0
 10
70.1554369793
 20
201.3029564454
 30
0.0
 10
70.1552677379
 20
201.1736127436
 30
0.0
  0
SPLINE
  5
2E1
100
AcDbEntity
  8
RUNDUNGEN
100
AcDbSpline
 62
7
  6
CONTINUOUS
 70
0
 71
3
 72
8
 73
4
 74
0
 42
0.0000001
 43
0.0000001
 44
0.0000000001
 40
0.0
 40
0.0
 40
0.0
 40
0.0
 40
1.0
 40
1.0
 40
1.0
 40
1.0
 10
79.3185896817
 20
152.1722261198
 30
0.0
 10
79.3513671865
 20
152.1722261438
 30
0.0
 10
79.3851740302
 20
152.1818893668
 30
0.0
 10
79.4132730002
 20
152.1987657618
 30
0.0
  0
SPLINE
  5
2E2
100
AcDbEntity
  8
RUNDUNGEN
100
AcDbSpline
 62
7
  6
CONTINUOUS
 70
0
 71
3
 72
9
 73
5
 74
0
 42
0.0000001
 43
0.0000001
 44
0.0000000001
 40
0.0
 40
0.0
 40
0.0
 40
0.0
 40
0.4946776894
 40
1.0
 40
1.0
 40
1.0
 40
1.0
 10
79.4132730002
 20
152.1987657618
 30
0.0
 10
79.4419981125
 20
152.2160182213
 30
0.0
 10
79.4910942657
 20
152.267722799
 30
0.0
 10
79.5085441241
 20
152.3364625572
 30
0.0
 10
79.5087938867
 20
152.37069058
 30
0.0
  0
SPLINE
  5
2E3
100
AcDbEntity
  8
RUNDUNGEN
100
AcDbSpline
 62
7
  6
CONTINUOUS
 70
0
 71
3
 72
9
 73
5
 74
0
 42
0.0000001
 43
0.0000001
 44
0.0000000001
 40
0.0
 40
0.0
 40
0.0
 40
0.0
 40
0.5044770109
 40
1.0
 40
1.0
 40
1.0
 40
1.0
 10
79.5918775586
 20
152.018723935
 30
0.0
 10
79.6384105164
 20
152.0240327313
 30
0.0
 10
79.7287890022
 20
152.0672645649
 30
0.0
 10
79.7761711896
 20
152.1562439643
 30
0.0
 10
79.7820838313
 20
152.2018659525
 30
0.0
  0
SPLINE
  5
2E4
100
AcDbEntity
  8
RUNDUNGEN
100
AcDbSpline
 62
7
  6
CONTINUOUS
 70
0
 71
3
 72
22
 73
18
 74
0
 42
0.0000001
 43
0.0000001
 44
0.0000000001
 40
0.0
 40
0.0
 40
0.0
 40
0.0
 40
0.1252859845
 40
0.2513781483
 40
0.3146802049
 40
0.3781705708
 40
0.4419963801
 40
0.4740056166
 40
0.5049606268
 40
0.5195856193
 40
0.5348877998
 40
0.5651313214
 40
0.6266047572
 40
0.6885535151
 40
0.7506512959
 40
0.8750975476
 40
1.0
 40
1.0
 40
1.0
 40
1.0
 10
81.693145698
 20
197.6369368529
 30
0.0
 10
81.6942009929
 20
197.6224833826
 30
0.0
 10
81.6967728066
 20
197.5934917231
 30
0.0
 10
81.7028475814
 20
197.5575937575
 30
0.0
 10
81.7087879232
 20
197.5289053953
 30
0.0
 10
81.7138757232
 20
197.5075880001
 30
0.0
 10
81.7200639516
 20
197.4896889157
 30
0.0
 10
81.7265238106
 20
197.4774664506
 30
0.0
 10
81.7337491336
 20
197.4687873731
 30
0.0
 10
81.7409222172
 20
197.4724535561
 30
0.0
 10
81.744208018
 20
197.4786513146
 30
0.0
 10
81.749122396
 20
197.4900271031
 30
0.0
 10
81.7524178575
 20
197.5076560678
 30
0.0
 10
81.7545660433
 20
197.5289788814
 30
0.0
 10
81.7563311455
 20
197.5576817985
 30
0.0
 10
81.7570836286
 20
197.5937291708
 30
0.0
 10
81.7552188119
 20
197.6225396351
 30
0.0
 10
81.7540267453
 20
197.6369379534
 30
0.0
  0
SPLINE
  5
2E5
100
AcDbEntity
  8
RUNDUNGEN
100
AcDbSpline
 62
7
  6
CONTINUOUS
 70
0
 71
3
 72
17
 73
13
 74
0
 42
0.0000001
 43
0.0000001
 44
0.0000000001
 40
0.0
 40
0.0
 40
0.0
 40
0.0
 40
0.183730794
 40
0.3560884697
 40
0.5129533939
 40
0.6510537772
 40
0.7679914815
 40
0.8629308358
 40
0.9026772016
 40
0.9379935741
 40
0.9699348568
 40
1.0
 40
1.0
 40
1.0
 40
1.0
 10
81.7540267453
 20
197.6369379534
 30
0.0
 10
81.7280938987
 20
197.9506590394
 30
0.0
 10
81.6621179133
 20
198.5575378083
 30
0.0
 10
81.5164266192
 20
199.4248077881
 30
0.0
 10
81.3302745682
 20
200.2042617522
 30
0.0
 10
81.10885152
 20
200.8756378931
 30
0.0
 10
80.8580526122
 20
201.4216697023
 30
0.0
 10
80.6159713346
 20
201.782923299
 30
0.0
 10
80.4073940627
 20
201.9877309201
 30
0.0
 10
80.2558832239
 20
202.0929384544
 30
0.0
 10
80.1005425357
 20
202.1574581567
 30
0.0
 10
79.9938429984
 20
202.1722320327
 30
0.0
 10
79.9423315504
 20
202.1722369459
 30
0.0
  0
SPLINE
  5
2E6
100
AcDbEntity
  8
RUNDUNGEN
100
AcDbSpline
 62
7
  6
CONTINUOUS
 70
0
 71
3
 72
9
 73
5
 74
0
 42
0.0000001
 43
0.0000001
 44
0.0000000001
 40
0.0
 40
0.0
 40
0.0
 40
0.0
 40
0.2499869248
 40
1.0
 40
1.0
 40
1.0
 40
1.0
 10
79.7820834478
 20
152.2018681646
 30
0.0
 10
79.8091186069
 20
155.9684032152
 30
0.0
 10
80.0063480618
 20
171.0345448068
 30
0.0
 10
80.3766122938
 20
186.0984524478
 30
0.0
 10
80.4424390063
 20
197.3989449793
 30
0.0
  0
SPLINE
  5
2E7
100
AcDbEntity
  8
RUNDUNGEN
100
AcDbSpline
 62
7
  6
CONTINUOUS
 70
0
 71
3
 72
39
 73
35
 74
0
 42
0.0000001
 43
0.0000001
 44
0.0000000001
 40
0.0
 40
0.0
 40
0.0
 40
0.0
 40
0.045317504
 40
0.1022625564
 40
0.1669043122
 40
0.2366080904
 40
0.2728042395
 40
0.3096623098
 40
0.347044453
 40
0.3848334722
 40
0.4038483209
 40
0.4229271371
 40
0.4420572828
 40
0.4612148294
 40
0.4802730854
 40
0.4898595559
 40
0.4994552192
 40
0.5186130293
 40
0.5377539588
 40
0.5568476205
 40
0.5758808101
 40
0.6137160711
 40
0.6511554476
 40
0.6880792541
 40
0.7243559425
 40
0.7598313412
 40
0.8275853343
 40
0.8892150652
 40
0.9168245417
 40
0.9416442884
 40
0.9630136568
 40
0.9802539622
 40
0.9927264668
 40
1.0
 40
1.0
 40
1.0
 40
1.0
 10
79.7820820816
 20
152.2018681646
 30
0.0
 10
79.825794661
 20
152.1385703591
 30
0.0
 10
79.9307406119
 20
152.0001705368
 30
0.0
 10
80.1068399804
 20
151.7782615801
 30
0.0
 10
80.3135243122
 20
151.5277973747
 30
0.0
 10
80.4993796514
 20
151.3058519286
 30
0.0
 10
80.65639301
 20
151.1212713045
 30
0.0
 10
80.7790724777
 20
150.97952387
 30
0.0
 10
80.904706243
 20
150.8367661576
 30
0.0
 10
81.0118002826
 20
150.7180475551
 30
0.0
 10
81.1000535975
 20
150.624204907
 30
0.0
 10
81.1682296294
 20
150.5550283333
 30
0.0
 10
81.2398312828
 20
150.4888036196
 30
0.0
 10
81.3167602903
 20
150.4293830713
 30
0.0
 10
81.3950225559
 20
150.3973014285
 30
0.0
 10
81.4608771187
 20
150.403489391
 30
0.0
 10
81.5219717353
 20
150.4273006289
 30
0.0
 10
81.5890554398
 20
150.474463645
 30
0.0
 10
81.6620062072
 20
150.5389644324
 30
0.0
 10
81.7313121967
 20
150.6072080394
 30
0.0
 10
81.8205232178
 20
150.700306483
 30
0.0
 10
81.9282011423
 20
150.8188008185
 30
0.0
 10
82.0537009921
 20
150.9620560787
 30
0.0
 10
82.1763419713
 20
151.1042926977
 30
0.0
 10
82.296110295
 20
151.2445991667
 30
0.0
 10
82.4491391112
 20
151.425319734
 30
0.0
 10
82.6280687766
 20
151.6404880474
 30
0.0
 10
82.7958971275
 20
151.8475188964
 30
0.0
 10
82.9158357233
 20
151.9994842723
 30
0.0
 10
82.9919340444
 20
152.0990645455
 30
0.0
 10
83.0551553434
 20
152.1860502426
 30
0.0
 10
83.1040482666
 20
152.2581734168
 30
0.0
 10
83.1349844182
 20
152.3118790135
 30
0.0
 10
83.1490435936
 20
152.3439168567
 30
0.0
 10
83.1489475033
 20
152.3562630145
 30
0.0
  0
SPLINE
  5
2E8
100
AcDbEntity
  8
RUNDUNGEN
100
AcDbSpline
 62
7
  6
CONTINUOUS
 70
0
 71
3
 72
11
 73
7
 74
0
 42
0.0000001
 43
0.0000001
 44
0.0000000001
 40
0.0
 40
0.0
 40
0.0
 40
0.0
 40
0.0823081507
 40
0.2693872301
 40
0.5737475427
 40
1.0
 40
1.0
 40
1.0
 40
1.0
 10
69.5182555687
 20
199.8133191205
 30
0.0
 10
69.5182518704
 20
199.8144702897
 30
0.0
 10
69.5224575648
 20
199.8167303516
 30
0.0
 10
69.5295051424
 20
199.8185438142
 30
0.0
 10
69.542376106
 20
199.8216753464
 30
0.0
 10
69.5520904508
 20
199.8244207831
 30
0.0
 10
69.5577374272
 20
199.8263320027
 30
0.0
  0
SPLINE
  5
2E9
100
AcDbEntity
  8
RUNDUNGEN
100
AcDbSpline
 62
7
  6
CONTINUOUS
 70
0
 71
3
 72
25
 73
21
 74
0
 42
0.0000001
 43
0.0000001
 44
0.0000000001
 40
0.0
 40
0.0
 40
0.0
 40
0.0
 40
0.0301959276
 40
0.0681433961
 40
0.1683667368
 40
0.2289463009
 40
0.2949664736
 40
0.3654659923
 40
0.439375367
 40
0.5154195525
 40
0.5922961849
 40
0.6306535096
 40
0.6687338408
 40
0.7433907127
 40
0.7796672979
 40
0.8150032244
 40
0.8492959694
 40
0.8823855526
 40
0.9443781889
 40
1.0
 40
1.0
 40
1.0
 40
1.0
 10
80.4424390063
 20
197.3989449793
 30
0.0
 10
80.4572385663
 20
197.389287275
 30
0.0
 10
80.4959866693
 20
197.3766136309
 30
0.0
 10
80.5928744041
 20
197.3606307993
 30
0.0
 10
80.7080088416
 20
197.3426623395
 30
0.0
 10
80.8381957626
 20
197.3168528734
 30
0.0
 10
80.9524052174
 20
197.3000197155
 30
0.0
 10
81.075195278
 20
197.2900450035
 30
0.0
 10
81.2039431187
 20
197.2818226104
 30
0.0
 10
81.3363784335
 20
197.272606207
 30
0.0
 10
81.4481995552
 20
197.2671379413
 30
0.0
 10
81.5378125051
 20
197.2628992064
 30
0.0
 10
81.626165098
 20
197.2581872338
 30
0.0
 10
81.7134079804
 20
197.2635767151
 30
0.0
 10
81.798964496
 20
197.2602236444
 30
0.0
 10
81.8609762391
 20
197.2596682383
 30
0.0
 10
81.9210024565
 20
197.2633308554
 30
0.0
 10
81.9966155588
 20
197.2671082516
 30
0.0
 10
82.0847211903
 20
197.2715730667
 30
0.0
 10
82.1532530364
 20
197.2781411072
 30
0.0
 10
82.185661305
 20
197.28119979
 30
0.0
  0
SPLINE
  5
2EA
100
AcDbEntity
  8
RUNDUNGEN
100
AcDbSpline
 62
7
  6
CONTINUOUS
 70
0
 71
3
 72
12
 73
8
 74
0
 42
0.0000001
 43
0.0000001
 44
0.0000000001
 40
0.0
 40
0.0
 40
0.0
 40
0.0
 40
0.3999217941
 40
0.6995392881
 40
0.9023957755
 40
0.9630951081
 40
1.0
 40
1.0
 40
1.0
 40
1.0
 10
82.185661305
 20
197.28119979
 30
0.0
 10
82.2242378281
 20
197.2848406308
 30
0.0
 10
82.2914584253
 20
197.2916453323
 30
0.0
 10
82.3785820916
 20
197.3057747787
 30
0.0
 10
82.4275629056
 20
197.3322106444
 30
0.0
 10
82.4505316607
 20
197.3495139114
 30
0.0
 10
82.4561739321
 20
197.3581881545
 30
0.0
 10
82.4562309734
 20
197.3617633711
 30
0.0
  0
LINE
  5
2EB
100
AcDbEntity
  8
RUNDUNGEN
100
AcDbLine
 62
7
  6
CONTINUOUS
 10
70.155267777
 20
201.173642458
 11
78.9577766493
 21
201.1735754345
  0
SPLINE
  5
2EC
100
AcDbEntity
  8
RUNDUNGEN
100
AcDbSpline
 62
7
  6
CONTINUOUS
 70
0
 71
3
 72
9
 73
5
 74
0
 42
0.0000001
 43
0.0000001
 44
0.0000000001
 40
0.0
 40
0.0
 40
0.0
 40
0.0
 40
0.2574542713
 40
1.0
 40
1.0
 40
1.0
 40
1.0
 10
69.568407326
 20
199.8302826852
 30
0.0
 10
69.5719479843
 20
199.8624130833
 30
0.0
 10
69.5867969758
 20
199.9870877875
 30
0.0
 10
69.6060344589
 20
200.1112588005
 30
0.0
 10
69.6232530943
 20
200.202885939
 30
0.0
  0
SPLINE
  5
2ED
100
AcDbEntity
  8
RUNDUNGEN
100
AcDbSpline
 62
7
  6
CONTINUOUS
 70
0
 71
3
 72
12
 73
8
 74
0
 42
0.0000001
 43
0.0000001
 44
0.0000000001
 40
0.0
 40
0.0
 40
0.0
 40
0.0
 40
0.188464085
 40
0.3611654307
 40
0.5161038565
 40
0.6517590838
 40
1.0
 40
1.0
 40
1.0
 40
1.0
 10
69.6232530943
 20
200.202885939
 30
0.0
 10
69.6365923324
 20
200.2738692763
 30
0.0
 10
69.665632349
 20
200.4094213243
 30
0.0
 10
69.718231614
 20
200.5996529517
 30
0.0
 10
69.7790194079
 20
200.7685516663
 30
0.0
 10
69.8776786012
 20
200.9836730356
 30
0.0
 10
70.0218100521
 20
201.17352058
 30
0.0
 10
70.1552677379
 20
201.1736127436
 30
0.0
  0
SPLINE
  5
2EE
100
AcDbEntity
  8
RUNDUNGEN
100
AcDbSpline
 62
7
  6
CONTINUOUS
 70
0
 71
3
 72
9
 73
5
 74
0
 42
0.0000001
 43
0.0000001
 44
0.0000000001
 40
0.0
 40
0.0
 40
0.0
 40
0.0
 40
0.2499907188
 40
1.0
 40
1.0
 40
1.0
 40
1.0
 10
68.8970615842
 20
152.1722628708
 30
0.0
 10
68.9254458413
 20
156.1439118656
 30
0.0
 10
69.1381649426
 20
172.0301515992
 30
0.0
 10
69.5327340579
 20
187.9144949962
 30
0.0
 10
69.5684071258
 20
199.8302826852
 30
0.0
  0
SPLINE
  5
2EF
100
AcDbEntity
  8
RUNDUNGEN
100
AcDbSpline
 62
7
  6
CONTINUOUS
 70
0
 71
3
 72
9
 73
5
 74
0
 42
0.0000001
 43
0.0000001
 44
0.0000000001
 40
0.0
 40
0.0
 40
0.0
 40
0.0
 40
0.2640182264
 40
1.0
 40
1.0
 40
1.0
 40
1.0
 10
69.6064550665
 20
152.1934842684
 30
0.0
 10
69.6254630434
 20
152.2076942698
 30
0.0
 10
69.6990133692
 20
152.2593441946
 30
0.0
 10
69.779422978
 20
152.3016857079
 30
0.0
 10
69.8413742116
 20
152.3248972848
 30
0.0
  0
SPLINE
  5
2F0
100
AcDbEntity
  8
RUNDUNGEN
100
AcDbSpline
 62
7
  6
CONTINUOUS
 70
0
 71
3
 72
9
 73
5
 74
0
 42
0.0000001
 43
0.0000001
 44
0.0000000001
 40
0.0
 40
0.0
 40
0.0
 40
0.0
 40
0.2574267726
 40
1.0
 40
1.0
 40
1.0
 40
1.0
 10
69.8413742116
 20
152.3248972848
 30
0.0
 10
69.8614420519
 20
152.3324162023
 30
0.0
 10
69.9405267659
 20
152.3584669914
 30
0.0
 10
70.0243045517
 20
152.3706774472
 30
0.0
 10
70.0861220252
 20
152.3706906657
 30
0.0
  0
SPLINE
  5
2F1
100
AcDbEntity
  8
RUNDUNGEN
100
AcDbSpline
 62
7
  6
CONTINUOUS
 70
0
 71
3
 72
17
 73
13
 74
0
 42
0.0000001
 43
0.0000001
 44
0.0000000001
 40
0.0
 40
0.0
 40
0.0
 40
0.0
 40
0.0301116445
 40
0.0620776274
 40
0.0973990491
 40
0.1371337394
 40
0.2320120234
 40
0.3488677648
 40
0.4868995762
 40
0.6437362452
 40
0.8161341397
 40
1.0
 40
1.0
 40
1.0
 40
1.0
 10
78.9577766977
 20
201.1736125659
 30
0.0
 10
79.000666283
 20
201.1736039664
 30
0.0
 10
79.0894711422
 20
201.1613358409
 30
0.0
 10
79.2187376906
 20
201.1077106967
 30
0.0
 10
79.3447249801
 20
201.0202384356
 30
0.0
 10
79.5179787299
 20
200.8499561607
 30
0.0
 10
79.7186966137
 20
200.5494985772
 30
0.0
 10
79.9257778314
 20
200.095211239
 30
0.0
 10
80.1073063185
 20
199.5364729753
 30
0.0
 10
80.2581057978
 20
198.8876058953
 30
0.0
 10
80.3736100524
 20
198.1654523751
 30
0.0
 10
80.4236082328
 20
197.6601568401
 30
0.0
 10
80.4424390063
 20
197.3989449793
 30
0.0
  0
SPLINE
  5
2F2
100
AcDbEntity
  8
RUNDUNGEN
100
AcDbSpline
 62
7
  6
CONTINUOUS
 70
0
 71
3
 72
11
 73
7
 74
0
 42
0.0000001
 43
0.0000001
 44
0.0000000001
 40
0.0
 40
0.0
 40
0.0
 40
0.0
 40
0.2135126134
 40
0.4432645912
 40
0.7025303019
 40
1.0
 40
1.0
 40
1.0
 40
1.0
 10
79.5087952702
 20
152.3706905688
 30
0.0
 10
79.5324243338
 20
152.3706894342
 30
0.0
 10
79.5817442708
 20
152.3629238565
 30
0.0
 10
79.6527007773
 20
152.3291540391
 30
0.0
 10
79.7211225301
 20
152.2744227478
 30
0.0
 10
79.7619456956
 20
152.2279112327
 30
0.0
 10
79.782082076
 20
152.2018673862
 30
0.0
  0
SPLINE
  5
2F3
100
AcDbEntity
  8
RUNDUNGEN
100
AcDbSpline
 62
7
  6
CONTINUOUS
 70
0
 71
3
 72
10
 73
6
 74
0
 42
0.0000001
 43
0.0000001
 44
0.0000000001
 40
0.0
 40
0.0
 40
0.0
 40
0.0
 40
0.4937023641
 40
0.7364765701
 40
1.0
 40
1.0
 40
1.0
 40
1.0
 10
70.0861225872
 20
152.3707674256
 30
0.0
 10
71.636787553
 20
152.3712805425
 30
0.0
 10
73.9499799207
 20
152.369871521
 30
0.0
 10
77.0908702837
 20
152.3713086443
 30
0.0
 10
78.6810956888
 20
152.3706682724
 30
0.0
 10
79.5087939026
 20
152.3705050694
 30
0.0
  0
SPLINE
  5
2F4
100
AcDbEntity
  8
RUNDUNGEN
100
AcDbSpline
 62
7
  6
CONTINUOUS
 70
0
 71
3
 72
9
 73
5
 74
0
 42
0.0000001
 43
0.0000001
 44
0.0000000001
 40
0.0
 40
0.0
 40
0.0
 40
0.0
 40
0.4703717172
 40
1.0
 40
1.0
 40
1.0
 40
1.0
 10
224.7914270733
 20
150.5966202454
 30
0.0
 10
224.7344080732
 20
150.8592308765
 30
0.0
 10
224.4974299336
 20
151.3978428556
 30
0.0
 10
224.0508442276
 20
151.7912932626
 30
0.0
 10
223.7839429164
 20
151.9338430815
 30
0.0
  0
SPLINE
  5
2F5
100
AcDbEntity
  8
RUNDUNGEN
100
AcDbSpline
 62
7
  6
CONTINUOUS
 70
0
 71
3
 72
9
 73
5
 74
0
 42
0.0000001
 43
0.0000001
 44
0.0000000001
 40
0.0
 40
0.0
 40
0.0
 40
0.0
 40
0.2469628997
 40
1.0
 40
1.0
 40
1.0
 40
1.0
 10
223.7839429164
 20
151.9338430815
 30
0.0
 10
223.7696070655
 20
151.9414997428
 30
0.0
 10
223.711162949
 20
151.9717588351
 30
0.0
 10
223.6512131306
 20
151.9990925178
 30
0.0
 10
223.6054471733
 20
152.0181016359
 30
0.0
  0
SPLINE
  5
2F6
100
AcDbEntity
  8
RUNDUNGEN
100
AcDbSpline
 62
7
  6
CONTINUOUS
 70
0
 71
3
 72
13
 73
9
 74
0
 42
0.0000001
 43
0.0000001
 44
0.0000000001
 40
0.0
 40
0.0
 40
0.0
 40
0.0
 40
0.1473405757
 40
0.2860037806
 40
0.4167048034
 40
0.5408865961
 40
0.7750549584
 40
1.0
 40
1.0
 40
1.0
 40
1.0
 10
223.455011318
 20
140.2701239133
 30
0.0
 10
223.5718019564
 20
140.3092104553
 30
0.0
 10
223.7933919932
 20
140.4028672441
 30
0.0
 10
224.0846812548
 20
140.5971255328
 30
0.0
 10
224.3253739545
 20
140.8235223993
 30
0.0
 10
224.5754718471
 20
141.1486932576
 30
0.0
 10
224.7822771442
 20
141.5984060177
 30
0.0
 10
224.8369773293
 20
141.9842119811
 30
0.0
 10
224.8369773293
 20
142.1722369459
 30
0.0
  0
SPLINE
  5
2F7
100
AcDbEntity
  8
RUNDUNGEN
100
AcDbSpline
 62
7
  6
CONTINUOUS
 70
0
 71
3
 72
14
 73
10
 74
0
 42
0.0000001
 43
0.0000001
 44
0.0000000001
 40
0.0
 40
0.0
 40
0.0
 40
0.0
 40
0.057497356
 40
0.1314532471
 40
0.2286322166
 40
0.3494425192
 40
0.4915974927
 40
0.6510890431
 40
1.0
 40
1.0
 40
1.0
 40
1.0
 10
191.3896675267
 20
202.1722369459
 30
0.0
 10
191.410705355
 20
202.1722369459
 30
0.0
 10
191.4586353347
 20
202.1541960529
 30
0.0
 10
191.5160256964
 20
202.0913950701
 30
0.0
 10
191.5676474263
 20
201.9972639618
 30
0.0
 10
191.6127723701
 20
201.8730710992
 30
0.0
 10
191.6499280514
 20
201.7228106762
 30
0.0
 10
191.6880131774
 20
201.4876663036
 30
0.0
 10
191.6986299862
 20
201.3012764948
 30
0.0
 10
191.6986842618
 20
201.1736127436
 30
0.0
  0
SPLINE
  5
2F8
100
AcDbEntity
  8
RUNDUNGEN
100
AcDbSpline
 62
7
  6
CONTINUOUS
 70
0
 71
3
 72
13
 73
9
 74
0
 42
0.0000001
 43
0.0000001
 44
0.0000000001
 40
0.0
 40
0.0
 40
0.0
 40
0.0
 40
0.0620776244
 40
0.1504207173
 40
0.2619471993
 40
0.3923896333
 40
0.6904728659
 40
1.0
 40
1.0
 40
1.0
 40
1.0
 10
188.6947884909
 20
200.1545637407
 30
0.0
 10
188.7207235327
 20
200.1547988943
 30
0.0
 10
188.7834870471
 20
200.1484221119
 30
0.0
 10
188.8913127966
 20
200.1298841285
 30
0.0
 10
189.0260997027
 20
200.0999301808
 30
0.0
 10
189.2447138274
 20
200.0440410848
 30
0.0
 10
189.5403945797
 20
199.9561141082
 30
0.0
 10
189.7808676787
 20
199.8745417021
 30
0.0
 10
189.902378544
 20
199.8302812976
 30
0.0
  0
SPLINE
  5
2F9
100
AcDbEntity
  8
RUNDUNGEN
100
AcDbSpline
 62
7
  6
CONTINUOUS
 70
0
 71
3
 72
14
 73
10
 74
0
 42
0.0000001
 43
0.0000001
 44
0.0000000001
 40
0.0
 40
0.0
 40
0.0
 40
0.0
 40
0.0234896073
 40
0.0782458629
 40
0.1654425485
 40
0.2836266457
 40
0.4300183285
 40
0.6014148936
 40
1.0
 40
1.0
 40
1.0
 40
1.0
 10
224.0688920736
 20
197.6273679853
 30
0.0
 10
224.0702650699
 20
197.6220143543
 30
0.0
 10
224.0515920807
 20
197.6071452098
 30
0.0
 10
224.0205065591
 20
197.5916185748
 30
0.0
 10
223.9620207343
 20
197.5669688748
 30
0.0
 10
223.8848930488
 20
197.5395418949
 30
0.0
 10
223.7870764326
 20
197.5075057205
 30
0.0
 10
223.6258867713
 20
197.458705102
 30
0.0
 10
223.4965391765
 20
197.4229501775
 30
0.0
 10
223.4058800673
 20
197.398944972
 30
0.0
  0
SPLINE
  5
2FA
100
AcDbEntity
  8
RUNDUNGEN
100
AcDbSpline
 62
7
  6
CONTINUOUS
 70
0
 71
3
 72
12
 73
8
 74
0
 42
0.0000001
 43
0.0000001
 44
0.0000000001
 40
0.0
 40
0.0
 40
0.0
 40
0.0
 40
0.1156549693
 40
0.2143495034
 40
0.3399190501
 40
0.6525034852
 40
1.0
 40
1.0
 40
1.0
 40
1.0
 10
190.3022732932
 20
151.0205147285
 30
0.0
 10
190.2945152803
 20
151.0148583961
 30
0.0
 10
190.2731937949
 20
151.0217348456
 30
0.0
 10
190.2506288255
 20
151.0361860934
 30
0.0
 10
190.2155758901
 20
151.0648745244
 30
0.0
 10
190.1715066298
 20
151.1127408097
 30
0.0
 10
190.138542767
 20
151.1567785147
 30
0.0
 10
190.1226442307
 20
151.1808494202
 30
0.0
  0
SPLINE
  5
2FB
100
AcDbEntity
  8
RUNDUNGEN
100
AcDbSpline
 62
7
  6
CONTINUOUS
 70
0
 71
3
 72
9
 73
5
 74
0
 42
0.0000001
 43
0.0000001
 44
0.0000000001
 40
0.0
 40
0.0
 40
0.0
 40
0.0
 40
0.659576973
 40
1.0
 40
1.0
 40
1.0
 40
1.0
 10
188.6819666757
 20
200.1545824156
 30
0.0
 10
188.6700886611
 20
200.1546882594
 30
0.0
 10
188.6531511603
 20
200.1549051404
 30
0.0
 10
188.6332953331
 20
200.1468473681
 30
0.0
 10
188.6312404748
 20
200.1410712262
 30
0.0
  0
SPLINE
  5
2FC
100
AcDbEntity
  8
RUNDUNGEN
100
AcDbSpline
 62
7
  6
CONTINUOUS
 70
0
 71
3
 72
12
 73
8
 74
0
 42
0.0000001
 43
0.0000001
 44
0.0000000001
 40
0.0
 40
0.0
 40
0.0
 40
0.0
 40
0.1285348536
 40
0.2258569273
 40
0.3470454867
 40
0.6499287645
 40
1.0
 40
1.0
 40
1.0
 40
1.0
 10
193.8369773293
 20
152.1722369459
 30
0.0
 10
193.8276614326
 20
152.1722369459
 30
0.0
 10
193.8132309504
 20
152.1851937411
 30
0.0
 10
193.8016386707
 20
152.2068269438
 30
0.0
 10
193.7884073632
 20
152.242633964
 30
0.0
 10
193.7781815454
 20
152.2979446015
 30
0.0
 10
193.7752365473
 20
152.345318418
 30
0.0
 10
193.7751759279
 20
152.3706906657
 30
0.0
  0
SPLINE
  5
2FD
100
AcDbEntity
  8
RUNDUNGEN
100
AcDbSpline
 62
7
  6
CONTINUOUS
 70
0
 71
3
 72
11
 73
7
 74
0
 42
0.0000001
 43
0.0000001
 44
0.0000000001
 40
0.0
 40
0.0
 40
0.0
 40
0.0
 40
0.2551245321
 40
0.5065667855
 40
0.7543868783
 40
1.0
 40
1.0
 40
1.0
 40
1.0
 10
189.9023790916
 20
199.8302826852
 30
0.0
 10
189.9658268973
 20
200.0231550182
 30
0.0
 10
190.1499959409
 20
200.3898528488
 30
0.0
 10
190.5748910692
 20
200.8271577111
 30
0.0
 10
191.1076216199
 20
201.1088111256
 30
0.0
 10
191.5032136079
 20
201.1735688831
 30
0.0
 10
191.6986842618
 20
201.1736127436
 30
0.0
  0
SPLINE
  5
2FE
100
AcDbEntity
  8
RUNDUNGEN
100
AcDbSpline
 62
7
  6
CONTINUOUS
 70
0
 71
3
 72
9
 73
5
 74
0
 42
0.0000001
 43
0.0000001
 44
0.0000000001
 40
0.0
 40
0.0
 40
0.0
 40
0.0
 40
0.7500095814
 40
1.0
 40
1.0
 40
1.0
 40
1.0
 10
190.1226441469
 20
151.1808554175
 30
0.0
 10
190.0986001379
 20
163.3434731959
 30
0.0
 10
189.9612645505
 20
179.5596892032
 30
0.0
 10
189.9063219408
 20
195.7762779252
 30
0.0
 10
189.9023784757
 20
199.8302826852
 30
0.0
  0
SPLINE
  5
2FF
100
AcDbEntity
  8
RUNDUNGEN
100
AcDbSpline
 62
7
  6
CONTINUOUS
 70
0
 71
3
 72
12
 73
8
 74
0
 42
0.0000001
 43
0.0000001
 44
0.0000000001
 40
0.0
 40
0.0
 40
0.0
 40
0.0
 40
0.1285343514
 40
0.2258572655
 40
0.3470469771
 40
0.6499316749
 40
1.0
 40
1.0
 40
1.0
 40
1.0
 10
222.8369773291
 20
152.1722261198
 30
0.0
 10
222.8276610162
 20
152.1722261408
 30
0.0
 10
222.8132300558
 20
152.1851840543
 30
0.0
 10
222.8016376033
 20
152.2068185653
 30
0.0
 10
222.7884061682
 20
152.2426278064
 30
0.0
 10
222.7781806946
 20
152.2979412407
 30
0.0
 10
222.7752362963
 20
152.3453173092
 30
0.0
 10
222.7751761377
 20
152.37069058
 30
0.0
  0
SPLINE
  5
300
100
AcDbEntity
  8
RUNDUNGEN
100
AcDbSpline
 62
7
  6
CONTINUOUS
 70
0
 71
3
 72
12
 73
8
 74
0
 42
0.0000001
 43
0.0000001
 44
0.0000000001
 40
0.0
 40
0.0
 40
0.0
 40
0.0
 40
0.1247301177
 40
0.2199110296
 40
0.3392071017
 40
0.6414492806
 40
1.0
 40
1.0
 40
1.0
 40
1.0
 10
223.6054011479
 20
152.018723935
 30
0.0
 10
223.5980468331
 20
152.0217845357
 30
0.0
 10
223.5909268461
 20
152.0368163048
 30
0.0
 10
223.5887903684
 20
152.0578320605
 30
0.0
 10
223.5898601135
 20
152.0911482503
 30
0.0
 10
223.5996145068
 20
152.1400994057
 30
0.0
 10
223.6124125473
 20
152.18042176
 30
0.0
 10
223.6204428447
 20
152.2018659525
 30
0.0
  0
SPLINE
  5
301
100
AcDbEntity
  8
RUNDUNGEN
100
AcDbSpline
 62
7
  6
CONTINUOUS
 70
0
 71
3
 72
10
 73
6
 74
0
 42
0.0000001
 43
0.0000001
 44
0.0000000001
 40
0.0
 40
0.0
 40
0.0
 40
0.0
 40
0.4937023679
 40
0.7364765717
 40
1.0
 40
1.0
 40
1.0
 40
1.0
 10
193.7751757371
 20
152.3707674256
 30
0.0
 10
198.5476320007
 20
152.3712805425
 30
0.0
 10
205.66690567
 20
152.369871521
 30
0.0
 10
215.33357244
 20
152.3713086443
 30
0.0
 10
220.2277829489
 20
152.3706682724
 30
0.0
 10
222.7751761207
 20
152.3705050694
 30
0.0
  0
SPLINE
  5
302
100
AcDbEntity
  8
RUNDUNGEN
100
AcDbSpline
 62
7
  6
CONTINUOUS
 70
0
 71
3
 72
22
 73
18
 74
0
 42
0.0000001
 43
0.0000001
 44
0.0000000001
 40
0.0
 40
0.0
 40
0.0
 40
0.0
 40
0.0019166771
 40
0.0061606239
 40
0.0222434026
 40
0.0485947154
 40
0.0848680147
 40
0.1305230533
 40
0.184879219
 40
0.2472063374
 40
0.3166809618
 40
0.4731874666
 40
0.5579840515
 40
0.6455746206
 40
0.8244335393
 40
0.9132640247
 40
1.0
 40
1.0
 40
1.0
 40
1.0
 10
188.5662358423
 20
199.7703106106
 30
0.0
 10
188.5663862886
 20
199.76946872
 30
0.0
 10
188.5695094432
 20
199.768183968
 30
0.0
 10
188.5785978107
 20
199.7664898518
 30
0.0
 10
188.6002406387
 20
199.767787891
 30
0.0
 10
188.63488923
 20
199.7666169508
 30
0.0
 10
188.6834188816
 20
199.7670472278
 30
0.0
 10
188.7440769464
 20
199.7702412161
 30
0.0
 10
188.8164713547
 20
199.7733287885
 30
0.0
 10
188.8994568071
 20
199.7768035945
 30
0.0
 10
189.0280242024
 20
199.7810944461
 30
0.0
 10
189.1666980777
 20
199.7852005486
 30
0.0
 10
189.3129017497
 20
199.7981586899
 30
0.0
 10
189.4692336666
 20
199.8094107493
 30
0.0
 10
189.6277209045
 20
199.8147099199
 30
0.0
 10
189.7857411385
 20
199.8199464401
 30
0.0
 10
189.8640046885
 20
199.8252574416
 30
0.0
 10
189.9023790929
 20
199.8302813433
 30
0.0
  0
SPLINE
  5
303
100
AcDbEntity
  8
RUNDUNGEN
100
AcDbSpline
 62
7
  6
CONTINUOUS
 70
0
 71
3
 72
15
 73
11
 74
0
 42
0.0000001
 43
0.0000001
 44
0.0000000001
 40
0.0
 40
0.0
 40
0.0
 40
0.0
 40
0.2588230059
 40
0.3855860059
 40
0.4457489301
 40
0.4909357728
 40
0.5433954272
 40
0.6071968015
 40
0.7380516131
 40
1.0
 40
1.0
 40
1.0
 40
1.0
 10
188.6819683955
 20
200.154581789
 30
0.0
 10
188.6765424224
 20
200.1381475115
 30
0.0
 10
188.6692073661
 20
200.1142578676
 30
0.0
 10
188.6616817472
 20
200.0834842679
 30
0.0
 10
188.6587017141
 20
200.0709379601
 30
0.0
 10
188.6574068919
 20
200.0540771445
 30
0.0
 10
188.6651620177
 20
200.0707681741
 30
0.0
 10
188.6700687385
 20
200.0831781198
 30
0.0
 10
188.6810863207
 20
200.1139626439
 30
0.0
 10
188.6892677718
 20
200.1379423639
 30
0.0
 10
188.6947390656
 20
200.1545817469
 30
0.0
  0
SPLINE
  5
304
100
AcDbEntity
  8
RUNDUNGEN
100
AcDbSpline
 62
7
  6
CONTINUOUS
 70
0
 71
3
 72
13
 73
9
 74
0
 42
0.0000001
 43
0.0000001
 44
0.0000000001
 40
0.0
 40
0.0
 40
0.0
 40
0.0
 40
0.1225395062
 40
0.2454654039
 40
0.3690819551
 40
0.4936123736
 40
0.7449433934
 40
1.0
 40
1.0
 40
1.0
 40
1.0
 10
218.7900208759
 20
201.1736125659
 30
0.0
 10
219.0519244032
 20
201.1735955035
 30
0.0
 10
219.5776939066
 20
201.1278430919
 30
0.0
 10
220.3435522209
 20
200.9238538527
 30
0.0
 10
221.0673561951
 20
200.5899055864
 30
0.0
 10
221.9510035282
 20
199.9831026336
 30
0.0
 10
222.8550871201
 20
198.9481905307
 30
0.0
 10
223.2778155239
 20
197.9288208546
 30
0.0
 10
223.4058804418
 20
197.3989449793
 30
0.0
  0
SPLINE
  5
305
100
AcDbEntity
  8
RUNDUNGEN
100
AcDbSpline
 62
7
  6
CONTINUOUS
 70
0
 71
3
 72
11
 73
7
 74
0
 42
0.0000001
 43
0.0000001
 44
0.0000000001
 40
0.0
 40
0.0
 40
0.0
 40
0.0
 40
0.2544440713
 40
0.5059230235
 40
0.7542601329
 40
1.0
 40
1.0
 40
1.0
 40
1.0
 10
188.6947390656
 20
200.1545817469
 30
0.0
 10
188.7740904144
 20
200.3958380071
 30
0.0
 10
188.9920253272
 20
200.8582105678
 30
0.0
 10
189.4780465092
 20
201.4435525623
 30
0.0
 10
190.0904925924
 20
201.8806174268
 30
0.0
 10
190.5596164242
 20
202.0540096724
 30
0.0
 10
190.7990506199
 20
202.1072540132
 30
0.0
  0
SPLINE
  5
306
100
AcDbEntity
  8
RUNDUNGEN
100
AcDbSpline
 62
7
  6
CONTINUOUS
 70
0
 71
3
 72
11
 73
7
 74
0
 42
0.0000001
 43
0.0000001
 44
0.0000000001
 40
0.0
 40
0.0
 40
0.0
 40
0.0
 40
0.2457278614
 40
0.4940998092
 40
0.7455958327
 40
1.0
 40
1.0
 40
1.0
 40
1.0
 10
190.7449949209
 20
202.0972947467
 30
0.0
 10
190.5098750043
 20
202.0409910058
 30
0.0
 10
190.050082424
 20
201.8636900964
 30
0.0
 10
189.4507135512
 20
201.4272618097
 30
0.0
 10
188.9747884078
 20
200.8480088006
 30
0.0
 10
188.7604473472
 20
200.3922645434
 30
0.0
 10
188.6819683955
 20
200.154581789
 30
0.0
  0
SPLINE
  5
307
100
AcDbEntity
  8
RUNDUNGEN
100
AcDbSpline
 62
7
  6
CONTINUOUS
 70
0
 71
3
 72
10
 73
6
 74
0
 42
0.0000001
 43
0.0000001
 44
0.0000000001
 40
0.0
 40
0.0
 40
0.0
 40
0.0
 40
0.4883793792
 40
0.7402897367
 40
1.0
 40
1.0
 40
1.0
 40
1.0
 10
187.842377507
 20
146.4435877677
 30
0.0
 10
187.8651424216
 20
147.0239981609
 30
0.0
 10
188.0127890379
 20
147.9049019295
 30
0.0
 10
188.4351602244
 20
149.0193374507
 30
0.0
 10
188.730232372
 20
149.5546300803
 30
0.0
 10
188.8986691551
 20
149.8135523274
 30
0.0
  0
SPLINE
  5
308
100
AcDbEntity
  8
RUNDUNGEN
100
AcDbSpline
 62
7
  6
CONTINUOUS
 70
0
 71
3
 72
10
 73
6
 74
0
 42
0.0000001
 43
0.0000001
 44
0.0000000001
 40
0.0
 40
0.0
 40
0.0
 40
0.0
 40
0.247973615
 40
0.625231835
 40
1.0
 40
1.0
 40
1.0
 40
1.0
 10
188.8986691551
 20
149.8135523274
 30
0.0
 10
188.981676799
 20
149.9411522809
 30
0.0
 10
189.2031734895
 20
150.2550608866
 30
0.0
 10
189.6033811281
 20
150.722350669
 30
0.0
 10
189.9442991768
 20
151.0355421738
 30
0.0
 10
190.1226539942
 20
151.1808579711
 30
0.0
  0
SPLINE
  5
309
100
AcDbEntity
  8
RUNDUNGEN
100
AcDbSpline
 62
7
  6
CONTINUOUS
 70
0
 71
3
 72
8
 73
4
 74
0
 42
0.0000001
 43
0.0000001
 44
0.0000000001
 40
0.0
 40
0.0
 40
0.0
 40
0.0
 40
1.0
 40
1.0
 40
1.0
 40
1.0
 10
223.6204429693
 20
152.2018681646
 30
0.0
 10
223.5853066908
 20
167.2676892273
 30
0.0
 10
223.4343954854
 20
182.3331099296
 30
0.0
 10
223.4058804418
 20
197.3989449793
 30
0.0
  0
SPLINE
  5
30A
100
AcDbEntity
  8
RUNDUNGEN
100
AcDbSpline
 62
7
  6
CONTINUOUS
 70
0
 71
3
 72
14
 73
10
 74
0
 42
0.0000001
 43
0.0000001
 44
0.0000000001
 40
0.0
 40
0.0
 40
0.0
 40
0.0
 40
0.0575013071
 40
0.1314658566
 40
0.2286517194
 40
0.349464907
 40
0.4916185938
 40
0.6511052658
 40
1.0
 40
1.0
 40
1.0
 40
1.0
 10
218.4810478919
 20
202.1722281502
 30
0.0
 10
218.5020861839
 20
202.1722182745
 30
0.0
 10
218.5500092971
 20
202.1541576007
 30
0.0
 10
218.6073897603
 20
202.091345676
 30
0.0
 10
218.6590041391
 20
201.997208522
 30
0.0
 10
218.7041222599
 20
201.8730167095
 30
0.0
 10
218.741272071
 20
201.722763523
 30
0.0
 10
218.7793508167
 20
201.4876377229
 30
0.0
 10
218.78996628
 20
201.3012644366
 30
0.0
 10
218.7900208541
 20
201.1736125658
 30
0.0
  0
SPLINE
  5
30B
100
AcDbEntity
  8
RUNDUNGEN
100
AcDbSpline
 62
7
  6
CONTINUOUS
 70
0
 71
3
 72
9
 73
5
 74
0
 42
0.0000001
 43
0.0000001
 44
0.0000000001
 40
0.0
 40
0.0
 40
0.0
 40
0.0
 40
0.5252445619
 40
1.0
 40
1.0
 40
1.0
 40
1.0
 10
223.8699186569
 20
152.0621789345
 30
0.0
 10
224.1170830371
 20
151.8985481003
 30
0.0
 10
224.5187414739
 20
151.4730053566
 30
0.0
 10
224.7279535758
 20
150.9362443252
 30
0.0
 10
224.7833477781
 20
150.6741059221
 30
0.0
  0
SPLINE
  5
30C
100
AcDbEntity
  8
RUNDUNGEN
100
AcDbSpline
 62
7
  6
CONTINUOUS
 70
0
 71
3
 72
12
 73
8
 74
0
 42
0.0000001
 43
0.0000001
 44
0.0000000001
 40
0.0
 40
0.0
 40
0.0
 40
0.0
 40
0.3103988198
 40
0.6069809753
 40
0.744686941
 40
0.867722204
 40
1.0
 40
1.0
 40
1.0
 40
1.0
 10
224.7833477781
 20
150.6741059221
 30
0.0
 10
224.7892573536
 20
150.6461404204
 30
0.0
 10
224.7998923024
 20
150.590481902
 30
0.0
 10
224.8103406695
 20
150.525443479
 30
0.0
 10
224.817388242
 20
150.4696109098
 30
0.0
 10
224.8206565094
 20
150.4470412445
 30
0.0
 10
224.8254669541
 20
150.3889699443
 30
0.0
 10
224.8249249757
 20
150.401138683
 30
0.0
  0
SPLINE
  5
30D
100
AcDbEntity
  8
RUNDUNGEN
100
AcDbSpline
 62
7
  6
CONTINUOUS
 70
0
 71
3
 72
17
 73
13
 74
0
 42
0.0000001
 43
0.0000001
 44
0.0000000001
 40
0.0
 40
0.0
 40
0.0
 40
0.0
 40
0.3980467196
 40
0.5687545431
 40
0.7160053828
 40
0.8357384521
 40
0.8837034854
 40
0.923287808
 40
0.9545810229
 40
0.9776810489
 40
0.9925562628
 40
1.0
 40
1.0
 40
1.0
 40
1.0
 10
223.4058804418
 20
197.3989449793
 30
0.0
 10
223.5004572235
 20
197.3789748228
 30
0.0
 10
223.6388043341
 20
197.369511704
 30
0.0
 10
223.811312624
 20
197.3471175594
 30
0.0
 10
223.9150966373
 20
197.3237239729
 30
0.0
 10
223.9891531752
 20
197.3045559199
 30
0.0
 10
224.0384248515
 20
197.2942928068
 30
0.0
 10
224.0668303916
 20
197.2889835894
 30
0.0
 10
224.0890335054
 20
197.2841253058
 30
0.0
 10
224.1052638199
 20
197.2786100099
 30
0.0
 10
224.1148237343
 20
197.2743276845
 30
0.0
 10
224.1196527318
 20
197.2701416268
 30
0.0
 10
224.1196596543
 20
197.2683339935
 30
0.0
  0
LINE
  5
30E
100
AcDbEntity
  8
RUNDUNGEN
100
AcDbLine
 62
7
  6
CONTINUOUS
 10
191.6986842499
 20
201.173642458
 11
218.7900208922
 21
201.1735754345
  0
LINE
  5
30F
100
AcDbEntity
  8
RUNDUNGEN
100
AcDbLine
 62
7
  6
CONTINUOUS
 10
72.308124716
 20
86.3577791273
 11
72.2375576668
 21
86.5792405379
  0
LINE
  5
310
100
AcDbEntity
  8
RUNDUNGEN
100
AcDbLine
 62
7
  6
CONTINUOUS
 10
72.2375576668
 20
86.5792405379
 11
72.1939521525
 21
86.7162026567
  0
SPLINE
  5
311
100
AcDbEntity
  8
RUNDUNGEN
100
AcDbSpline
 62
7
  6
CONTINUOUS
 70
0
 71
3
 72
11
 73
7
 74
0
 42
0.0000001
 43
0.0000001
 44
0.0000000001
 40
0.0
 40
0.0
 40
0.0
 40
0.0
 40
0.1362578968
 40
0.3663375525
 40
0.6651077921
 40
1.0
 40
1.0
 40
1.0
 40
1.0
 10
82.4053975095
 20
52.9973356539
 30
0.0
 10
82.332280322
 20
53.2050721341
 30
0.0
 10
82.145800082
 20
53.7670845743
 30
0.0
 10
81.809743
 20
54.7881665574
 30
0.0
 10
81.3774008333
 20
56.1155794689
 30
0.0
 10
81.0606497642
 20
57.0895275633
 30
0.0
 10
80.8933871621
 20
57.604309301
 30
0.0
  0
SPLINE
  5
312
100
AcDbEntity
  8
RUNDUNGEN
100
AcDbSpline
 62
7
  6
CONTINUOUS
 70
0
 71
3
 72
8
 73
4
 74
0
 42
0.0000001
 43
0.0000001
 44
0.0000000001
 40
0.0
 40
0.0
 40
0.0
 40
0.0
 40
1.0
 40
1.0
 40
1.0
 40
1.0
 10
81.4696236693
 20
51.6467505836
 30
0.0
 10
81.594836365
 20
51.6522481707
 30
0.0
 10
81.7210782193
 20
51.68131009
 30
0.0
 10
81.8359757254
 20
51.7313800985
 30
0.0
  0
SPLINE
  5
313
100
AcDbEntity
  8
RUNDUNGEN
100
AcDbSpline
 62
7
  6
CONTINUOUS
 70
0
 71
3
 72
12
 73
8
 74
0
 42
0.0000001
 43
0.0000001
 44
0.0000000001
 40
0.0
 40
0.0
 40
0.0
 40
0.0
 40
0.2826099537
 40
0.4122894362
 40
0.5362828941
 40
0.7724459012
 40
1.0
 40
1.0
 40
1.0
 40
1.0
 10
72.1939523043
 20
86.7162027059
 30
0.0
 10
72.1316668532
 20
86.9123954269
 30
0.0
 10
71.9875888773
 20
87.1855478166
 30
0.0
 10
71.7211710337
 20
87.4727687812
 30
0.0
 10
71.4397826746
 20
87.6943400251
 30
0.0
 10
71.0460119063
 20
87.8784762269
 30
0.0
 10
70.706509053
 20
87.928393317
 30
0.0
 10
70.5407673437
 20
87.9283019484
 30
0.0
  0
SPLINE
  5
314
100
AcDbEntity
  8
RUNDUNGEN
100
AcDbSpline
 62
7
  6
CONTINUOUS
 70
0
 71
3
 72
11
 73
7
 74
0
 42
0.0000001
 43
0.0000001
 44
0.0000000001
 40
0.0
 40
0.0
 40
0.0
 40
0.0
 40
0.334890963
 40
0.6336609042
 40
0.8637406514
 40
1.0
 40
1.0
 40
1.0
 40
1.0
 10
78.9577766977
 20
56.9753913392
 30
0.0
 10
79.1250389044
 20
56.4606115822
 30
0.0
 10
79.44125321
 20
55.4864916988
 30
0.0
 10
79.8717138396
 20
54.1584698691
 30
0.0
 10
80.2000125236
 20
53.1348649559
 30
0.0
 10
80.3794899049
 20
52.5705744551
 30
0.0
 10
80.4424390063
 20
52.3595317733
 30
0.0
  0
SPLINE
  5
315
100
AcDbEntity
  8
RUNDUNGEN
100
AcDbSpline
 62
7
  6
CONTINUOUS
 70
0
 71
3
 72
9
 73
5
 74
0
 42
0.0000001
 43
0.0000001
 44
0.0000000001
 40
0.0
 40
0.0
 40
0.0
 40
0.0
 40
0.2524230754
 40
1.0
 40
1.0
 40
1.0
 40
1.0
 10
79.5087952702
 20
52.9902365269
 30
0.0
 10
79.5244445998
 20
52.9420726562
 30
0.0
 10
79.5863950251
 20
52.7512515801
 30
0.0
 10
79.6481637918
 20
52.5603715203
 30
0.0
 10
79.6942308819
 20
52.4176385817
 30
0.0
  0
LINE
  5
316
100
AcDbEntity
  8
RUNDUNGEN
100
AcDbLine
 62
7
  6
CONTINUOUS
 10
79.6942308819
 20
52.4176385817
 11
79.7386315251
 21
52.2799504322
  0
LINE
  5
317
100
AcDbEntity
  8
RUNDUNGEN
100
AcDbLine
 62
7
  6
CONTINUOUS
 10
79.7386315251
 20
52.2799504322
 11
79.782082076
 21
52.1449734488
  0
LINE
  5
318
100
AcDbEntity
  8
RUNDUNGEN
100
AcDbLine
 62
7
  6
CONTINUOUS
 10
104.267578125
 20
75.9284233641
 11
100.2720520145
 21
75.9284002113
  0
SPLINE
  5
319
100
AcDbEntity
  8
RUNDUNGEN
100
AcDbSpline
 62
7
  6
CONTINUOUS
 70
0
 71
3
 72
15
 73
11
 74
0
 42
0.0000001
 43
0.0000001
 44
0.0000000001
 40
0.0
 40
0.0
 40
0.0
 40
0.0
 40
0.1245949149
 40
0.2493726564
 40
0.3742925746
 40
0.4993157428
 40
0.6244163991
 40
0.7495848056
 40
0.8748141714
 40
1.0
 40
1.0
 40
1.0
 40
1.0
 10
100.2720520145
 20
75.9284002113
 30
0.0
 10
100.1015187677
 20
75.9284000354
 30
0.0
 10
99.7577855003
 20
75.8613493081
 30
0.0
 10
99.3084285006
 20
75.6001084195
 30
0.0
 10
98.9493541675
 20
75.2259371354
 30
0.0
 10
98.6876719861
 20
74.779824535
 30
0.0
 10
98.5173569602
 20
74.292457589
 30
0.0
 10
98.4243627043
 20
73.785440132
 30
0.0
 10
98.382442044
 20
73.2732194319
 30
0.0
 10
98.3466442048
 20
72.9316565491
 30
0.0
 10
98.3142260773
 20
72.763409241
 30
0.0
  0
LINE
  5
31A
100
AcDbEntity
  8
RUNDUNGEN
100
AcDbLine
 62
7
  6
CONTINUOUS
 10
98.2533160175
 20
72.507298118
 11
92.6392608698
 21
52.9284348858
  0
SPLINE
  5
31B
100
AcDbEntity
  8
RUNDUNGEN
100
AcDbSpline
 62
7
  6
CONTINUOUS
 70
0
 71
3
 72
11
 73
7
 74
0
 42
0.0000001
 43
0.0000001
 44
0.0000000001
 40
0.0
 40
0.0
 40
0.0
 40
0.0
 40
0.256468927
 40
0.5092456147
 40
0.7566096952
 40
1.0
 40
1.0
 40
1.0
 40
1.0
 10
70.2274943651
 20
87.0706237242
 30
0.0
 10
70.1041537623
 20
87.0304151289
 30
0.0
 10
69.8717295356
 20
86.9039379578
 30
0.0
 10
69.6203979014
 20
86.603327904
 30
0.0
 10
69.5036638104
 20
86.2354457554
 30
0.0
 10
69.5304953687
 20
85.9801646326
 30
0.0
 10
69.5684069158
 20
85.8630336711
 30
0.0
  0
SPLINE
  5
31C
100
AcDbEntity
  8
RUNDUNGEN
100
AcDbSpline
 62
7
  6
CONTINUOUS
 70
0
 71
3
 72
11
 73
7
 74
0
 42
0.0000001
 43
0.0000001
 44
0.0000000001
 40
0.0
 40
0.0
 40
0.0
 40
0.0
 40
0.2564675308
 40
0.5092427154
 40
0.756607121
 40
1.0
 40
1.0
 40
1.0
 40
1.0
 10
70.2667818751
 20
87.0834455394
 30
0.0
 10
70.3902035011
 20
87.1234178699
 30
0.0
 10
70.6525890982
 20
87.1577145083
 30
0.0
 10
71.0326264713
 20
87.0622324135
 30
0.0
 10
71.3433043568
 20
86.8332011237
 30
0.0
 10
71.4716424106
 20
86.6108876563
 30
0.0
 10
71.5098158518
 20
86.4938356729
 30
0.0
  0
LINE
  5
31D
100
AcDbEntity
  8
RUNDUNGEN
100
AcDbLine
 62
7
  6
CONTINUOUS
 10
69.8959841283
 20
81.9282263098
 11
70.9484045421
 21
78.6892040223
  0
LINE
  5
31E
100
AcDbEntity
  8
RUNDUNGEN
100
AcDbLine
 62
7
  6
CONTINUOUS
 10
70.9484045421
 20
78.6892040223
 11
72.0282597818
 21
75.3657540025
  0
LINE
  5
31F
100
AcDbEntity
  8
RUNDUNGEN
100
AcDbLine
 62
7
  6
CONTINUOUS
 10
72.0282597818
 20
75.3657540025
 11
79.3185846068
 21
52.9284505048
  0
SPLINE
  5
320
100
AcDbEntity
  8
RUNDUNGEN
100
AcDbSpline
 62
7
  6
CONTINUOUS
 70
0
 71
3
 72
11
 73
7
 74
0
 42
0.0000001
 43
0.0000001
 44
0.0000000001
 40
0.0
 40
0.0
 40
0.0
 40
0.0
 40
0.2534797956
 40
0.5050058957
 40
0.7536015538
 40
1.0
 40
1.0
 40
1.0
 40
1.0
 10
81.7540095835
 20
51.76609422
 30
0.0
 10
81.8774168142
 20
51.806389397
 30
0.0
 10
82.1103616809
 20
51.9349197338
 30
0.0
 10
82.3597482527
 20
52.2417155532
 30
0.0
 10
82.4730394364
 20
52.6171426394
 30
0.0
 10
82.4442025336
 20
52.8772576083
 30
0.0
 10
82.4053981252
 20
52.9973358539
 30
0.0
  0
SPLINE
  5
321
100
AcDbEntity
  8
RUNDUNGEN
100
AcDbSpline
 62
7
  6
CONTINUOUS
 70
0
 71
3
 72
11
 73
7
 74
0
 42
0.0000001
 43
0.0000001
 44
0.0000000001
 40
0.0
 40
0.0
 40
0.0
 40
0.0
 40
0.2534794043
 40
0.5050050261
 40
0.753600716
 40
1.0
 40
1.0
 40
1.0
 40
1.0
 10
81.6931458222
 20
51.7462592757
 30
0.0
 10
81.5696184383
 20
51.7063199915
 30
0.0
 10
81.305604239
 20
51.673381836
 30
0.0
 10
80.9235050382
 20
51.7750120945
 30
0.0
 10
80.611177992
 20
52.0121692599
 30
0.0
 10
80.4816222094
 20
52.2395715492
 30
0.0
 10
80.4424401589
 20
52.3595321478
 30
0.0
  0
SPLINE
  5
322
100
AcDbEntity
  8
RUNDUNGEN
100
AcDbSpline
 62
7
  6
CONTINUOUS
 70
0
 71
3
 72
11
 73
7
 74
0
 42
0.0000001
 43
0.0000001
 44
0.0000000001
 40
0.0
 40
0.0
 40
0.0
 40
0.0
 40
0.3036458132
 40
0.5864083222
 40
0.8181570089
 40
1.0
 40
1.0
 40
1.0
 40
1.0
 10
68.7002916433
 20
85.4631389218
 30
0.0
 10
68.7285044271
 20
85.4692145958
 30
0.0
 10
68.7817350581
 20
85.487889361
 30
0.0
 10
68.8473839087
 20
85.5310450527
 30
0.0
 10
68.8902074371
 20
85.5837212514
 30
0.0
 10
68.8956883756
 20
85.6262825104
 30
0.0
 10
68.890498838
 20
85.6427679844
 30
0.0
  0
SPLINE
  5
323
100
AcDbEntity
  8
RUNDUNGEN
100
AcDbSpline
 62
7
  6
CONTINUOUS
 70
0
 71
3
 72
11
 73
7
 74
0
 42
0.0000001
 43
0.0000001
 44
0.0000000001
 40
0.0
 40
0.0
 40
0.0
 40
0.0
 40
0.3430736955
 40
0.6369393939
 40
0.8545552694
 40
1.0
 40
1.0
 40
1.0
 40
1.0
 10
79.5918775586
 20
52.1600110672
 30
0.0
 10
79.614069283
 20
52.1660946859
 30
0.0
 10
79.6560412561
 20
52.1749015613
 30
0.0
 10
79.7136251742
 20
52.1775387801
 30
0.0
 10
79.7574739684
 20
52.1710236372
 30
0.0
 10
79.7788933486
 20
52.1541880977
 30
0.0
 10
79.7820838313
 20
52.1449693704
 30
0.0
  0
SPLINE
  5
324
100
AcDbEntity
  8
RUNDUNGEN
100
AcDbSpline
 62
7
  6
CONTINUOUS
 70
0
 71
3
 72
11
 73
7
 74
0
 42
0.0000001
 43
0.0000001
 44
0.0000000001
 40
0.0
 40
0.0
 40
0.0
 40
0.0
 40
0.2731780866
 40
0.5254901813
 40
0.764610285
 40
1.0
 40
1.0
 40
1.0
 40
1.0
 10
79.6250056246
 20
52.0741369537
 30
0.0
 10
79.6909324751
 20
51.9164984549
 30
0.0
 10
79.8656722109
 20
51.6311365181
 30
0.0
 10
80.2216457808
 20
51.3044608422
 30
0.0
 10
80.6229824463
 20
51.0829670285
 30
0.0
 10
80.9104327611
 20
50.9991034523
 30
0.0
 10
81.055285148
 20
50.9727341662
 30
0.0
  0
SPLINE
  5
325
100
AcDbEntity
  8
RUNDUNGEN
100
AcDbSpline
 62
7
  6
CONTINUOUS
 70
0
 71
3
 72
13
 73
9
 74
0
 42
0.0000001
 43
0.0000001
 44
0.0000000001
 40
0.0
 40
0.0
 40
0.0
 40
0.0
 40
0.2255898237
 40
0.4557830286
 40
0.5796427003
 40
0.7117044667
 40
0.8527014308
 40
1.0
 40
1.0
 40
1.0
 40
1.0
 10
81.6298505124
 20
50.9499152312
 30
0.0
 10
81.8473934543
 20
50.9718787922
 30
0.0
 10
82.2828955409
 20
51.0857265726
 30
0.0
 10
82.7613089834
 20
51.402655225
 30
0.0
 10
83.0687456321
 20
51.7634349979
 30
0.0
 10
83.2525680471
 20
52.1052531838
 30
0.0
 10
83.3554384185
 20
52.503759648
 30
0.0
 10
83.3529337153
 20
52.787183721
 30
0.0
 10
83.3325449969
 20
52.9284868326
 30
0.0
  0
LINE
  5
326
100
AcDbEntity
  8
RUNDUNGEN
100
AcDbLine
 62
7
  6
CONTINUOUS
 10
92.6392608698
 20
52.9284348858
 11
92.6202476831
 21
52.8586381924
  0
LINE
  5
327
100
AcDbEntity
  8
RUNDUNGEN
100
AcDbLine
 62
7
  6
CONTINUOUS
 10
92.6202476831
 20
52.8586381924
 11
92.5633863155
 21
52.649902236
  0
LINE
  5
328
100
AcDbEntity
  8
RUNDUNGEN
100
AcDbLine
 62
7
  6
CONTINUOUS
 10
92.5633863155
 20
52.649902236
 11
92.4957144592
 21
52.4014813751
  0
LINE
  5
329
100
AcDbEntity
  8
RUNDUNGEN
100
AcDbLine
 62
7
  6
CONTINUOUS
 10
92.4957144592
 20
52.4014813751
 11
92.4890891639
 21
52.3771601742
  0
SPLINE
  5
32A
100
AcDbEntity
  8
RUNDUNGEN
100
AcDbSpline
 62
7
  6
CONTINUOUS
 70
0
 71
3
 72
11
 73
7
 74
0
 42
0.0000001
 43
0.0000001
 44
0.0000000001
 40
0.0
 40
0.0
 40
0.0
 40
0.0
 40
0.2898394594
 40
0.5457994297
 40
0.7784459298
 40
1.0
 40
1.0
 40
1.0
 40
1.0
 10
92.4890891639
 20
52.3771601742
 30
0.0
 10
92.4257361289
 20
52.1446367837
 30
0.0
 10
92.2277578542
 20
51.7234823768
 30
0.0
 10
91.7630206896
 20
51.2568451271
 30
0.0
 10
91.2270306746
 20
50.9872399334
 30
0.0
 10
90.8469125731
 20
50.9284601075
 30
0.0
 10
90.6626919416
 20
50.9284348858
 30
0.0
  0
LINE
  5
32B
100
AcDbEntity
  8
RUNDUNGEN
100
AcDbLine
 62
7
  6
CONTINUOUS
 10
79.3185841246
 20
52.9284505047
 11
79.3656556225
 21
52.7966418584
  0
LINE
  5
32C
100
AcDbEntity
  8
RUNDUNGEN
100
AcDbLine
 62
7
  6
CONTINUOUS
 10
79.3656556225
 20
52.7966418584
 11
79.4123712393
 21
52.6656119625
  0
LINE
  5
32D
100
AcDbEntity
  8
RUNDUNGEN
100
AcDbLine
 62
7
  6
CONTINUOUS
 10
79.4123712393
 20
52.6656119625
 11
79.4585711007
 21
52.5358118706
  0
LINE
  5
32E
100
AcDbEntity
  8
RUNDUNGEN
100
AcDbLine
 62
7
  6
CONTINUOUS
 10
79.4585711007
 20
52.5358118706
 11
79.5485092999
 21
52.2824838323
  0
LINE
  5
32F
100
AcDbEntity
  8
RUNDUNGEN
100
AcDbLine
 62
7
  6
CONTINUOUS
 10
79.5485092999
 20
52.2824838323
 11
79.5918775586
 21
52.1600100458
  0
SPLINE
  5
330
100
AcDbEntity
  8
RUNDUNGEN
100
AcDbSpline
 62
7
  6
CONTINUOUS
 70
0
 71
3
 72
10
 73
6
 74
0
 42
0.0000001
 43
0.0000001
 44
0.0000000001
 40
0.0
 40
0.0
 40
0.0
 40
0.0
 40
0.5001231406
 40
0.7501508398
 40
1.0
 40
1.0
 40
1.0
 40
1.0
 10
68.7656341076
 20
81.9284348858
 30
0.0
 10
69.1795818187
 20
81.4186920763
 30
0.0
 10
69.8029961425
 20
80.6536382118
 30
0.0
 10
70.5099158328
 20
79.5453569306
 30
0.0
 10
70.7864539995
 20
78.9450588423
 30
0.0
 10
70.887825912
 20
78.6330679936
 30
0.0
  0
SPLINE
  5
331
100
AcDbEntity
  8
RUNDUNGEN
100
AcDbSpline
 62
7
  6
CONTINUOUS
 70
0
 71
3
 72
10
 73
6
 74
0
 42
0.0000001
 43
0.0000001
 44
0.0000000001
 40
0.0
 40
0.0
 40
0.0
 40
0.0
 40
0.1194836019
 40
0.3345997484
 40
1.0
 40
1.0
 40
1.0
 40
1.0
 10
92.5852097207
 20
52.377161784
 30
0.0
 10
92.5841153632
 20
52.3733477671
 30
0.0
 10
92.5724445158
 20
52.3672905132
 30
0.0
 10
92.5401570447
 20
52.3663788755
 30
0.0
 10
92.5104493712
 20
52.3715023772
 30
0.0
 10
92.4890891637
 20
52.3771616246
 30
0.0
  0
SPLINE
  5
332
100
AcDbEntity
  8
RUNDUNGEN
100
AcDbSpline
 62
7
  6
CONTINUOUS
 70
0
 71
3
 72
10
 73
6
 74
0
 42
0.0000001
 43
0.0000001
 44
0.0000000001
 40
0.0
 40
0.0
 40
0.0
 40
0.0
 40
0.5359622021
 40
0.775689489
 40
1.0
 40
1.0
 40
1.0
 40
1.0
 10
72.384183499
 20
86.6214929711
 30
0.0
 10
72.3438538726
 20
86.6165122869
 30
0.0
 10
72.2808299158
 20
86.6235359278
 30
0.0
 10
72.2181280637
 20
86.6687599496
 30
0.0
 10
72.1993042448
 20
86.6999820155
 30
0.0
 10
72.1939811914
 20
86.7161344668
 30
0.0
  0
SPLINE
  5
333
100
AcDbEntity
  8
RUNDUNGEN
100
AcDbSpline
 62
7
  6
CONTINUOUS
 70
0
 71
3
 72
13
 73
9
 74
0
 42
0.0000001
 43
0.0000001
 44
0.0000000001
 40
0.0
 40
0.0
 40
0.0
 40
0.0
 40
0.2102095996
 40
0.3228589526
 40
0.5006512542
 40
0.6773538319
 40
0.7897915165
 40
1.0
 40
1.0
 40
1.0
 40
1.0
 10
70.2667824339
 20
87.0834438196
 30
0.0
 10
70.2650529509
 20
87.0888675349
 30
0.0
 10
70.260496831
 20
87.0966522662
 30
0.0
 10
70.2509392993
 20
87.106311893
 30
0.0
 10
70.2365565014
 20
87.109468015
 30
0.0
 10
70.2268011887
 20
87.0984542023
 30
0.0
 10
70.2248237953
 20
87.0850442647
 30
0.0
 10
70.2256844861
 20
87.0760758957
 30
0.0
 10
70.2274783058
 20
87.0706731495
 30
0.0
  0
SPLINE
  5
334
100
AcDbEntity
  8
RUNDUNGEN
100
AcDbSpline
 62
7
  6
CONTINUOUS
 70
0
 71
3
 72
9
 73
5
 74
0
 42
0.0000001
 43
0.0000001
 44
0.0000000001
 40
0.0
 40
0.0
 40
0.0
 40
0.0
 40
0.3862720093
 40
1.0
 40
1.0
 40
1.0
 40
1.0
 10
70.2274783058
 20
87.0706731495
 30
0.0
 10
70.3423642424
 20
86.7242495263
 30
0.0
 10
70.63457329
 20
85.8256913177
 30
0.0
 10
70.9271266159
 20
84.9272559379
 30
0.0
 10
71.1063233433
 20
84.3757446884
 30
0.0
  0
SPLINE
  5
335
100
AcDbEntity
  8
RUNDUNGEN
100
AcDbSpline
 62
7
  6
CONTINUOUS
 70
0
 71
3
 72
9
 73
5
 74
0
 42
0.0000001
 43
0.0000001
 44
0.0000000001
 40
0.0
 40
0.0
 40
0.0
 40
0.0
 40
0.6137279951
 40
1.0
 40
1.0
 40
1.0
 40
1.0
 10
71.1398227487
 20
84.386629305
 30
0.0
 10
70.9606257637
 20
84.9381404714
 30
0.0
 10
70.6692192303
 20
85.8369484626
 30
0.0
 10
70.3774613252
 20
86.7356532455
 30
0.0
 10
70.2667824339
 20
87.0834438196
 30
0.0
  0
SPLINE
  5
336
100
AcDbEntity
  8
RUNDUNGEN
100
AcDbSpline
 62
7
  6
CONTINUOUS
 70
0
 71
3
 72
13
 73
9
 74
0
 42
0.0000001
 43
0.0000001
 44
0.0000000001
 40
0.0
 40
0.0
 40
0.0
 40
0.0
 40
0.195284669
 40
0.305549604
 40
0.500323216
 40
0.6944625651
 40
0.8047154541
 40
1.0
 40
1.0
 40
1.0
 40
1.0
 10
81.693145698
 20
51.7462596582
 30
0.0
 10
81.6952401171
 20
51.7393479562
 30
0.0
 10
81.7015689097
 20
51.7293223905
 30
0.0
 10
81.7162661212
 20
51.7177955193
 30
0.0
 10
81.736788162
 20
51.7155847829
 30
0.0
 10
81.7520633693
 20
51.7294465305
 30
0.0
 10
81.7571652352
 20
51.7473881312
 30
0.0
 10
81.7564015616
 20
51.7592209612
 30
0.0
 10
81.7540267453
 20
51.7660414009
 30
0.0
  0
SPLINE
  5
337
100
AcDbEntity
  8
RUNDUNGEN
100
AcDbSpline
 62
7
  6
CONTINUOUS
 70
0
 71
3
 72
11
 73
7
 74
0
 42
0.0000001
 43
0.0000001
 44
0.0000000001
 40
0.0
 40
0.0
 40
0.0
 40
0.0
 40
0.1361622117
 40
0.366155381
 40
0.6649569619
 40
1.0
 40
1.0
 40
1.0
 40
1.0
 10
81.7540267453
 20
51.7660414009
 30
0.0
 10
81.6673492895
 20
52.0154993871
 30
0.0
 10
81.4443833739
 20
52.6897905144
 30
0.0
 10
81.0419711748
 20
53.9150678766
 30
0.0
 10
80.5232930097
 20
55.5081905601
 30
0.0
 10
80.1431362246
 20
56.6772784264
 30
0.0
 10
79.9423315504
 20
57.2952925805
 30
0.0
  0
SPLINE
  5
338
100
AcDbEntity
  8
RUNDUNGEN
100
AcDbSpline
 62
7
  6
CONTINUOUS
 70
0
 71
3
 72
11
 73
7
 74
0
 42
0.0000001
 43
0.0000001
 44
0.0000000001
 40
0.0
 40
0.0
 40
0.0
 40
0.0
 40
0.3350418904
 40
0.6338433941
 40
0.8638372557
 40
1.0
 40
1.0
 40
1.0
 40
1.0
 10
79.9088323207
 20
57.284408021
 30
0.0
 10
80.1096368577
 20
56.6663961249
 30
0.0
 10
80.4892551638
 20
55.4971357275
 30
0.0
 10
81.0060493082
 20
53.9034018605
 30
0.0
 10
81.4006885314
 20
52.6755965361
 30
0.0
 10
81.6166441314
 20
51.9990250273
 30
0.0
 10
81.693145698
 20
51.7462596582
 30
0.0
  0
SPLINE
  5
339
100
AcDbEntity
  8
RUNDUNGEN
100
AcDbSpline
 62
7
  6
CONTINUOUS
 70
0
 71
3
 72
13
 73
9
 74
0
 42
0.0000001
 43
0.0000001
 44
0.0000000001
 40
0.0
 40
0.0
 40
0.0
 40
0.0
 40
0.2206467071
 40
0.4502819581
 40
0.5729194886
 40
0.7033799692
 40
0.8445262749
 40
1.0
 40
1.0
 40
1.0
 40
1.0
 10
70.5407673437
 20
87.9284348858
 30
0.0
 10
70.3115763214
 20
87.928579657
 30
0.0
 10
69.8400731677
 20
87.8473501641
 30
0.0
 10
69.3138810628
 20
87.539673552
 30
0.0
 10
68.9685943379
 20
87.1720490161
 30
0.0
 10
68.7539750561
 20
86.8192806221
 30
0.0
 10
68.6152930289
 20
86.3936768188
 30
0.0
 10
68.5956982616
 20
86.0817745359
 30
0.0
 10
68.6073929228
 20
85.9207042125
 30
0.0
  0
LINE
  5
33A
100
AcDbEntity
  8
RUNDUNGEN
100
AcDbLine
 62
7
  6
CONTINUOUS
 10
83.06454445
 20
53.2115054775
 11
82.4053975095
 21
52.9973356539
  0
SPLINE
  5
33B
100
AcDbEntity
  8
RUNDUNGEN
100
AcDbSpline
 62
7
  6
CONTINUOUS
 70
0
 71
3
 72
9
 73
5
 74
0
 42
0.0000001
 43
0.0000001
 44
0.0000000001
 40
0.0
 40
0.0
 40
0.0
 40
0.0
 40
0.613547383
 40
1.0
 40
1.0
 40
1.0
 40
1.0
 10
72.090878377
 20
84.6956459733
 30
0.0
 10
71.9714494132
 20
85.0632103971
 30
0.0
 10
71.7773693381
 20
85.6624722089
 30
0.0
 10
71.5829390484
 20
86.261636598
 30
0.0
 10
71.5098179758
 20
86.4938257502
 30
0.0
  0
LINE
  5
33C
100
AcDbEntity
  8
RUNDUNGEN
100
AcDbLine
 62
7
  6
CONTINUOUS
 10
83.2547500685
 20
53.2733070393
 11
73.9442348136
 21
81.9281369558
  0
SPLINE
  5
33D
100
AcDbEntity
  8
RUNDUNGEN
100
AcDbSpline
 62
7
  6
CONTINUOUS
 70
0
 71
3
 72
9
 73
5
 74
0
 42
0.0000001
 43
0.0000001
 44
0.0000000001
 40
0.0
 40
0.0
 40
0.0
 40
0.0
 40
0.4533739706
 40
1.0
 40
1.0
 40
1.0
 40
1.0
 10
81.0532421313
 20
50.9820644369
 30
0.0
 10
81.1380463143
 20
50.9629139118
 30
0.0
 10
81.3285435607
 20
50.9346437286
 30
0.0
 10
81.5215952686
 20
50.9402585028
 30
0.0
 10
81.6256499722
 20
50.9529160267
 30
0.0
  0
SPLINE
  5
33E
100
AcDbEntity
  8
RUNDUNGEN
100
AcDbSpline
 62
7
  6
CONTINUOUS
 70
0
 71
3
 72
12
 73
8
 74
0
 42
0.0000001
 43
0.0000001
 44
0.0000000001
 40
0.0
 40
0.0
 40
0.0
 40
0.0
 40
0.2157904834
 40
0.4407544609
 40
0.6986788335
 40
0.8452840243
 40
1.0
 40
1.0
 40
1.0
 40
1.0
 10
81.6256499722
 20
50.9529160267
 30
0.0
 10
81.8204394103
 20
50.9766107937
 30
0.0
 10
82.2130246259
 20
51.0951585803
 30
0.0
 10
82.7322516231
 20
51.4825341749
 30
0.0
 10
83.0391086194
 20
51.986704331
 30
0.0
 10
83.1547939698
 20
52.4856226173
 30
0.0
 10
83.1525324541
 20
52.7629578973
 30
0.0
 10
83.1342475859
 20
52.9024528826
 30
0.0
  0
SPLINE
  5
33F
100
AcDbEntity
  8
RUNDUNGEN
100
AcDbSpline
 62
7
  6
CONTINUOUS
 70
0
 71
3
 72
9
 73
5
 74
0
 42
0.0000001
 43
0.0000001
 44
0.0000000001
 40
0.0
 40
0.0
 40
0.0
 40
0.0
 40
0.3864544367
 40
1.0
 40
1.0
 40
1.0
 40
1.0
 10
69.568407326
 20
85.8630331235
 30
0.0
 10
69.64572999
 20
85.6322066735
 30
0.0
 10
69.8406144464
 20
85.0331865351
 30
0.0
 10
70.0358386076
 20
84.4342931498
 30
0.0
 10
70.1552677379
 20
84.0667279533
 30
0.0
  0
LINE
  5
340
100
AcDbEntity
  8
RUNDUNGEN
100
AcDbLine
 62
7
  6
CONTINUOUS
 10
79.9423315504
 20
57.2952925805
 11
71.1398227487
 21
84.386629305
  0
LINE
  5
341
100
AcDbEntity
  8
RUNDUNGEN
100
AcDbLine
 62
7
  6
CONTINUOUS
 10
71.1063233433
 20
84.3757446884
 11
79.9088323207
 21
57.284408021
  0
LINE
  5
342
100
AcDbEntity
  8
RUNDUNGEN
100
AcDbLine
 62
7
  6
CONTINUOUS
 10
68.7656341076
 20
81.9284348858
 11
71.0400719266
 21
75.9284348857
  0
SPLINE
  5
343
100
AcDbEntity
  8
RUNDUNGEN
100
AcDbSpline
 62
7
  6
CONTINUOUS
 70
0
 71
3
 72
11
 73
7
 74
0
 42
0.0000001
 43
0.0000001
 44
0.0000000001
 40
0.0
 40
0.0
 40
0.0
 40
0.0
 40
0.2700154166
 40
0.5220386186
 40
0.7639496465
 40
1.0
 40
1.0
 40
1.0
 40
1.0
 10
72.2297233735
 20
86.9666816984
 30
0.0
 10
72.1385808852
 20
87.124936919
 30
0.0
 10
71.9152958852
 20
87.4061450561
 30
0.0
 10
71.4908269213
 20
87.7108102166
 30
0.0
 10
71.0249155067
 20
87.8885549899
 30
0.0
 10
70.7004195118
 20
87.9285138477
 30
0.0
 10
70.5407673437
 20
87.9284348858
 30
0.0
  0
LINE
  5
344
100
AcDbEntity
  8
RUNDUNGEN
100
AcDbLine
 62
7
  6
CONTINUOUS
 10
72.1939751191
 20
86.7161324942
 11
71.5098148547
 21
86.4938353489
  0
ELLIPSE
  5
345
100
AcDbEntity
  8
0
100
AcDbEllipse
 62
7
  6
CONTINUOUS
 10
93.9605249759
 20
146.1722369459
 30
0.0
 11
0.0
 21
2.745
 31
0.0
 40
0.2867453858
 41
0.0
 42
3.1415926536
  0
ELLIPSE
  5
346
100
AcDbEntity
  8
0
100
AcDbEllipse
 62
7
  6
CONTINUOUS
 10
77.8604833826
 20
146.1722369459
 30
0.0
 11
-0.0
 21
2.745
 31
0.0
 40
0.3249196962
 41
-3.1415926536
 42
-0.0
  0
ELLIPSE
  5
347
100
AcDbEntity
  8
0
100
AcDbEllipse
 62
7
  6
CONTINUOUS
 10
75.4203364639
 20
146.1722369459
 30
0.0
 11
0.0
 21
2.745
 31
0.0
 40
0.3249196962
 41
-0.0
 42
3.1415926536
  0
ELLIPSE
  5
348
100
AcDbEntity
  8
0
100
AcDbEllipse
 62
7
  6
CONTINUOUS
 10
96.1139828229
 20
146.1722369459
 30
0.0
 11
-0.0
 21
2.745
 31
0.0
 40
0.2867453858
 41
-3.1415926536
 42
0.0
  0
ENDSEC
  0
SECTION
  2
OBJECTS
  0
DICTIONARY
  5
C
100
AcDbDictionary
280
0
281
1
  3
ACAD_GROUP
350
D
  3
ACAD_MLINESTYLE
350
17
  3
ACAD_LAYOUT
350
1A
  3
ACAD_PLOTSETTINGS
350
19
  3
ACAD_PLOTSTYLENAME
350
E
  0
DICTIONARY
  5
D
102
{ACAD_REACTORS
330
C
102
}
100
AcDbDictionary
280
0
281
1
  0
ACDBDICTIONARYWDFLT
  5
E
102
{ACAD_REACTORS
330
C
102
}
100
AcDbDictionary
281
1
  3
Normal
350
F
100
AcDbDictionaryWithDefault
340
F
  0
DICTIONARY
  5
17
102
{ACAD_REACTORS
330
C
102
}
100
AcDbDictionary
280
0
281
1
  3
Standard
350
18
  0
DICTIONARY
  5
19
102
{ACAD_REACTORS
330
C
102
}
100
AcDbDictionary
281
1
  0
DICTIONARY
  5
1A
102
{ACAD_REACTORS
330
C
102
}
100
AcDbDictionary
281
1
  3
Model
350
349
  3
Layout1
350
34A
  0
ACDBPLACEHOLDER
  5
F
102
{ACAD_REACTORS
330
E
102
}
  0
MLINESTYLE
  5
18
102
{ACAD_REACTORS
330
17
102
}
100
AcDbMlineStyle
  2
STANDARD
 70
0
  3

 62
256
 51
90.0
 52
90.0
 71
2
 49
0.5
 62
256
  6
BYLAYER
 49
-0.5
 62
256
  6
BYLAYER
  0
LAYOUT
  5
349
102
{ACAD_REACTORS
330
1A
102
}
100
AcDbPlotSettings
  1

  2
none_device
  4
ISO_A4_(297.00_x_210.00_MM)
  6

 40
0.0
 41
0.0
 42
0.0
 43
0.0
 44
297.0
 45
210.0
 46
0.0
 47
0.0
 48
0.0
 49
0.0
140
0.0
141
0.0
142
1.0
143
1.0
 70
1024
 72
1
 73
0
 74
0
  7

 75
0
147
1.0
148
0.0
149
0.0
100
AcDbLayout
  1
Model
 70
0
 71
0
 10
0.0
 20
0.0
 11
297.0
 21
210.0
 12
0.0
 22
0.0
 32
0.0
 14
0.0
 24
0.0
 34
0.0
 15
0.0
 25
0.0
 35
0.0
146
0.0
 13
0.0
 23
0.0
 33
0.0
 16
1.0
 26
0.0
 36
0.0
 17
0.0
 27
1.0
 37
0.0
 76
0
330
20E
345
0
346
0
  0
LAYOUT
  5
34A
102
{ACAD_REACTORS
330
1A
102
}
100
AcDbPlotSettings
  1

  2
none_device
  4
ISO_A4_(297.00_x_210.00_MM)
  6

 40
0.0
 41
0.0
 42
0.0
 43
0.0
 44
297.0
 45
210.0
 46
0.0
 47
0.0
 48
0.0
 49
0.0
140
0.0
141
0.0
142
1.0
143
1.0
 70
0
 72
1
 73
0
 74
0
  7

 75
0
147
1.0
148
0.0
149
0.0
100
AcDbLayout
  1
Layout1
 70
0
 71
1
 10
0.0
 20
0.0
 11
297.0
 21
210.0
 12
0.0
 22
0.0
 32
0.0
 14
0.0
 24
0.0
 34
0.0
 15
0.0
 25
0.0
 35
0.0
146
0.0
 13
0.0
 23
0.0
 33
0.0
 16
1.0
 26
0.0
 36
0.0
 17
0.0
 27
1.0
 37
0.0
 76
0
330
20F
345
0
346
0
  0
ENDSEC
  0
EOF
