999
DXF file: S:\Prolink\03_Konstruktion\CAD-Plots\Internet\2D_neu\S5\s5-45_grt_sml_sg_h25_w38.dxf
999
Pro/ENGINEER 2012230 by Parametric Technology Corporation
  0
SECTION
  2
HEADER
  9
$ACADVER
  1
AC1021
  9
$DWGCODEPAGE
  3
ANSI_1252
  9
$EXTMAX
 10
297.0
 20
210.0
 30
0.0
  9
$EXTMIN
 10
0.0
 20
0.0
 30
0.0
  9
$LIMMIN
 10
0.0
 20
0.0
  9
$LIMMAX
 10
297.0
 20
210.0
  9
$VIEWCTR
 10
148.5
 20
105.0
  9
$VIEWSIZE
 40
210.0
  9
$CLAYER
  8
0
  9
$LTSCALE
 40
16.335
  9
$CELTYPE
  6
BYLAYER
  9
$DIMSCALE
 40
1.0
  9
$DIMASZ
 40
3.5
  9
$DIMEXO
 40
0.0
  9
$DIMDLI
 40
11.286
  9
$DIMEXE
 40
1.5
  9
$DIMCEN
 40
2.673
  9
$DIMLFAC
 40
1.0
  9
$DIMBLK
  1
_FILLED
  9
$DIMTXT
 40
3.5
  9
$DIMTOL
 70
1
  9
$DIMLIM
 70
0
  9
$DIMTFAC
 40
1.0
  9
$DIMTP
 40
0.005
  9
$DIMTM
 40
0.005
  9
$DIMGAP
 40
0.625
  9
$DIMDSEP
 70
46
  9
$PDMODE
 70
3
  9
$PDSIZE
 40
0.3125
  9
$HANDSEED
  5
33D
  9
$TILEMODE
 70
1
  9
$MEASUREMENT
 70
1
  9
$INSUNITS
 70
4
  0
ENDSEC
  0
SECTION
  2
CLASSES
  0
CLASS
  1
ACDBDICTIONARYWDFLT
  2
AcDbDictionaryWithDefault
  3
AutoCAD 2000
 90
0
 91
1
280
0
281
0
  0
CLASS
  1
ACDBPLACEHOLDER
  2
AcDbPlaceHolder
  3
AutoCAD 2000
 90
0
 91
1
280
0
281
0
  0
CLASS
  1
LAYOUT
  2
AcDbLayout
  3
AutoCAD 2000
 90
0
 91
0
280
0
281
0
  0
ENDSEC
  0
SECTION
  2
TABLES
  0
TABLE
  2
VPORT
  5
8
100
AcDbSymbolTable
 70
2
  0
VPORT
  5
1F4
100
AcDbSymbolTableRecord
100
AcDbViewportTableRecord
  2
*ACTIVE
 70
0
 10
0.0
 20
0.0
 11
1.0
 21
1.0
 12
148.5
 22
105.0
 13
0.0
 23
0.0
 14
1.0
 24
1.0
 15
0.0
 25
0.0
 16
0.0
 26
0.0
 36
1.0
 17
0.0
 27
0.0
 37
0.0
 40
210.0
 41
1.4142857143
 42
50.0
 43
0.0
 44
0.0
 50
0.0
 51
0.0
 71
0
 72
100
 73
1
 74
1
 75
0
 76
0
 77
0
 78
0
  0
ENDTAB
  0
TABLE
  2
LTYPE
  5
5
100
AcDbSymbolTable
 70
6
  0
LTYPE
  5
14
100
AcDbSymbolTableRecord
100
AcDbLinetypeTableRecord
  2
BYBLOCK
 70
0
  3

 72
65
 73
0
 40
0.0
  0
LTYPE
  5
15
100
AcDbSymbolTableRecord
100
AcDbLinetypeTableRecord
  2
BYLAYER
 70
0
  3

 72
65
 73
0
 40
0.0
  0
LTYPE
  5
16
100
AcDbSymbolTableRecord
100
AcDbLinetypeTableRecord
  2
CONTINUOUS
 70
64
  3
Solid line
 72
65
 73
0
 40
0.0
  0
LTYPE
  5
1F5
100
AcDbSymbolTableRecord
100
AcDbLinetypeTableRecord
  2
CENTER
 70
64
  3
____ _ ____ _ ____ _ ____ _ ____ _ ____ _ ____
 72
65
 73
4
 40
0.6
 49
0.375
 74
0
 49
-0.075
 74
0
 49
0.075
 74
0
 49
-0.075
 74
0
  0
LTYPE
  5
1F6
100
AcDbSymbolTableRecord
100
AcDbLinetypeTableRecord
  2
HIDDEN
 70
64
  3
- - - - - - - - - - - - - - - - - - - -
 72
65
 73
2
 40
0.2
 49
0.1
 74
0
 49
-0.1
 74
0
  0
LTYPE
  5
1F7
100
AcDbSymbolTableRecord
100
AcDbLinetypeTableRecord
  2
PHANTOM
 70
64
  3
_____ _ _ _____ _ _ _____ _ _ _____
 72
65
 73
6
 40
0.8
 49
0.45
 74
0
 49
-0.05
 74
0
 49
0.1
 74
0
 49
-0.05
 74
0
 49
0.1
 74
0
 49
-0.05
 74
0
  0
LTYPE
  5
1F8
100
AcDbSymbolTableRecord
100
AcDbLinetypeTableRecord
  2
DOT
 70
64
  3
. . . . . . . . . . . . . . . . . . . .
 72
65
 73
2
 40
0.2
 49
0.1
 74
0
 49
-0.1
 74
0
  0
LTYPE
  5
1F9
100
AcDbSymbolTableRecord
100
AcDbLinetypeTableRecord
  2
DASHED
 70
64
  3
- - - - - - - - - - - - - - - - - - - -
 72
65
 73
2
 40
0.2
 49
0.1
 74
0
 49
-0.1
 74
0
  0
ENDTAB
  0
TABLE
  2
LAYER
  5
2
100
AcDbSymbolTable
 70
36
  0
LAYER
  5
10
100
AcDbSymbolTableRecord
100
AcDbLayerTableRecord
  2
0
 70
0
 62
7
  6
CONTINUOUS
370
-3
390
F
  0
LAYER
  5
1FA
100
AcDbSymbolTableRecord
100
AcDbLayerTableRecord
  2
DEFAULT_1
 70
0
 62
7
  6
CENTER
370
-3
390
F
  0
LAYER
  5
1FB
100
AcDbSymbolTableRecord
100
AcDbLayerTableRecord
  2
DEFAULT_2
 70
0
 62
8
  6
HIDDEN
370
-3
390
F
  0
LAYER
  5
1FC
100
AcDbSymbolTableRecord
100
AcDbLayerTableRecord
  2
DEFAULT_3
 70
0
 62
7
  6
PHANTOM
370
-3
390
F
  0
LAYER
  5
1FD
100
AcDbSymbolTableRecord
100
AcDbLayerTableRecord
  2
01___PRT_ALL_DTM_PLN
 70
0
 62
7
  6
CONTINUOUS
370
-3
390
F
  0
LAYER
  5
1FE
100
AcDbSymbolTableRecord
100
AcDbLayerTableRecord
  2
01___PRT_DEF_DTM_PLN
 70
0
 62
7
  6
CONTINUOUS
370
-3
390
F
  0
LAYER
  5
1FF
100
AcDbSymbolTableRecord
100
AcDbLayerTableRecord
  2
02___PRT_ALL_AXES
 70
0
 62
7
  6
CONTINUOUS
370
-3
390
F
  0
LAYER
  5
200
100
AcDbSymbolTableRecord
100
AcDbLayerTableRecord
  2
03___PRT_ALL_CURVES
 70
0
 62
7
  6
CONTINUOUS
370
-3
390
F
  0
LAYER
  5
201
100
AcDbSymbolTableRecord
100
AcDbLayerTableRecord
  2
04___PRT_ALL_DTM_PNT
 70
0
 62
7
  6
CONTINUOUS
370
-3
390
F
  0
LAYER
  5
202
100
AcDbSymbolTableRecord
100
AcDbLayerTableRecord
  2
05___PRT_ALL_DTM_CSYS
 70
0
 62
7
  6
CONTINUOUS
370
-3
390
F
  0
LAYER
  5
203
100
AcDbSymbolTableRecord
100
AcDbLayerTableRecord
  2
05___PRT_DEF_DTM_CSYS
 70
0
 62
7
  6
CONTINUOUS
370
-3
390
F
  0
LAYER
  5
204
100
AcDbSymbolTableRecord
100
AcDbLayerTableRecord
  2
06___PRT_ALL_SURFS
 70
0
 62
7
  6
CONTINUOUS
370
-3
390
F
  0
LAYER
  5
205
100
AcDbSymbolTableRecord
100
AcDbLayerTableRecord
  2
AUSFORMSCHRAEGEN
 70
0
 62
7
  6
CONTINUOUS
370
-3
390
F
  0
LAYER
  5
206
100
AcDbSymbolTableRecord
100
AcDbLayerTableRecord
  2
BEZUGSACHSEN
 70
0
 62
7
  6
CONTINUOUS
370
-3
390
F
  0
LAYER
  5
207
100
AcDbSymbolTableRecord
100
AcDbLayerTableRecord
  2
BEZUGSEBENE
 70
0
 62
7
  6
CONTINUOUS
370
-3
390
F
  0
LAYER
  5
208
100
AcDbSymbolTableRecord
100
AcDbLayerTableRecord
  2
BEZUGSEBENEN
 70
0
 62
7
  6
CONTINUOUS
370
-3
390
F
  0
LAYER
  5
209
100
AcDbSymbolTableRecord
100
AcDbLayerTableRecord
  2
BEZUGSEBENEN-KES
 70
0
 62
7
  6
CONTINUOUS
370
-3
390
F
  0
LAYER
  5
20A
100
AcDbSymbolTableRecord
100
AcDbLayerTableRecord
  2
KURVEN
 70
0
 62
7
  6
CONTINUOUS
370
-3
390
F
  0
LAYER
  5
20B
100
AcDbSymbolTableRecord
100
AcDbLayerTableRecord
  2
RUNDUNGEN
 70
0
 62
7
  6
CONTINUOUS
370
-3
390
F
  0
ENDTAB
  0
TABLE
  2
STYLE
  5
3
100
AcDbSymbolTable
 70
1
  0
STYLE
  5
11
100
AcDbSymbolTableRecord
100
AcDbTextStyleTableRecord
  2
STANDARD
 70
0
 40
0.0
 41
0.7
 50
0.0
 71
0
 42
0.2
  3
txt
  4

  0
STYLE
  5
20C
100
AcDbSymbolTableRecord
100
AcDbTextStyleTableRecord
  2
TEXTSTYLE_1
 70
0
 40
0.0
 41
0.8
 50
0.0
 71
0
 42
0.2
  3
gdt
  4

  0
ENDTAB
  0
TABLE
  2
VIEW
  5
6
100
AcDbSymbolTable
 70
0
  0
ENDTAB
  0
TABLE
  2
UCS
  5
7
100
AcDbSymbolTable
 70
0
  0
ENDTAB
  0
TABLE
  2
APPID
  5
9
100
AcDbSymbolTable
 70
1
  0
APPID
  5
20D
100
AcDbSymbolTableRecord
100
AcDbRegAppTableRecord
  2
ACAD
 70
0
  0
ENDTAB
  0
TABLE
  2
BLOCK_RECORD
  5
1
100
AcDbSymbolTable
 70
0
  0
BLOCK_RECORD
  5
20E
100
AcDbSymbolTableRecord
100
AcDbBlockTableRecord
  2
*Model_Space
  0
BLOCK_RECORD
  5
20F
100
AcDbSymbolTableRecord
100
AcDbBlockTableRecord
  2
*Paper_Space
  0
ENDTAB
  0
TABLE
  2
DIMSTYLE
  5
A
100
AcDbSymbolTable
 70
1
100
AcDbDimStyleTable
 71
0
  0
DIMSTYLE
105
210
100
AcDbSymbolTableRecord
100
AcDbDimStyleTableRecord
  2
STANDARD
 70
0
  3

  4

 40
1.0
 41
3.5
 42
0.0
 43
0.38
 44
1.5
 45
0.0
 46
0.0
 47
0.005
 48
0.005
140
3.5
141
0.09
142
0.0
143
25.4
144
1.0
145
0.0
146
1.0
147
0.625
 71
1.0
 72
0.0
 73
0
 74
0
 75
0
 76
0
 77
1
 78
8
170
0
171
2
172
0
173
0
174
0
175
0
176
0
177
0
178
5
270
2
271
3
272
3
273
2
274
2
275
0
280
0
281
0
282
0
283
1
284
8
285
0
286
0
287
3
288
0
340
11
278
46
  0
ENDTAB
  0
ENDSEC
  0
SECTION
  2
BLOCKS
  0
BLOCK
  5
20
100
AcDbEntity
  8
0
100
AcDbBlockBegin
  2
*Model_Space
 70
0
 10
0.0
 20
0.0
 30
0.0
  3
*Model_Space
  1

  0
ENDBLK
  5
21
100
AcDbEntity
  8
0
100
AcDbBlockEnd
  0
BLOCK
  5
1C
100
AcDbEntity
  8
0
100
AcDbBlockBegin
  2
*Paper_Space
 70
0
 10
0.0
 20
0.0
 30
0.0
  3
*Paper_Space
  1

  0
ENDBLK
  5
1D
100
AcDbEntity
  8
0
100
AcDbBlockEnd
  0
ENDSEC
  0
SECTION
  2
ENTITIES
  0
LINE
  5
211
100
AcDbEntity
  8
0
100
AcDbLine
 62
7
  6
CONTINUOUS
 10
0.0
 20
0.0
 11
0.0
 21
210.0
  0
LINE
  5
212
100
AcDbEntity
  8
0
100
AcDbLine
 62
7
  6
CONTINUOUS
 10
0.0
 20
0.0
 11
297.0
 21
0.0
  0
LINE
  5
213
100
AcDbEntity
  8
0
100
AcDbLine
 62
7
  6
CONTINUOUS
 10
0.0
 20
210.0
 11
297.0
 21
210.0
  0
LINE
  5
214
100
AcDbEntity
  8
0
100
AcDbLine
 62
7
  6
CONTINUOUS
 10
297.0
 20
0.0
 11
297.0
 21
210.0
  0
LINE
  5
215
100
AcDbEntity
  8
RUNDUNGEN
100
AcDbLine
 62
7
  6
CONTINUOUS
 10
69.2398690623
 20
175.6864565914
 11
69.2397895454
 21
175.6861464016
  0
LWPOLYLINE
  5
216
100
AcDbEntity
  8
RUNDUNGEN
100
AcDbPolyline
 62
7
  6
CONTINUOUS
 90
4
 70
0
 10
69.2397817137
 20
175.6861484214
 10
69.2089271921
 20
175.5340492238
 10
69.1915161182
 20
175.3232768473
 10
69.1912759059
 20
175.3012740775
  0
LINE
  5
217
100
AcDbEntity
  8
02___PRT_ALL_AXES
100
AcDbLine
 62
7
  6
CONTINUOUS
 10
67.767578125
 20
152.1679535081
 11
67.767578125
 21
140.1679535081
  0
LWPOLYLINE
  5
218
100
AcDbEntity
  8
0
100
AcDbPolyline
 62
7
  6
CONTINUOUS
 90
6
 70
0
 10
69.1912760232
 20
175.3012732045
 10
69.1458466021
 20
170.3931933903
 10
69.0630053757
 20
165.3223668884
 10
68.966669486
 20
160.3514718844
 10
68.8772285792
 20
155.4801285724
 10
68.8325575504
 20
152.1679535081
  0
LINE
  5
219
100
AcDbEntity
  8
RUNDUNGEN
100
AcDbLine
 62
7
  6
CONTINUOUS
 10
79.440578909
 20
140.2658404755
 11
79.440578909
 21
152.0700665407
  0
LINE
  5
21A
100
AcDbEntity
  8
RUNDUNGEN
100
AcDbLine
 62
7
  6
CONTINUOUS
 10
81.3426919416
 20
142.1679535081
 11
81.3426919416
 21
150.1679535081
  0
LINE
  5
21B
100
AcDbEntity
  8
02___PRT_ALL_AXES
100
AcDbLine
 62
7
  6
CONTINUOUS
 10
67.767578125
 20
140.1679535081
 11
68.7656341079
 21
140.1679535081
  0
LINE
  5
21C
100
AcDbEntity
  8
RUNDUNGEN
100
AcDbLine
 62
7
  6
CONTINUOUS
 10
68.7656341079
 20
140.1679535081
 11
100.2720520145
 21
140.1679535081
  0
LINE
  5
21D
100
AcDbEntity
  8
0
100
AcDbLine
 62
7
  6
CONTINUOUS
 10
100.2720520145
 20
140.1679535081
 11
104.267427207
 21
140.1679535081
  0
LWPOLYLINE
  5
21E
100
AcDbEntity
  8
RUNDUNGEN
100
AcDbPolyline
 62
7
  6
CONTINUOUS
 90
3
 70
0
 10
82.7866324385
 20
173.1004586244
 10
82.7828786258
 20
173.2256165767
 10
82.7553108831
 20
173.4931397392
  0
LWPOLYLINE
  5
21F
100
AcDbEntity
  8
0
100
AcDbPolyline
 62
7
  6
CONTINUOUS
 90
4
 70
0
 10
83.0385964404
 20
158.1478237011
 10
82.8901872919
 20
165.856818692
 10
82.8271719313
 20
169.6746022028
 10
82.786621296
 20
173.1019755376
  0
LWPOLYLINE
  5
220
100
AcDbEntity
  8
0
100
AcDbPolyline
 62
7
  6
CONTINUOUS
 90
3
 70
0
 10
83.1317972443
 20
152.3512027107
 10
83.1052600232
 20
154.2563819036
 10
83.0385964404
 20
158.1478237011
  0
LINE
  5
221
100
AcDbEntity
  8
RUNDUNGEN
100
AcDbLine
 62
7
  6
CONTINUOUS
 10
83.1318023173
 20
152.3507883577
 11
83.1318004809
 21
152.3509446692
  0
LINE
  5
222
100
AcDbEntity
  8
RUNDUNGEN
100
AcDbLine
 62
7
  6
CONTINUOUS
 10
82.7866327074
 20
173.1004320408
 11
82.7866215471
 21
173.1019476598
  0
LINE
  5
223
100
AcDbEntity
  8
RUNDUNGEN
100
AcDbLine
 62
7
  6
CONTINUOUS
 10
105.267578125
 20
142.1679418508
 11
104.267578125
 21
142.1679418534
  0
LINE
  5
224
100
AcDbEntity
  8
RUNDUNGEN
100
AcDbLine
 62
7
  6
CONTINUOUS
 10
90.6626919416
 20
142.1679535081
 11
81.3426919416
 21
142.1679535081
  0
LINE
  5
225
100
AcDbEntity
  8
0
100
AcDbLine
 62
7
  6
CONTINUOUS
 10
77.8604833826
 20
143.4229535081
 11
75.4203364639
 21
143.4229535081
  0
LINE
  5
226
100
AcDbEntity
  8
0
100
AcDbLine
 62
7
  6
CONTINUOUS
 10
93.9605249759
 20
143.4229535081
 11
96.1139828229
 21
143.4229535081
  0
LINE
  5
227
100
AcDbEntity
  8
0
100
AcDbLine
 62
7
  6
CONTINUOUS
 10
96.1139828229
 20
148.9129535081
 11
93.9605249759
 21
148.9129535081
  0
LINE
  5
228
100
AcDbEntity
  8
0
100
AcDbLine
 62
7
  6
CONTINUOUS
 10
75.4203364639
 20
148.9129535081
 11
77.8604833826
 21
148.9129535081
  0
LWPOLYLINE
  5
229
100
AcDbEntity
  8
RUNDUNGEN
100
AcDbPolyline
 62
7
  6
CONTINUOUS
 90
5
 70
0
 10
83.176400087
 20
152.2335101972
 10
83.153074164
 20
152.268018275
 10
83.138246134
 20
152.3056180504
 10
83.1321555307
 20
152.3418475744
 10
83.1317972843
 20
152.3509981709
  0
LWPOLYLINE
  5
22A
100
AcDbEntity
  8
RUNDUNGEN
100
AcDbPolyline
 62
7
  6
CONTINUOUS
 90
15
 70
0
 10
82.7553764006
 20
173.4926929363
 10
82.6828154647
 20
173.910585667
 10
82.5750408431
 20
174.4130178272
 10
82.4480774787
 20
174.8877061212
 10
82.3069308419
 20
175.3147292691
 10
82.1584647732
 20
175.681049407
 10
82.0015133141
 20
175.9978977039
 10
81.8365753482
 20
176.2694181177
 10
81.6592919618
 20
176.5050187253
 10
81.4626621687
 20
176.7113011913
 10
81.2469113162
 20
176.8838088293
 10
81.0102056345
 20
177.0200034803
 10
80.7600950918
 20
177.1131498223
 10
80.508612373
 20
177.1604748859
 10
80.3643068468
 20
177.1679359394
  0
LINE
  5
22B
100
AcDbEntity
  8
RUNDUNGEN
100
AcDbLine
 62
7
  6
CONTINUOUS
 10
82.7553062532
 20
173.4931390113
 11
82.7553764006
 21
173.4926929363
  0
LINE
  5
22C
100
AcDbEntity
  8
RUNDUNGEN
100
AcDbLine
 62
7
  6
CONTINUOUS
 10
90.6626919416
 20
142.1679535081
 11
90.6626919416
 21
150.1679535081
  0
LINE
  5
22D
100
AcDbEntity
  8
RUNDUNGEN
100
AcDbLine
 62
7
  6
CONTINUOUS
 10
90.6626919416
 20
150.1679535081
 11
81.3426919416
 21
150.1679535081
  0
LINE
  5
22E
100
AcDbEntity
  8
RUNDUNGEN
100
AcDbLine
 62
7
  6
CONTINUOUS
 10
105.267578125
 20
150.1679650298
 11
104.267578125
 21
150.1679650298
  0
LINE
  5
22F
100
AcDbEntity
  8
RUNDUNGEN
100
AcDbLine
 62
7
  6
CONTINUOUS
 10
83.3307747788
 20
152.1590305642
 11
83.3151310845
 21
152.1679534948
  0
LWPOLYLINE
  5
230
100
AcDbEntity
  8
RUNDUNGEN
100
AcDbPolyline
 62
7
  6
CONTINUOUS
 90
3
 70
0
 10
83.2410002492
 20
152.1844851973
 10
83.2066297041
 20
152.205021577
 10
83.176400087
 20
152.2335101972
  0
LINE
  5
231
100
AcDbEntity
  8
RUNDUNGEN
100
AcDbLine
 62
7
  6
CONTINUOUS
 10
92.5852153335
 20
140.3415562858
 11
92.5852153335
 21
151.9943507304
  0
LINE
  5
232
100
AcDbEntity
  8
RUNDUNGEN
100
AcDbLine
 62
7
  6
CONTINUOUS
 10
104.267578125
 20
152.1679535081
 11
83.3151023677
 21
152.1679535081
  0
LINE
  5
233
100
AcDbEntity
  8
02___PRT_ALL_AXES
100
AcDbLine
 62
7
  6
CONTINUOUS
 10
67.767578125
 20
152.1679535081
 11
68.7656341076
 21
152.1679535081
  0
LINE
  5
234
100
AcDbEntity
  8
RUNDUNGEN
100
AcDbLine
 62
7
  6
CONTINUOUS
 10
68.7656341076
 20
152.1679535081
 11
79.3366893799
 21
152.1679535081
  0
LWPOLYLINE
  5
235
100
AcDbEntity
  8
RUNDUNGEN
100
AcDbPolyline
 62
7
  6
CONTINUOUS
 90
4
 70
0
 10
83.313923385
 20
152.1679235701
 10
83.3046360465
 20
152.1682489986
 10
83.2753509811
 20
152.1726309696
 10
83.2410002492
 20
152.1844851973
  0
LINE
  5
236
100
AcDbEntity
  8
RUNDUNGEN
100
AcDbLine
 62
7
  6
CONTINUOUS
 10
98.3495283425
 20
152.0678635892
 11
98.3495283503
 21
140.2680435859
  0
LINE
  5
237
100
AcDbEntity
  8
RUNDUNGEN
100
AcDbLine
 62
7
  6
CONTINUOUS
 10
100.2720520145
 20
152.1679535081
 11
100.2720520145
 21
140.1679535081
  0
LINE
  5
238
100
AcDbEntity
  8
RUNDUNGEN
100
AcDbLine
 62
7
  6
CONTINUOUS
 10
104.267578125
 20
152.1679535081
 11
104.267578125
 21
142.1681500142
  0
LINE
  5
239
100
AcDbEntity
  8
0
100
AcDbLine
 62
7
  6
CONTINUOUS
 10
104.2675781242
 20
142.1681500142
 11
104.267578125
 21
140.1679535081
  0
LINE
  5
23A
100
AcDbEntity
  8
RUNDUNGEN
100
AcDbLine
 62
7
  6
CONTINUOUS
 10
105.267578125
 20
151.1679535081
 11
105.267578125
 21
142.1679418508
  0
LINE
  5
23B
100
AcDbEntity
  8
0
100
AcDbLine
 62
7
  6
CONTINUOUS
 10
105.267578125
 20
142.1679418508
 11
105.267578125
 21
141.1679656089
  0
LINE
  5
23C
100
AcDbEntity
  8
0
100
AcDbLine
 62
7
  6
CONTINUOUS
 10
80.3604353526
 20
177.1679535081
 11
79.7033998122
 21
177.1679535081
  0
LINE
  5
23D
100
AcDbEntity
  8
0
100
AcDbLine
 62
7
  6
CONTINUOUS
 10
71.3452549885
 20
177.1679535081
 11
70.6882192199
 21
177.1679535081
  0
LINE
  5
23E
100
AcDbEntity
  8
RUNDUNGEN
100
AcDbLine
 62
7
  6
CONTINUOUS
 10
70.6842655236
 20
177.1679448671
 11
80.3603385636
 21
177.1679535081
  0
LINE
  5
23F
100
AcDbEntity
  8
RUNDUNGEN
100
AcDbLine
 62
7
  6
CONTINUOUS
 10
80.3604353526
 20
177.1679535081
 11
80.3643068843
 21
177.1679452225
  0
LWPOLYLINE
  5
240
100
AcDbEntity
  8
RUNDUNGEN
100
AcDbPolyline
 62
7
  6
CONTINUOUS
 90
12
 70
0
 10
70.6842656223
 20
177.1679214412
 10
70.4919993184
 20
177.1516425822
 10
70.3102510161
 20
177.1065911958
 10
70.1348577695
 20
177.0329677106
 10
69.9695218744
 20
176.9317152059
 10
69.8189368264
 20
176.8059928008
 10
69.6854075018
 20
176.6596415721
 10
69.5675099627
 20
176.4935582497
 10
69.4641493181
 20
176.3085908227
 10
69.3718348325
 20
176.0996532894
 10
69.2886962383
 20
175.8600668782
 10
69.2398690623
 20
175.6864565914
  0
LINE
  5
241
100
AcDbEntity
  8
RUNDUNGEN
100
AcDbLine
 62
7
  6
CONTINUOUS
 10
188.6918728543
 20
176.0533817187
 11
188.6918428264
 21
176.0533433221
  0
LINE
  5
242
100
AcDbEntity
  8
RUNDUNGEN
100
AcDbLine
 62
7
  6
CONTINUOUS
 10
188.7942896764
 20
176.1772336404
 11
188.6918878941
 21
176.0533699596
  0
LWPOLYLINE
  5
243
100
AcDbEntity
  8
RUNDUNGEN
100
AcDbPolyline
 62
7
  6
CONTINUOUS
 90
8
 70
0
 10
188.6332276881
 20
175.9749332803
 10
188.5599517774
 20
175.8656740531
 10
188.4967221594
 20
175.7587633645
 10
188.4420884244
 20
175.653994366
 10
188.3950881914
 20
175.5514465892
 10
188.3550490899
 20
175.4513783687
 10
188.3209923835
 20
175.3525777301
 10
188.2931458833
 20
175.2566604776
  0
LINE
  5
244
100
AcDbEntity
  8
RUNDUNGEN
100
AcDbLine
 62
7
  6
CONTINUOUS
 10
188.6918428264
 20
176.0533433221
 11
188.6332276881
 21
175.9749332803
  0
LWPOLYLINE
  5
245
100
AcDbEntity
  8
RUNDUNGEN
100
AcDbPolyline
 62
7
  6
CONTINUOUS
 90
6
 70
0
 10
188.2931458833
 20
175.2566604776
 10
188.2710222727
 20
175.1633493063
 10
188.2544760985
 20
175.0733554766
 10
188.2434283517
 20
174.9878943515
 10
188.2374475921
 20
174.9037895159
 10
188.2364164677
 20
174.8588452471
  0
LINE
  5
246
100
AcDbEntity
  8
RUNDUNGEN
100
AcDbLine
 62
7
  6
CONTINUOUS
 10
185.8369773293
 20
142.1679535081
 11
185.8369773293
 21
150.1679535081
  0
LINE
  5
247
100
AcDbEntity
  8
RUNDUNGEN
100
AcDbLine
 62
7
  6
CONTINUOUS
 10
188.2364164024
 20
174.8588363302
 11
188.2364158182
 21
174.8587221525
  0
LWPOLYLINE
  5
248
100
AcDbEntity
  8
0
100
AcDbPolyline
 62
7
  6
CONTINUOUS
 90
7
 70
0
 10
188.2364158794
 20
174.8587333405
 10
188.1932586663
 20
170.3977537268
 10
188.1105728725
 20
165.3301939118
 10
188.0143894209
 20
160.3603694383
 10
187.9250697847
 20
155.488049262
 10
187.8606786651
 20
150.7130340479
 10
187.8372882277
 20
146.2118602912
  0
LINE
  5
249
100
AcDbEntity
  8
RUNDUNGEN
100
AcDbLine
 62
7
  6
CONTINUOUS
 10
187.8369773293
 20
140.1679535081
 11
222.8369773293
 21
140.1679535081
  0
LINE
  5
24A
100
AcDbEntity
  8
0
100
AcDbLine
 62
7
  6
CONTINUOUS
 10
218.5919773293
 20
143.4229535081
 11
211.0819773293
 21
143.4229535081
  0
LINE
  5
24B
100
AcDbEntity
  8
0
100
AcDbLine
 62
7
  6
CONTINUOUS
 10
211.0819773293
 20
148.9129535081
 11
218.5919773293
 21
148.9129535081
  0
LINE
  5
24C
100
AcDbEntity
  8
RUNDUNGEN
100
AcDbLine
 62
7
  6
CONTINUOUS
 10
187.8369773293
 20
152.1679535081
 11
187.8802982661
 21
152.1679535081
  0
LINE
  5
24D
100
AcDbEntity
  8
RUNDUNGEN
100
AcDbLine
 62
7
  6
CONTINUOUS
 10
193.8369773293
 20
152.1679535081
 11
222.8369773293
 21
152.1679535081
  0
LWPOLYLINE
  5
24E
100
AcDbEntity
  8
0
100
AcDbPolyline
 62
7
  6
CONTINUOUS
 90
4
 70
0
 10
224.7018037878
 20
158.1521948381
 10
224.5536253158
 20
165.8615900721
 10
224.4907060567
 20
169.6779345273
 10
224.4572924998
 20
172.3667283957
  0
LWPOLYLINE
  5
24F
100
AcDbEntity
  8
RUNDUNGEN
100
AcDbPolyline
 62
7
  6
CONTINUOUS
 90
17
 70
0
 10
224.4572915718
 20
172.3669200337
 10
224.4568135096
 20
172.3931993408
 10
224.453388435
 20
172.4677037399
 10
224.4470772965
 20
172.54458032
 10
224.4380879713
 20
172.6239059652
 10
224.426645914
 20
172.7049209844
 10
224.4127225029
 20
172.7881581012
 10
224.3963656066
 20
172.8731564803
 10
224.3772984279
 20
172.9608961908
 10
224.3553727932
 20
173.051558603
 10
224.3303377993
 20
173.145461456
 10
224.3019823172
 20
173.2425045826
 10
224.2699163054
 20
173.3429953936
 10
224.2336759492
 20
173.4471910893
 10
224.1928118093
 20
173.5550674997
 10
224.1466850367
 20
173.6668480285
 10
224.1068301239
 20
173.7563029745
  0
LWPOLYLINE
  5
250
100
AcDbEntity
  8
0
100
AcDbPolyline
 62
7
  6
CONTINUOUS
 90
3
 70
0
 10
224.8155875529
 20
150.4722325237
 10
224.768371792
 20
154.2587478324
 10
224.7018037878
 20
158.1521948381
  0
LINE
  5
251
100
AcDbEntity
  8
RUNDUNGEN
100
AcDbLine
 62
7
  6
CONTINUOUS
 10
224.4572925371
 20
172.366725396
 11
224.4572941876
 21
172.3665651086
  0
LINE
  5
252
100
AcDbEntity
  8
RUNDUNGEN
100
AcDbLine
 62
7
  6
CONTINUOUS
 10
223.455011318
 20
140.2658404755
 11
223.455011318
 21
152.0700665407
  0
LINE
  5
253
100
AcDbEntity
  8
0
100
AcDbLine
 62
7
  6
CONTINUOUS
 10
224.8369773293
 20
150.1679535081
 11
224.8369773293
 21
142.1679535081
  0
LINE
  5
254
100
AcDbEntity
  8
RUNDUNGEN
100
AcDbLine
 62
7
  6
CONTINUOUS
 10
224.8369773293
 20
142.1679535081
 11
224.8369773293
 21
150.1679535081
  0
LWPOLYLINE
  5
255
100
AcDbEntity
  8
RUNDUNGEN
100
AcDbPolyline
 62
7
  6
CONTINUOUS
 90
13
 70
0
 10
224.1068070144
 20
173.75630204
 10
223.9005811933
 20
174.1632390609
 10
223.5952889441
 20
174.6567042795
 10
223.24577973
 20
175.1162374686
 10
222.8554196806
 20
175.5377837282
 10
222.4277839415
 20
175.917554575
 10
221.9670733315
 20
176.2519994536
 10
221.4777164985
 20
176.5378953315
 10
220.9645565461
 20
176.7726834061
 10
220.432652013
 20
176.9541455695
 10
219.8868228941
 20
177.0808616755
 10
219.3321450034
 20
177.1517142451
 10
218.9096030716
 20
177.1679439905
  0
LWPOLYLINE
  5
256
100
AcDbEntity
  8
RUNDUNGEN
100
AcDbPolyline
 62
7
  6
CONTINUOUS
 90
10
 70
0
 10
190.9501686657
 20
177.1679410016
 10
190.8106524684
 20
177.164459234
 10
190.5269724073
 20
177.1358957637
 10
190.247115455
 20
177.0786379853
 10
189.9737614044
 20
176.9931687563
 10
189.7094560411
 20
176.8801419615
 10
189.4569002944
 20
176.7406498981
 10
189.2186806244
 20
176.5759721779
 10
188.9970891979
 20
176.387613659
 10
188.7942896764
 20
176.1772336404
  0
LINE
  5
257
100
AcDbEntity
  8
0
100
AcDbLine
 62
7
  6
CONTINUOUS
 10
190.9502154076
 20
177.1679535081
 11
191.1636992699
 21
177.1679535081
  0
LINE
  5
258
100
AcDbEntity
  8
0
100
AcDbLine
 62
7
  6
CONTINUOUS
 10
218.6960879956
 20
177.1679535081
 11
218.9095717839
 21
177.1679535081
  0
LINE
  5
259
100
AcDbEntity
  8
RUNDUNGEN
100
AcDbLine
 62
7
  6
CONTINUOUS
 10
190.9502153446
 20
177.1679535081
 11
218.9092664209
 21
177.1679535081
  0
LINE
  5
25A
100
AcDbEntity
  8
02___PRT_ALL_AXES
100
AcDbLine
 62
7
  6
CONTINUOUS
 10
67.767578125
 20
87.9284348858
 11
67.767578125
 21
75.9284348858
  0
LINE
  5
25B
100
AcDbEntity
  8
RUNDUNGEN
100
AcDbLine
 62
7
  6
CONTINUOUS
 10
69.7371655614
 20
84.2926968394
 11
72.2963086212
 21
85.1242128229
  0
LINE
  5
25C
100
AcDbEntity
  8
RUNDUNGEN
100
AcDbLine
 62
7
  6
CONTINUOUS
 10
90.6626919416
 20
50.9284348858
 11
81.3426919416
 21
50.9284348858
  0
LINE
  5
25D
100
AcDbEntity
  8
RUNDUNGEN
100
AcDbLine
 62
7
  6
CONTINUOUS
 10
69.9140303859
 20
81.9284348858
 11
70.1042267206
 21
81.9902332827
  0
LINE
  5
25E
100
AcDbEntity
  8
RUNDUNGEN
100
AcDbLine
 62
7
  6
CONTINUOUS
 10
83.3151371397
 20
52.9284348858
 11
83.1168715631
 21
52.9022732172
  0
LINE
  5
25F
100
AcDbEntity
  8
RUNDUNGEN
100
AcDbLine
 62
7
  6
CONTINUOUS
 10
79.3366893799
 20
52.9284782412
 11
79.2397674932
 21
52.9284348858
  0
LINE
  5
260
100
AcDbEntity
  8
RUNDUNGEN
100
AcDbLine
 62
7
  6
CONTINUOUS
 10
92.6392608698
 20
52.9284348858
 11
83.3151023677
 21
52.928666024
  0
LINE
  5
261
100
AcDbEntity
  8
RUNDUNGEN
100
AcDbLine
 62
7
  6
CONTINUOUS
 10
73.9260253165
 20
81.9284348852
 11
73.7358293856
 21
81.8666363852
  0
LINE
  5
262
100
AcDbEntity
  8
RUNDUNGEN
100
AcDbLine
 62
7
  6
CONTINUOUS
 10
92.7353870394
 20
52.9008711502
 11
92.6392608698
 21
52.9284348858
  0
LINE
  5
263
100
AcDbEntity
  8
RUNDUNGEN
100
AcDbLine
 62
7
  6
CONTINUOUS
 10
79.440578909
 20
52.3104008971
 11
70.887825912
 21
78.6330679936
  0
LINE
  5
264
100
AcDbEntity
  8
RUNDUNGEN
100
AcDbLine
 62
7
  6
CONTINUOUS
 10
70.1042267202
 20
81.9902332826
 11
79.5268997328
 21
52.9902334914
  0
LINE
  5
265
100
AcDbEntity
  8
RUNDUNGEN
100
AcDbLine
 62
7
  6
CONTINUOUS
 10
69.7371655613
 20
84.2926968394
 11
78.7523461319
 21
56.5468243908
  0
LINE
  5
266
100
AcDbEntity
  8
RUNDUNGEN
100
AcDbLine
 62
7
  6
CONTINUOUS
 10
81.3114890177
 20
57.378340318
 11
72.2963086743
 21
85.1242128402
  0
LINE
  5
267
100
AcDbEntity
  8
RUNDUNGEN
100
AcDbLine
 62
7
  6
CONTINUOUS
 10
83.0481712239
 20
53.2061850248
 11
73.7358290467
 21
81.8666362751
  0
LINE
  5
268
100
AcDbEntity
  8
0
100
AcDbLine
 62
7
  6
CONTINUOUS
 10
78.3057264724
 20
69.4107967956
 11
73.343966804
 21
87.9283359731
  0
LINE
  5
269
100
AcDbEntity
  8
0
100
AcDbLine
 62
7
  6
CONTINUOUS
 10
90.897578125
 20
67.9284348858
 11
80.237578125
 21
67.9284348858
  0
LINE
  5
26A
100
AcDbEntity
  8
RUNDUNGEN
100
AcDbLine
 62
7
  6
CONTINUOUS
 10
104.267578125
 20
73.9284348858
 11
100.2720530861
 21
73.9284348858
  0
LINE
  5
26B
100
AcDbEntity
  8
RUNDUNGEN
100
AcDbLine
 62
7
  6
CONTINUOUS
 10
105.267578125
 20
75.9284233641
 11
104.267578125
 21
75.9284233682
  0
LINE
  5
26C
100
AcDbEntity
  8
02___PRT_ALL_AXES
100
AcDbLine
 62
7
  6
CONTINUOUS
 10
67.767578125
 20
75.9284348858
 11
71.0400704957
 21
75.9284348858
  0
LINE
  5
26D
100
AcDbEntity
  8
RUNDUNGEN
100
AcDbLine
 62
7
  6
CONTINUOUS
 10
98.3495286226
 20
72.4797095974
 11
98.2533160175
 21
72.507298118
  0
LINE
  5
26E
100
AcDbEntity
  8
0
100
AcDbLine
 62
7
  6
CONTINUOUS
 10
97.2686983945
 20
81.9284348858
 11
92.7828611072
 21
69.2608211673
  0
LINE
  5
26F
100
AcDbEntity
  8
RUNDUNGEN
100
AcDbLine
 62
7
  6
CONTINUOUS
 10
97.2686983945
 20
81.9284348858
 11
100.1804602687
 21
89.9284348858
  0
LINE
  5
270
100
AcDbEntity
  8
RUNDUNGEN
100
AcDbLine
 62
7
  6
CONTINUOUS
 10
98.3495283425
 20
72.4797086207
 11
92.5852153335
 21
52.3771601742
  0
LINE
  5
271
100
AcDbEntity
  8
0
100
AcDbLine
 62
7
  6
CONTINUOUS
 10
93.9605249759
 20
57.1734348858
 11
96.1139828229
 21
64.6834348858
  0
LINE
  5
272
100
AcDbEntity
  8
RUNDUNGEN
100
AcDbLine
 62
7
  6
CONTINUOUS
 10
81.3114890177
 20
57.378340318
 11
78.7523462178
 21
56.5468244187
  0
LINE
  5
273
100
AcDbEntity
  8
RUNDUNGEN
100
AcDbLine
 62
7
  6
CONTINUOUS
 10
73.926108018
 20
81.9281803565
 11
74.951635455
 21
81.9284348858
  0
LINE
  5
274
100
AcDbEntity
  8
RUNDUNGEN
100
AcDbLine
 62
7
  6
CONTINUOUS
 10
68.7656341076
 20
81.9284348858
 11
69.9140900478
 21
81.9282512651
  0
LINE
  5
275
100
AcDbEntity
  8
RUNDUNGEN
100
AcDbLine
 62
7
  6
CONTINUOUS
 10
100.2720520145
 20
73.9284348858
 11
100.2720520145
 21
75.9284002113
  0
LINE
  5
276
100
AcDbEntity
  8
RUNDUNGEN
100
AcDbLine
 62
7
  6
CONTINUOUS
 10
79.3367034669
 20
52.928434886
 11
79.5268990219
 21
52.9902332605
  0
LINE
  5
277
100
AcDbEntity
  8
RUNDUNGEN
100
AcDbLine
 62
7
  6
CONTINUOUS
 10
83.2383673751
 20
53.2679839966
 11
83.0481710859
 21
53.206185449
  0
LINE
  5
278
100
AcDbEntity
  8
RUNDUNGEN
100
AcDbLine
 62
7
  6
CONTINUOUS
 10
104.267578125
 20
89.9284348858
 11
104.2675781242
 21
73.9284348966
  0
LINE
  5
279
100
AcDbEntity
  8
RUNDUNGEN
100
AcDbLine
 62
7
  6
CONTINUOUS
 10
105.267578125
 20
87.9284348858
 11
99.4525198001
 21
87.9284348858
  0
LINE
  5
27A
100
AcDbEntity
  8
02___PRT_ALL_AXES
100
AcDbLine
 62
7
  6
CONTINUOUS
 10
67.767578125
 20
87.9284348858
 11
73.3505147273
 21
87.9284348858
  0
LINE
  5
27B
100
AcDbEntity
  8
RUNDUNGEN
100
AcDbLine
 62
7
  6
CONTINUOUS
 10
70.5497375286
 20
87.9284116253
 11
70.540396262
 21
87.9284348858
  0
LINE
  5
27C
100
AcDbEntity
  8
RUNDUNGEN
100
AcDbLine
 62
7
  6
CONTINUOUS
 10
105.267578125
 20
88.9284348858
 11
105.267578125
 21
74.9284348858
  0
LINE
  5
27D
100
AcDbEntity
  8
RUNDUNGEN
100
AcDbLine
 62
7
  6
CONTINUOUS
 10
104.267578125
 20
89.9284348858
 11
100.1804602687
 21
89.9284348858
  0
ARC
  5
27E
100
AcDbEntity
  8
RUNDUNGEN
100
AcDbCircle
 62
7
  6
CONTINUOUS
 10
104.267578125
 20
151.1679414047
 40
1.0
100
AcDbArc
 50
0.0006934734
 51
89.9999999994
  0
ARC
  5
27F
100
AcDbEntity
  8
0
100
AcDbCircle
 62
7
  6
CONTINUOUS
 10
104.267578125
 20
141.1679656099
 40
1.0
100
AcDbArc
 50
269.9913531422
 51
359.9993066512
  0
ARC
  5
280
100
AcDbEntity
  8
RUNDUNGEN
100
AcDbCircle
 62
7
  6
CONTINUOUS
 10
193.5290857143
 20
146.1678891005
 40
6.9988745356
100
AcDbArc
 50
300.9863595504
 51
59.0136406636
  0
ARC
  5
281
100
AcDbEntity
  8
RUNDUNGEN
100
AcDbCircle
 62
7
  6
CONTINUOUS
 10
193.7751184206
 20
146.1640004896
 40
6.2014405349
100
AcDbArc
 50
89.9994409242
 51
126.1257417898
  0
CIRCLE
  5
282
100
AcDbEntity
  8
02___PRT_ALL_AXES
100
AcDbCircle
 62
7
  6
CONTINUOUS
 10
193.8369773293
 20
146.1679535081
 40
6.0
  0
ARC
  5
283
100
AcDbEntity
  8
0
100
AcDbCircle
 62
7
  6
CONTINUOUS
 10
211.0819773293
 20
146.1679535081
 40
2.745
100
AcDbArc
 50
90.0
 51
270.0
  0
ARC
  5
284
100
AcDbEntity
  8
0
100
AcDbCircle
 62
7
  6
CONTINUOUS
 10
218.5919773293
 20
146.1679535081
 40
2.745
100
AcDbArc
 50
270.0
 51
90.0
  0
ARC
  5
285
100
AcDbEntity
  8
RUNDUNGEN
100
AcDbCircle
 62
7
  6
CONTINUOUS
 10
190.9510615797
 20
174.4431723084
 40
2.7247873063
100
AcDbArc
 50
94.1209715381
 51
100.173966979
  0
ARC
  5
286
100
AcDbEntity
  8
RUNDUNGEN
100
AcDbCircle
 62
7
  6
CONTINUOUS
 10
190.9503228727
 20
174.4476186856
 40
2.7202803613
100
AcDbArc
 50
100.1751950382
 51
101.5673011282
  0
ARC
  5
287
100
AcDbEntity
  8
RUNDUNGEN
100
AcDbCircle
 62
7
  6
CONTINUOUS
 10
190.9506314725
 20
174.4515341041
 40
2.7164194185
100
AcDbArc
 50
90.0087771443
 51
94.1223144238
  0
ARC
  5
288
100
AcDbEntity
  8
RUNDUNGEN
100
AcDbCircle
 62
7
  6
CONTINUOUS
 10
191.1644099946
 20
174.4521849243
 40
2.7157686174
100
AcDbArc
 50
90.0149974421
 51
94.5106985812
  0
CIRCLE
  5
289
100
AcDbEntity
  8
02___PRT_ALL_AXES
100
AcDbCircle
 62
7
  6
CONTINUOUS
 10
193.8369773293
 20
146.1679535081
 40
2.695
  0
ARC
  5
28A
100
AcDbEntity
  8
RUNDUNGEN
100
AcDbCircle
 62
7
  6
CONTINUOUS
 10
222.7060992104
 20
149.8321734424
 40
2.3598802648
100
AcDbArc
 50
71.2615039905
 51
71.4971552967
  0
ARC
  5
28B
100
AcDbEntity
  8
RUNDUNGEN
100
AcDbCircle
 62
7
  6
CONTINUOUS
 10
222.7411136834
 20
149.9311337053
 40
2.254917464
100
AcDbArc
 50
67.586762118
 51
71.2962537008
  0
ARC
  5
28C
100
AcDbEntity
  8
RUNDUNGEN
100
AcDbCircle
 62
7
  6
CONTINUOUS
 10
222.7752545142
 20
150.165270131
 40
2.2001708451
100
AcDbArc
 50
67.5545366798
 51
90.0019737021
  0
ARC
  5
28D
100
AcDbEntity
  8
RUNDUNGEN
100
AcDbCircle
 62
7
  6
CONTINUOUS
 10
222.7740588176
 20
150.0121905642
 40
2.1674223999
100
AcDbArc
 50
67.0414958114
 51
67.5748851484
  0
ARC
  5
28E
100
AcDbEntity
  8
RUNDUNGEN
100
AcDbCircle
 62
7
  6
CONTINUOUS
 10
190.431280325
 20
174.753401539
 40
2.1409181394
100
AcDbArc
 50
141.9874901432
 51
148.4782945391
  0
ARC
  5
28F
100
AcDbEntity
  8
RUNDUNGEN
100
AcDbCircle
 62
7
  6
CONTINUOUS
 10
222.8384297734
 20
150.1571590594
 40
2.0088302404
100
AcDbArc
 50
61.9216535269
 51
67.1192162998
  0
ARC
  5
290
100
AcDbEntity
  8
RUNDUNGEN
100
AcDbCircle
 62
7
  6
CONTINUOUS
 10
222.8331779093
 20
150.1671859385
 40
2.0038695191
100
AcDbArc
 50
8.0990206644
 51
12.2492538793
  0
ARC
  5
291
100
AcDbEntity
  8
RUNDUNGEN
100
AcDbCircle
 62
7
  6
CONTINUOUS
 10
222.8362288741
 20
150.1679005673
 40
2.0007484559
100
AcDbArc
 50
0.0015160738
 51
8.0904550382
  0
ARC
  5
292
100
AcDbEntity
  8
RUNDUNGEN
100
AcDbCircle
 62
7
  6
CONTINUOUS
 10
222.8369031886
 20
150.1673415173
 40
2.0006119922
100
AcDbArc
 50
81.5281670466
 51
89.9978766766
  0
ARC
  5
293
100
AcDbEntity
  8
RUNDUNGEN
100
AcDbCircle
 62
7
  6
CONTINUOUS
 10
222.8368561232
 20
150.1676263151
 40
2.0003429748
100
AcDbArc
 50
73.134339043
 51
79.9552039545
  0
ARC
  5
294
100
AcDbEntity
  8
RUNDUNGEN
100
AcDbCircle
 62
7
  6
CONTINUOUS
 10
222.8369248079
 20
142.1682851149
 40
2.0003316075
100
AcDbArc
 50
270.0015043766
 51
287.9984956234
  0
ARC
  5
295
100
AcDbEntity
  8
RUNDUNGEN
100
AcDbCircle
 62
7
  6
CONTINUOUS
 10
187.8369773293
 20
142.1679535081
 40
2.0
100
AcDbArc
 50
180.0
 51
270.0
  0
ARC
  5
296
100
AcDbEntity
  8
RUNDUNGEN
100
AcDbCircle
 62
7
  6
CONTINUOUS
 10
187.8369773293
 20
150.1679535081
 40
2.0
100
AcDbArc
 50
90.0
 51
180.0
  0
ARC
  5
297
100
AcDbEntity
  8
RUNDUNGEN
100
AcDbCircle
 62
7
  6
CONTINUOUS
 10
222.837802264
 20
150.1704759085
 40
1.9973461358
100
AcDbArc
 50
72.0001461537
 51
73.1339509861
  0
ARC
  5
298
100
AcDbEntity
  8
RUNDUNGEN
100
AcDbCircle
 62
7
  6
CONTINUOUS
 10
222.8375045136
 20
150.1711875626
 40
1.9967232243
100
AcDbArc
 50
79.9557005402
 51
81.5270997552
  0
ARC
  5
299
100
AcDbEntity
  8
RUNDUNGEN
100
AcDbCircle
 62
7
  6
CONTINUOUS
 10
222.8108123406
 20
150.461737695
 40
1.9143100695
100
AcDbArc
 50
59.9080124794
 51
62.9544017515
  0
ARC
  5
29A
100
AcDbEntity
  8
RUNDUNGEN
100
AcDbCircle
 62
7
  6
CONTINUOUS
 10
222.82300411
 20
150.4854969684
 40
1.8876054029
100
AcDbArc
 50
62.9560775499
 51
65.1824754391
  0
ARC
  5
29B
100
AcDbEntity
  8
RUNDUNGEN
100
AcDbCircle
 62
7
  6
CONTINUOUS
 10
997.0190546667
 20
385.7409673146
 40
973.3592876601
100
AcDbArc
 50
197.8722672924
 51
198.0087510634
  0
ARC
  5
29C
100
AcDbEntity
  8
RUNDUNGEN
100
AcDbCircle
 62
7
  6
CONTINUOUS
 10
-547.0394388233
 20
-115.6007518999
 40
649.3600594874
100
AcDbArc
 50
17.9572214066
 51
18.1618179891
  0
ARC
  5
29D
100
AcDbEntity
  8
RUNDUNGEN
100
AcDbCircle
 62
7
  6
CONTINUOUS
 10
-423.3989718009
 20
-78.2986993757
 40
518.881440103
100
AcDbArc
 50
17.9937014098
 51
18.4186999053
  0
ARC
  5
29E
100
AcDbEntity
  8
RUNDUNGEN
100
AcDbCircle
 62
7
  6
CONTINUOUS
 10
563.7873955612
 20
241.1325237286
 40
515.2826028012
100
AcDbArc
 50
197.4541635418
 51
198.004069429
  0
ARC
  5
29F
100
AcDbEntity
  8
RUNDUNGEN
100
AcDbCircle
 62
7
  6
CONTINUOUS
 10
-395.2360321954
 20
-74.1876979285
 40
490.6493937706
100
AcDbArc
 50
18.5530332345
 51
18.9894464975
  0
ARC
  5
2A0
100
AcDbEntity
  8
RUNDUNGEN
100
AcDbCircle
 62
7
  6
CONTINUOUS
 10
533.8403111278
 20
236.3860438534
 40
485.1580196392
100
AcDbArc
 50
197.9807136024
 51
198.5641418957
  0
ARC
  5
2A1
100
AcDbEntity
  8
RUNDUNGEN
100
AcDbCircle
 62
7
  6
CONTINUOUS
 10
-205.4860280174
 20
-4.7930829354
 40
289.2820119568
100
AcDbArc
 50
17.9360194782
 51
18.2421504031
  0
ARC
  5
2A2
100
AcDbEntity
  8
RUNDUNGEN
100
AcDbCircle
 62
7
  6
CONTINUOUS
 10
-99.7167902825
 20
-5.251960797
 40
188.4687072324
100
AcDbArc
 50
17.7753079343
 51
18.0006907194
  0
ARC
  5
2A3
100
AcDbEntity
  8
RUNDUNGEN
100
AcDbCircle
 62
7
  6
CONTINUOUS
 10
-72.947228607
 20
-1.5011441654
 40
161.7188148289
100
AcDbArc
 50
19.4736727776
 51
19.6680073833
  0
ARC
  5
2A4
100
AcDbEntity
  8
RUNDUNGEN
100
AcDbCircle
 62
7
  6
CONTINUOUS
 10
95.4375955948
 20
73.3106049352
 40
2.9281023342
100
AcDbArc
 50
344.9181434079
 51
347.4847705476
  0
ARC
  5
2A5
100
AcDbEntity
  8
RUNDUNGEN
100
AcDbCircle
 62
7
  6
CONTINUOUS
 10
95.6181816134
 20
73.2627747554
 40
2.7412913521
100
AcDbArc
 50
344.0027322991
 51
344.9013058287
  0
ARC
  5
2A6
100
AcDbEntity
  8
RUNDUNGEN
100
AcDbCircle
 62
7
  6
CONTINUOUS
 10
100.2720520508
 20
71.9284348377
 40
2.0000000481
100
AcDbArc
 50
89.9999703396
 51
164.00002807
  0
ARC
  5
2A7
100
AcDbEntity
  8
0
100
AcDbCircle
 62
7
  6
CONTINUOUS
 10
80.237578125
 20
69.9284348858
 40
2.0
100
AcDbArc
 50
195.0
 51
270.0
  0
ARC
  5
2A8
100
AcDbEntity
  8
0
100
AcDbCircle
 62
7
  6
CONTINUOUS
 10
90.897578125
 20
69.9284348858
 40
2.0
100
AcDbArc
 50
270.0
 51
340.5
  0
ARC
  5
2A9
100
AcDbEntity
  8
RUNDUNGEN
100
AcDbCircle
 62
7
  6
CONTINUOUS
 10
90.6626919416
 20
52.9284348858
 40
2.0
100
AcDbArc
 50
270.0
 51
344.0
  0
ARC
  5
2AA
100
AcDbEntity
  8
RUNDUNGEN
100
AcDbCircle
 62
7
  6
CONTINUOUS
 10
81.3426919416
 20
52.9284348858
 40
2.0
100
AcDbArc
 50
198.0
 51
270.0
  0
ARC
  5
2AB
100
AcDbEntity
  8
RUNDUNGEN
100
AcDbCircle
 62
7
  6
CONTINUOUS
 10
81.4234729344
 20
52.6792194739
 40
1.9080056327
100
AcDbArc
 50
7.5121712118
 51
17.97342753
  0
ARC
  5
2AC
100
AcDbEntity
  8
RUNDUNGEN
100
AcDbCircle
 62
7
  6
CONTINUOUS
 10
70.6171858861
 20
86.0462315116
 40
1.8510274104
100
AcDbArc
 50
23.123859607
 51
27.8488878865
  0
ARC
  5
2AD
100
AcDbEntity
  8
RUNDUNGEN
100
AcDbCircle
 62
7
  6
CONTINUOUS
 10
70.6461106662
 20
86.0581624762
 40
1.8197410152
100
AcDbArc
 50
17.9603631908
 51
23.1360425374
  0
ARC
  5
2AE
100
AcDbEntity
  8
RUNDUNGEN
100
AcDbCircle
 62
7
  6
CONTINUOUS
 10
81.4215705637
 20
52.6787656259
 40
1.7099710542
100
AcDbArc
 50
7.5105301623
 51
17.9650995446
  0
ARC
  5
2AF
100
AcDbEntity
  8
RUNDUNGEN
100
AcDbCircle
 62
7
  6
CONTINUOUS
 10
81.1482797833
 20
52.7065025926
 40
1.6332724231
100
AcDbArc
 50
199.3763308974
 51
202.4682602209
  0
ARC
  5
2B0
100
AcDbEntity
  8
RUNDUNGEN
100
AcDbCircle
 62
7
  6
CONTINUOUS
 10
70.5381371041
 20
86.1814321302
 40
1.3473725825
100
AcDbArc
 50
17.8660650213
 51
198.134001426
  0
ARC
  5
2B1
100
AcDbEntity
  8
RUNDUNGEN
100
AcDbCircle
 62
7
  6
CONTINUOUS
 10
104.267578125
 20
88.9284348858
 40
1.0
100
AcDbArc
 50
0.0
 51
90.0
  0
ARC
  5
2B2
100
AcDbEntity
  8
RUNDUNGEN
100
AcDbCircle
 62
7
  6
CONTINUOUS
 10
104.267578125
 20
74.9284428157
 40
1.0
100
AcDbArc
 50
270.0
 51
359.9995456479
  0
ARC
  5
2B3
100
AcDbEntity
  8
RUNDUNGEN
100
AcDbCircle
 62
7
  6
CONTINUOUS
 10
71.0400719115
 20
74.9284350098
 40
0.9999999787
100
AcDbArc
 50
17.9999977149
 51
89.9999991852
  0
SPLINE
  5
2B4
100
AcDbEntity
  8
RUNDUNGEN
100
AcDbSpline
 62
7
  6
CONTINUOUS
 70
0
 71
3
 72
15
 73
11
 74
0
 42
0.0000001
 43
0.0000001
 44
0.0000000001
 40
0.0
 40
0.0
 40
0.0
 40
0.0
 40
0.0768246113
 40
0.1779578928
 40
0.2960695582
 40
0.425843903
 40
0.5635239621
 40
0.7064103367
 40
0.8524587179
 40
1.0
 40
1.0
 40
1.0
 40
1.0
 10
79.440578909
 20
140.2658404755
 30
0.0
 10
79.4885631812
 20
140.3152649534
 30
0.0
 10
79.6025974935
 20
140.4269118466
 30
0.0
 10
79.7896630009
 20
140.6152759967
 30
0.0
 10
80.0111903464
 20
140.8363344493
 30
0.0
 10
80.2555768128
 20
141.0808738797
 30
0.0
 10
80.5157653158
 20
141.3410286346
 30
0.0
 10
80.7862901872
 20
141.6114836131
 30
0.0
 10
81.062841865
 20
141.8884157105
 30
0.0
 10
81.2494948509
 20
142.0740584369
 30
0.0
 10
81.3426919416
 20
142.1679535081
 30
0.0
  0
SPLINE
  5
2B5
100
AcDbEntity
  8
RUNDUNGEN
100
AcDbSpline
 62
7
  6
CONTINUOUS
 70
0
 71
3
 72
15
 73
11
 74
0
 42
0.0000001
 43
0.0000001
 44
0.0000000001
 40
0.0
 40
0.0
 40
0.0
 40
0.0
 40
0.1475410245
 40
0.2935890242
 40
0.4364750265
 40
0.5741547998
 40
0.70392904
 40
0.8220413343
 40
0.9231747886
 40
1.0
 40
1.0
 40
1.0
 40
1.0
 10
81.3426919416
 20
150.1679535081
 30
0.0
 10
81.2494936455
 20
150.2618470574
 30
0.0
 10
81.0628424209
 20
150.4474907198
 30
0.0
 10
80.7862918305
 20
150.7244226279
 30
0.0
 10
80.5157668072
 20
150.9948761349
 30
0.0
 10
80.2555795557
 20
151.2550311735
 30
0.0
 10
80.0111918438
 20
151.4995696643
 30
0.0
 10
79.7896661105
 20
151.7206306009
 30
0.0
 10
79.6025962623
 20
151.9089922231
 30
0.0
 10
79.4885650058
 20
152.0206430843
 30
0.0
 10
79.440578909
 20
152.0700665407
 30
0.0
  0
LINE
  5
2B6
100
AcDbEntity
  8
RUNDUNGEN
100
AcDbLine
 62
7
  6
CONTINUOUS
 10
100.2720531241
 20
142.1679188988
 11
104.267578125
 21
142.1681500142
  0
LINE
  5
2B7
100
AcDbEntity
  8
RUNDUNGEN
100
AcDbLine
 62
7
  6
CONTINUOUS
 10
104.267578125
 20
150.1677568666
 11
100.2720530861
 21
150.1679881826
  0
SPLINE
  5
2B8
100
AcDbEntity
  8
RUNDUNGEN
100
AcDbSpline
 62
7
  6
CONTINUOUS
 70
0
 71
3
 72
11
 73
7
 74
0
 42
0.0000001
 43
0.0000001
 44
0.0000000001
 40
0.0
 40
0.0
 40
0.0
 40
0.0
 40
0.2442274228
 40
0.4918370091
 40
0.7442209487
 40
1.0
 40
1.0
 40
1.0
 40
1.0
 10
70.6842655241
 20
177.1679447267
 30
0.0
 10
70.5608113693
 20
177.1673964333
 30
0.0
 10
70.3095325722
 20
177.1137805671
 30
0.0
 10
69.9952843
 20
176.8897031901
 30
0.0
 10
69.7863027226
 20
176.559069481
 30
0.0
 10
69.7374663905
 20
176.2996942343
 30
0.0
 10
69.7371655614
 20
176.1703999389
 30
0.0
  0
SPLINE
  5
2B9
100
AcDbEntity
  8
RUNDUNGEN
100
AcDbSpline
 62
7
  6
CONTINUOUS
 70
0
 71
3
 72
9
 73
5
 74
0
 42
0.0000001
 43
0.0000001
 44
0.0000000001
 40
0.0
 40
0.0
 40
0.0
 40
0.0
 40
0.4584486115
 40
1.0
 40
1.0
 40
1.0
 40
1.0
 10
79.2397674932
 20
140.1679535081
 30
0.0
 10
79.274591611
 20
140.1679535081
 30
0.0
 10
79.3510107893
 20
140.1883094438
 30
0.0
 10
79.4114908905
 20
140.236752457
 30
0.0
 10
79.440578909
 20
140.2658404755
 30
0.0
  0
SPLINE
  5
2BA
100
AcDbEntity
  8
RUNDUNGEN
100
AcDbSpline
 62
7
  6
CONTINUOUS
 70
0
 71
3
 72
9
 73
5
 74
0
 42
0.0000001
 43
0.0000001
 44
0.0000000001
 40
0.0
 40
0.0
 40
0.0
 40
0.0
 40
0.2796502044
 40
1.0
 40
1.0
 40
1.0
 40
1.0
 10
79.440578909
 20
152.0700665407
 30
0.0
 10
79.4290118621
 20
152.0816335876
 30
0.0
 10
79.3858869028
 20
152.1209550526
 30
0.0
 10
79.3329764794
 20
152.1512926712
 30
0.0
 10
79.2920837514
 20
152.1614577779
 30
0.0
  0
SPLINE
  5
2BB
100
AcDbEntity
  8
RUNDUNGEN
100
AcDbSpline
 62
7
  6
CONTINUOUS
 70
0
 71
3
 72
8
 73
4
 74
0
 42
0.0000001
 43
0.0000001
 44
0.0000000001
 40
0.0
 40
0.0
 40
0.0
 40
0.0
 40
1.0
 40
1.0
 40
1.0
 40
1.0
 10
79.2920837514
 20
152.1614577779
 30
0.0
 10
79.2750300838
 20
152.1656969754
 30
0.0
 10
79.2573401531
 20
152.1679535081
 30
0.0
 10
79.2397674932
 20
152.1679535081
 30
0.0
  0
SPLINE
  5
2BC
100
AcDbEntity
  8
RUNDUNGEN
100
AcDbSpline
 62
7
  6
CONTINUOUS
 70
0
 71
3
 72
13
 73
9
 74
0
 42
0.0000001
 43
0.0000001
 44
0.0000000001
 40
0.0
 40
0.0
 40
0.0
 40
0.0
 40
0.0901067855
 40
0.1926177534
 40
0.3068240647
 40
0.4315714755
 40
0.7060675369
 40
1.0
 40
1.0
 40
1.0
 40
1.0
 10
70.887825912
 20
152.1679535081
 30
0.0
 10
70.975734217
 20
152.0054713459
 30
0.0
 10
71.1418924401
 20
151.6462681716
 30
0.0
 10
71.3538870136
 20
151.0533949988
 30
0.0
 10
71.5413286215
 20
150.3783134013
 30
0.0
 10
71.7604794319
 20
149.3481628861
 30
0.0
 10
71.9428222804
 20
147.9363261516
 30
0.0
 10
71.9911339543
 20
146.7703981304
 30
0.0
 10
71.9911284401
 20
146.1677725924
 30
0.0
  0
SPLINE
  5
2BD
100
AcDbEntity
  8
RUNDUNGEN
100
AcDbSpline
 62
7
  6
CONTINUOUS
 70
0
 71
3
 72
13
 73
9
 74
0
 42
0.0000001
 43
0.0000001
 44
0.0000000001
 40
0.0
 40
0.0
 40
0.0
 40
0.0
 40
0.2939335642
 40
0.5684287659
 40
0.6931756479
 40
0.8073816491
 40
0.9098926801
 40
1.0
 40
1.0
 40
1.0
 40
1.0
 10
71.9911284401
 20
146.1677725924
 30
0.0
 10
71.9911238508
 20
145.5651802252
 30
0.0
 10
71.9427980003
 20
144.3993210841
 30
0.0
 10
71.7604491176
 20
142.9875702331
 30
0.0
 10
71.5413016033
 20
141.957485906
 30
0.0
 10
71.3538657336
 20
141.2824471463
 30
0.0
 10
71.1418796523
 20
140.6896096557
 30
0.0
 10
70.9757295712
 20
140.330427081
 30
0.0
 10
70.887825912
 20
140.1679535081
 30
0.0
  0
SPLINE
  5
2BE
100
AcDbEntity
  8
RUNDUNGEN
100
AcDbSpline
 62
7
  6
CONTINUOUS
 70
0
 71
3
 72
18
 73
14
 74
0
 42
0.0000001
 43
0.0000001
 44
0.0000000001
 40
0.0
 40
0.0
 40
0.0
 40
0.0
 40
0.0318591828
 40
0.0653933085
 40
0.1020214596
 40
0.1427899992
 40
0.1883890813
 40
0.2392200752
 40
0.3570170133
 40
0.4957208745
 40
0.6525142755
 40
0.8226886888
 40
1.0
 40
1.0
 40
1.0
 40
1.0
 10
68.7656341076
 20
152.1679535081
 30
0.0
 10
68.838148768
 20
152.1679535674
 30
0.0
 10
68.9875868579
 20
152.1487174539
 30
0.0
 10
69.2057929935
 20
152.0639600916
 30
0.0
 10
69.418494106
 20
151.9251193418
 30
0.0
 10
69.6243891693
 20
151.7338640842
 30
0.0
 10
69.822512219
 20
151.4914603158
 30
0.0
 10
70.0875300833
 20
151.0812191522
 30
0.0
 10
70.3817476186
 20
150.4430099852
 30
0.0
 10
70.663670908
 20
149.5437806253
 30
0.0
 10
70.8769062833
 20
148.5038820136
 30
0.0
 10
71.0100752274
 20
147.3626528554
 30
0.0
 10
71.0400760689
 20
146.571377473
 30
0.0
 10
71.0400719257
 20
146.1677993394
 30
0.0
  0
SPLINE
  5
2BF
100
AcDbEntity
  8
RUNDUNGEN
100
AcDbSpline
 62
7
  6
CONTINUOUS
 70
0
 71
3
 72
9
 73
5
 74
0
 42
0.0000001
 43
0.0000001
 44
0.0000000001
 40
0.0
 40
0.0
 40
0.0
 40
0.0
 40
0.5467330299
 40
1.0
 40
1.0
 40
1.0
 40
1.0
 10
92.4890891639
 20
140.2454301162
 30
0.0
 10
92.5107522178
 20
140.2226268467
 30
0.0
 10
92.5553736584
 20
140.1845091207
 30
0.0
 10
92.6131850652
 20
140.167953425
 30
0.0
 10
92.6392608698
 20
140.1679535081
 30
0.0
  0
LINE
  5
2C0
100
AcDbEntity
  8
RUNDUNGEN
100
AcDbLine
 62
7
  6
CONTINUOUS
 10
90.6626919416
 20
142.1679535081
 11
92.4890891639
 21
140.2454301162
  0
SPLINE
  5
2C1
100
AcDbEntity
  8
RUNDUNGEN
100
AcDbSpline
 62
7
  6
CONTINUOUS
 70
0
 71
3
 72
41
 73
37
 74
0
 42
0.0000001
 43
0.0000001
 44
0.0000000001
 40
0.0
 40
0.0
 40
0.0
 40
0.0
 40
0.0449926518
 40
0.1020406547
 40
0.1671329284
 40
0.2375166906
 40
0.2741092442
 40
0.311399655
 40
0.3492408093
 40
0.3875086374
 40
0.4067702919
 40
0.4261027419
 40
0.4454939726
 40
0.4649695512
 40
0.4747314934
 40
0.484472728
 40
0.5039818768
 40
0.5234267493
 40
0.5428133314
 40
0.5621354986
 40
0.581387935
 40
0.6196282542
 40
0.6574287154
 40
0.6946652087
 40
0.7311961827
 40
0.7668525882
 40
0.8346556159
 40
0.8662428088
 40
0.895816161
 40
0.922909916
 40
0.9469562659
 40
0.9672976162
 40
0.9832501987
 40
0.9941914661
 40
0.9976808022
 40
1.0
 40
1.0
 40
1.0
 40
1.0
 10
79.6075162459
 20
152.0163585551
 30
0.0
 10
79.6563123594
 20
151.9589863873
 30
0.0
 10
79.7729041599
 20
151.833998445
 30
0.0
 10
79.968778249
 20
151.6342562106
 30
0.0
 10
80.1987365253
 20
151.4084240374
 30
0.0
 10
80.4062615807
 20
151.2086694826
 30
0.0
 10
80.5821444884
 20
151.0431733281
 30
0.0
 10
80.7196723753
 20
150.9164213993
 30
0.0
 10
80.8609940498
 20
150.7896765351
 30
0.0
 10
80.9821901938
 20
150.6857006778
 30
0.0
 10
81.082839308
 20
150.6055163816
 30
0.0
 10
81.1612456548
 20
150.5482162501
 30
0.0
 10
81.2436718111
 20
150.4960939061
 30
0.0
 10
81.318493378
 20
150.4625256796
 30
0.0
 10
81.3822922992
 20
150.4476141168
 30
0.0
 10
81.4478618021
 20
150.4442540362
 30
0.0
 10
81.5289678849
 20
150.4614590449
 30
0.0
 10
81.6171222322
 20
150.5044960111
 30
0.0
 10
81.6990213987
 20
150.5572979194
 30
0.0
 10
81.7770638457
 20
150.6150100631
 30
0.0
 10
81.8775735874
 20
150.6952390946
 30
0.0
 10
81.9985033534
 20
150.7993316088
 30
0.0
 10
82.139322403
 20
150.9263300444
 30
0.0
 10
82.2762992878
 20
151.0532918513
 30
0.0
 10
82.4096397232
 20
151.1788833807
 30
0.0
 10
82.5792136285
 20
151.3406270475
 30
0.0
 10
82.7412791743
 20
151.4982480164
 30
0.0
 10
82.8942677496
 20
151.650566825
 30
0.0
 10
82.9980999759
 20
151.7556601823
 30
0.0
 10
83.0920117278
 20
151.8528171875
 30
0.0
 10
83.1736222473
 20
151.9403030695
 30
0.0
 10
83.2406805981
 20
152.0159617239
 30
0.0
 10
83.2903308303
 20
152.0773133046
 30
0.0
 10
83.319626617
 20
152.1194293676
 30
0.0
 10
83.3308022247
 20
152.1450688372
 30
0.0
 10
83.3321159674
 20
152.155195485
 30
0.0
 10
83.3311059168
 20
152.1589440842
 30
0.0
  0
SPLINE
  5
2C2
100
AcDbEntity
  8
RUNDUNGEN
100
AcDbSpline
 62
7
  6
CONTINUOUS
 70
0
 71
3
 72
9
 73
5
 74
0
 42
0.0000001
 43
0.0000001
 44
0.0000000001
 40
0.0
 40
0.0
 40
0.0
 40
0.0
 40
0.4532669957
 40
1.0
 40
1.0
 40
1.0
 40
1.0
 10
92.6392608698
 20
152.1679535081
 30
0.0
 10
92.6131850636
 20
152.1679537762
 30
0.0
 10
92.5553736279
 20
152.1513978133
 30
0.0
 10
92.5107522816
 20
152.113280107
 30
0.0
 10
92.4890891639
 20
152.0904769
 30
0.0
  0
LINE
  5
2C3
100
AcDbEntity
  8
RUNDUNGEN
100
AcDbLine
 62
7
  6
CONTINUOUS
 10
92.4890891639
 20
152.0904769
 11
90.6626919416
 21
150.1679535081
  0
SPLINE
  5
2C4
100
AcDbEntity
  8
RUNDUNGEN
100
AcDbSpline
 62
7
  6
CONTINUOUS
 70
0
 71
3
 72
11
 73
7
 74
0
 42
0.0000001
 43
0.0000001
 44
0.0000000001
 40
0.0
 40
0.0
 40
0.0
 40
0.0
 40
0.2194857931
 40
0.4521520204
 40
0.7096010611
 40
1.0
 40
1.0
 40
1.0
 40
1.0
 10
79.3366880566
 20
152.1679535076
 30
0.0
 10
79.360087174
 20
152.1679527997
 30
0.0
 10
79.4085176107
 20
152.1611302808
 30
0.0
 10
79.4787313271
 20
152.1311021556
 30
0.0
 10
79.5466249151
 20
152.0820760952
 30
0.0
 10
79.5874547829
 20
152.0399382607
 30
0.0
 10
79.6075162459
 20
152.0163585551
 30
0.0
  0
SPLINE
  5
2C5
100
AcDbEntity
  8
RUNDUNGEN
100
AcDbSpline
 62
7
  6
CONTINUOUS
 70
0
 71
3
 72
19
 73
15
 74
0
 42
0.0000001
 43
0.0000001
 44
0.0000000001
 40
0.0
 40
0.0
 40
0.0
 40
0.0
 40
0.0740302233
 40
0.1477652661
 40
0.2209693495
 40
0.2936063148
 40
0.4370056733
 40
0.5772962137
 40
0.7123830373
 40
0.8370063054
 40
0.8918762751
 40
0.9386582574
 40
0.9749399323
 40
1.0
 40
1.0
 40
1.0
 40
1.0
 10
100.2720530861
 20
150.1679881294
 30
0.0
 10
100.2035196913
 20
150.1679854224
 30
0.0
 10
100.0662148154
 20
150.1974231667
 30
0.0
 10
99.8860355556
 20
150.2973315781
 30
0.0
 10
99.7275657677
 20
150.4256748902
 30
0.0
 10
99.5393430012
 20
150.6165889085
 30
0.0
 10
99.3335840029
 20
150.875254384
 30
0.0
 10
99.1114908453
 20
151.1930352918
 30
0.0
 10
98.9046295571
 20
151.5000656558
 30
0.0
 10
98.7353411632
 20
151.7374485496
 30
0.0
 10
98.6000774749
 20
151.8974601283
 30
0.0
 10
98.508605315
 20
151.9873597247
 30
0.0
 10
98.4280525598
 20
152.0463985864
 30
0.0
 10
98.3727276716
 20
152.0678632475
 30
0.0
 10
98.3495283425
 20
152.0678636279
 30
0.0
  0
SPLINE
  5
2C6
100
AcDbEntity
  8
RUNDUNGEN
100
AcDbSpline
 62
7
  6
CONTINUOUS
 70
0
 71
3
 72
19
 73
15
 74
0
 42
0.0000001
 43
0.0000001
 44
0.0000000001
 40
0.0
 40
0.0
 40
0.0
 40
0.0
 40
0.0250600048
 40
0.0613415973
 40
0.1081235803
 40
0.1629935958
 40
0.2876168781
 40
0.4227037153
 40
0.5629942682
 40
0.7063936564
 40
0.7790306304
 40
0.8522347199
 40
0.9259697514
 40
1.0
 40
1.0
 40
1.0
 40
1.0
 10
98.3495283503
 20
140.2680435484
 30
0.0
 10
98.3727276159
 20
140.268043973
 30
0.0
 10
98.4280525983
 20
140.2895075855
 30
0.0
 10
98.5086054333
 20
140.348546415
 30
0.0
 10
98.6000774846
 20
140.4384459434
 30
0.0
 10
98.735340693
 20
140.5984579745
 30
0.0
 10
98.9046299006
 20
140.8358402083
 30
0.0
 10
99.111491842
 20
141.1428701128
 30
0.0
 10
99.3335850812
 20
141.4606508786
 30
0.0
 10
99.5393437377
 20
141.71931664
 30
0.0
 10
99.7275665733
 20
141.9102304951
 30
0.0
 10
99.8860356661
 20
142.0385746664
 30
0.0
 10
100.0662152254
 20
142.1384824788
 30
0.0
 10
100.2035197214
 20
142.1679210734
 30
0.0
 10
100.2720531241
 20
142.1679189539
 30
0.0
  0
SPLINE
  5
2C7
100
AcDbEntity
  8
RUNDUNGEN
100
AcDbSpline
 62
7
  6
CONTINUOUS
 70
0
 71
3
 72
9
 73
5
 74
0
 42
0.0000001
 43
0.0000001
 44
0.0000000001
 40
0.0
 40
0.0
 40
0.0
 40
0.0
 40
0.4999999897
 40
1.0
 40
1.0
 40
1.0
 40
1.0
 10
92.5852097207
 20
151.9943507302
 30
0.0
 10
92.5833824374
 20
152.0183876111
 30
0.0
 10
92.5609843576
 20
152.0662460133
 30
0.0
 10
92.5131260432
 20
152.0886445281
 30
0.0
 10
92.4890891637
 20
152.0904718428
 30
0.0
  0
SPLINE
  5
2C8
100
AcDbEntity
  8
RUNDUNGEN
100
AcDbSpline
 62
7
  6
CONTINUOUS
 70
0
 71
3
 72
9
 73
5
 74
0
 42
0.0000001
 43
0.0000001
 44
0.0000000001
 40
0.0
 40
0.0
 40
0.0
 40
0.0
 40
0.5069819248
 40
1.0
 40
1.0
 40
1.0
 40
1.0
 10
92.7353870394
 20
152.0679535081
 30
0.0
 10
92.7353870093
 20
152.0933233902
 30
0.0
 10
92.7158060245
 20
152.1456506296
 30
0.0
 10
92.6639319868
 20
152.1679533817
 30
0.0
 10
92.6392608698
 20
152.1679533817
 30
0.0
  0
SPLINE
  5
2C9
100
AcDbEntity
  8
RUNDUNGEN
100
AcDbSpline
 62
7
  6
CONTINUOUS
 70
0
 71
3
 72
9
 73
5
 74
0
 42
0.0000001
 43
0.0000001
 44
0.0000000001
 40
0.0
 40
0.0
 40
0.0
 40
0.0
 40
0.5069819276
 40
1.0
 40
1.0
 40
1.0
 40
1.0
 10
98.3495286226
 20
152.0678635892
 30
0.0
 10
98.3495286226
 20
152.0932563035
 30
0.0
 10
98.3299300621
 20
152.1456306623
 30
0.0
 10
98.2780093376
 20
152.1679535081
 30
0.0
 10
98.2533160175
 20
152.1679535081
 30
0.0
  0
SPLINE
  5
2CA
100
AcDbEntity
  8
RUNDUNGEN
100
AcDbSpline
 62
7
  6
CONTINUOUS
 70
0
 71
3
 72
18
 73
14
 74
0
 42
0.0000001
 43
0.0000001
 44
0.0000000001
 40
0.0
 40
0.0
 40
0.0
 40
0.0
 40
0.177312863
 40
0.3474874427
 40
0.5042801913
 40
0.6429831171
 40
0.7607792639
 40
0.8116100147
 40
0.8572089919
 40
0.8979775807
 40
0.9346059363
 40
0.9681403999
 40
1.0
 40
1.0
 40
1.0
 40
1.0
 10
71.0400719257
 20
146.1677993394
 30
0.0
 10
71.0400682182
 20
145.7642358813
 30
0.0
 10
71.0100542419
 20
144.972992874
 30
0.0
 10
70.876871841
 20
143.8318150543
 30
0.0
 10
70.6636297769
 20
142.7919700174
 30
0.0
 10
70.3817060238
 20
141.8927910276
 30
0.0
 10
70.0874926404
 20
141.2546197836
 30
0.0
 10
69.8224808366
 20
140.8444040231
 30
0.0
 10
69.6243628139
 20
140.6020152699
 30
0.0
 10
69.4184734719
 20
140.4107720026
 30
0.0
 10
69.205778705
 20
140.2719401022
 30
0.0
 10
68.9875794887
 20
140.1871882713
 30
0.0
 10
68.8381464467
 20
140.1679534482
 30
0.0
 10
68.7656341079
 20
140.1679535081
 30
0.0
  0
SPLINE
  5
2CB
100
AcDbEntity
  8
RUNDUNGEN
100
AcDbSpline
 62
7
  6
CONTINUOUS
 70
0
 71
3
 72
9
 73
5
 74
0
 42
0.0000001
 43
0.0000001
 44
0.0000000001
 40
0.0
 40
0.0
 40
0.0
 40
0.0
 40
0.506981842
 40
1.0
 40
1.0
 40
1.0
 40
1.0
 10
98.3495286226
 20
140.268043586
 30
0.0
 10
98.3495286348
 20
140.2426508338
 30
0.0
 10
98.3299300493
 20
140.1902763755
 30
0.0
 10
98.2780092301
 20
140.1679535081
 30
0.0
 10
98.2533158646
 20
140.1679535081
 30
0.0
  0
SPLINE
  5
2CC
100
AcDbEntity
  8
RUNDUNGEN
100
AcDbSpline
 62
7
  6
CONTINUOUS
 70
0
 71
3
 72
9
 73
5
 74
0
 42
0.0000001
 43
0.0000001
 44
0.0000000001
 40
0.0
 40
0.0
 40
0.0
 40
0.0
 40
0.5069819274
 40
1.0
 40
1.0
 40
1.0
 40
1.0
 10
92.7353870394
 20
140.2679535081
 30
0.0
 10
92.7353870394
 20
140.2425836062
 30
0.0
 10
92.7158060858
 20
140.1902562995
 30
0.0
 10
92.6639320059
 20
140.1679535081
 30
0.0
 10
92.6392608698
 20
140.1679535081
 30
0.0
  0
SPLINE
  5
2CD
100
AcDbEntity
  8
RUNDUNGEN
100
AcDbSpline
 62
7
  6
CONTINUOUS
 70
0
 71
3
 72
9
 73
5
 74
0
 42
0.0000001
 43
0.0000001
 44
0.0000000001
 40
0.0
 40
0.0
 40
0.0
 40
0.0
 40
0.5000000131
 40
1.0
 40
1.0
 40
1.0
 40
1.0
 10
92.5852153335
 20
140.3415562858
 30
0.0
 10
92.5833889643
 20
140.3175178227
 30
0.0
 10
92.5609899715
 20
140.269655502
 30
0.0
 10
92.5131276278
 20
140.2472565569
 30
0.0
 10
92.4890891639
 20
140.2454302135
 30
0.0
  0
SPLINE
  5
2CE
100
AcDbEntity
  8
RUNDUNGEN
100
AcDbSpline
 62
7
  6
CONTINUOUS
 70
0
 71
3
 72
9
 73
5
 74
0
 42
0.0000001
 43
0.0000001
 44
0.0000000001
 40
0.0
 40
0.0
 40
0.0
 40
0.0
 40
0.5428529098
 40
1.0
 40
1.0
 40
1.0
 40
1.0
 10
92.5852153335
 20
140.3415562858
 30
0.0
 10
92.6070429633
 20
140.3197285399
 30
0.0
 10
92.6522028691
 20
140.2833543943
 30
0.0
 10
92.7093916383
 20
140.2679533425
 30
0.0
 10
92.7353870394
 20
140.2679535081
 30
0.0
  0
SPLINE
  5
2CF
100
AcDbEntity
  8
RUNDUNGEN
100
AcDbSpline
 62
7
  6
CONTINUOUS
 70
0
 71
3
 72
9
 73
5
 74
0
 42
0.0000001
 43
0.0000001
 44
0.0000000001
 40
0.0
 40
0.0
 40
0.0
 40
0.0
 40
0.473720586
 40
1.0
 40
1.0
 40
1.0
 40
1.0
 10
69.1912764035
 20
175.3012858159
 30
0.0
 10
69.1913786301
 20
175.3262647059
 30
0.0
 10
69.2036090332
 20
175.3796817099
 30
0.0
 10
69.2373853701
 20
175.4219772259
 30
0.0
 10
69.2572546972
 20
175.4413498971
 30
0.0
  0
SPLINE
  5
2D0
100
AcDbEntity
  8
RUNDUNGEN
100
AcDbSpline
 62
7
  6
CONTINUOUS
 70
0
 71
3
 72
11
 73
7
 74
0
 42
0.0000001
 43
0.0000001
 44
0.0000000001
 40
0.0
 40
0.0
 40
0.0
 40
0.0
 40
0.2439955663
 40
0.4918535003
 40
0.7445104083
 40
1.0
 40
1.0
 40
1.0
 40
1.0
 10
69.9144556761
 20
152.1679540322
 30
0.0
 10
69.9389875897
 20
152.1680144877
 30
0.0
 10
69.9889305137
 20
152.1786405415
 30
0.0
 10
70.051843755
 20
152.2226724072
 30
0.0
 10
70.0936407377
 20
152.2883200886
 30
0.0
 10
70.1039198135
 20
152.3397552286
 30
0.0
 10
70.1042267206
 20
152.3654410242
 30
0.0
  0
LINE
  5
2D1
100
AcDbEntity
  8
RUNDUNGEN
100
AcDbLine
 62
7
  6
CONTINUOUS
 10
92.7353870394
 20
140.2679535081
 11
98.3495283503
 21
140.2680435859
  0
LINE
  5
2D2
100
AcDbEntity
  8
RUNDUNGEN
100
AcDbLine
 62
7
  6
CONTINUOUS
 10
98.3495283425
 20
152.0678635892
 11
92.7353870394
 21
152.0679535081
  0
SPLINE
  5
2D3
100
AcDbEntity
  8
RUNDUNGEN
100
AcDbSpline
 62
7
  6
CONTINUOUS
 70
0
 71
3
 72
9
 73
5
 74
0
 42
0.0000001
 43
0.0000001
 44
0.0000000001
 40
0.0
 40
0.0
 40
0.0
 40
0.0
 40
0.4571469784
 40
1.0
 40
1.0
 40
1.0
 40
1.0
 10
92.7353870394
 20
152.0679535081
 30
0.0
 10
92.7093916415
 20
152.0679540317
 30
0.0
 10
92.6522027831
 20
152.0525525577
 30
0.0
 10
92.6070430904
 20
152.0161783634
 30
0.0
 10
92.5852153335
 20
151.9943507304
 30
0.0
  0
SPLINE
  5
2D4
100
AcDbEntity
  8
RUNDUNGEN
100
AcDbSpline
 62
7
  6
CONTINUOUS
 70
0
 71
3
 72
17
 73
13
 74
0
 42
0.0000001
 43
0.0000001
 44
0.0000000001
 40
0.0
 40
0.0
 40
0.0
 40
0.0
 40
0.0327668855
 40
0.0670198027
 40
0.1040011964
 40
0.1446729526
 40
0.2393791954
 40
0.3540552628
 40
0.488981061
 40
0.6430211394
 40
0.8142773457
 40
1.0
 40
1.0
 40
1.0
 40
1.0
 10
79.7033997608
 20
177.1679534823
 30
0.0
 10
79.7469412159
 20
177.1679421335
 30
0.0
 10
79.8362904092
 20
177.1575200639
 30
0.0
 10
79.9676489751
 20
177.1116605947
 30
0.0
 10
80.096755036
 20
177.0362960629
 30
0.0
 10
80.2740081175
 20
176.8900085643
 30
0.0
 10
80.4844186364
 20
176.6290145677
 30
0.0
 10
80.7080819697
 20
176.2285227844
 30
0.0
 10
80.9120686711
 20
175.7313394822
 30
0.0
 10
81.0924030863
 20
175.1463308207
 30
0.0
 10
81.2452888524
 20
174.4842208118
 30
0.0
 10
81.324061355
 20
174.016152794
 30
0.0
 10
81.3587943708
 20
173.7718162308
 30
0.0
  0
SPLINE
  5
2D5
100
AcDbEntity
  8
RUNDUNGEN
100
AcDbSpline
 62
7
  6
CONTINUOUS
 70
0
 71
3
 72
13
 73
9
 74
0
 42
0.0000001
 43
0.0000001
 44
0.0000000001
 40
0.0
 40
0.0
 40
0.0
 40
0.0
 40
0.3367386662
 40
0.618716759
 40
0.73518168
 40
0.8353628609
 40
0.9217570488
 40
1.0
 40
1.0
 40
1.0
 40
1.0
 10
82.0458402224
 20
173.7718109473
 30
0.0
 10
82.1368949016
 20
173.7724711957
 30
0.0
 10
82.3044459117
 20
173.762993146
 30
0.0
 10
82.500100209
 20
173.718323861
 30
0.0
 10
82.6226766193
 20
173.6608637206
 30
0.0
 10
82.6897557795
 20
173.6127034736
 30
0.0
 10
82.7362391902
 20
173.5569236629
 30
0.0
 10
82.7520035112
 20
173.5140372084
 30
0.0
 10
82.755313226
 20
173.4931401073
 30
0.0
  0
SPLINE
  5
2D6
100
AcDbEntity
  8
RUNDUNGEN
100
AcDbSpline
 62
7
  6
CONTINUOUS
 70
0
 71
3
 72
13
 73
9
 74
0
 42
0.0000001
 43
0.0000001
 44
0.0000000001
 40
0.0
 40
0.0
 40
0.0
 40
0.0
 40
0.2882090242
 40
0.5717730832
 40
0.7009781912
 40
0.8167454172
 40
0.9167279744
 40
1.0
 40
1.0
 40
1.0
 40
1.0
 10
81.3587943874
 20
173.7718162567
 30
0.0
 10
81.2301804122
 20
173.7727472007
 30
0.0
 10
80.9746197526
 20
173.751628079
 30
0.0
 10
80.6689654176
 20
173.6779916652
 30
0.0
 10
80.4493960563
 20
173.5908472487
 30
0.0
 10
80.3132056932
 20
173.5181200529
 30
0.0
 10
80.2053459079
 20
173.4387492643
 30
0.0
 10
80.1496155249
 20
173.3774915405
 30
0.0
 10
80.1293711571
 20
173.3463285973
 30
0.0
  0
SPLINE
  5
2D7
100
AcDbEntity
  8
RUNDUNGEN
100
AcDbSpline
 62
7
  6
CONTINUOUS
 70
0
 71
3
 72
11
 73
7
 74
0
 42
0.0000001
 43
0.0000001
 44
0.0000000001
 40
0.0
 40
0.0
 40
0.0
 40
0.0
 40
0.2442179942
 40
0.4918170396
 40
0.7442030762
 40
1.0
 40
1.0
 40
1.0
 40
1.0
 10
79.7033998118
 20
177.1679439956
 30
0.0
 10
79.5796345563
 20
177.1679439871
 30
0.0
 10
79.3274751659
 20
177.115140013
 30
0.0
 10
79.0117936192
 20
176.8912996729
 30
0.0
 10
78.8017455989
 20
176.5600923548
 30
0.0
 10
78.7526489004
 20
176.3000326139
 30
0.0
 10
78.7523462178
 20
176.1703997199
 30
0.0
  0
SPLINE
  5
2D8
100
AcDbEntity
  8
RUNDUNGEN
100
AcDbSpline
 62
7
  6
CONTINUOUS
 70
0
 71
3
 72
9
 73
5
 74
0
 42
0.0000001
 43
0.0000001
 44
0.0000000001
 40
0.0
 40
0.0
 40
0.0
 40
0.0
 40
0.4850093352
 40
1.0
 40
1.0
 40
1.0
 40
1.0
 10
69.2397828492
 20
175.6861481231
 30
0.0
 10
69.2298267047
 20
175.6472570262
 30
0.0
 10
69.2230661326
 20
175.563067099
 30
0.0
 10
69.2423800622
 20
175.4812972553
 30
0.0
 10
69.257254508
 20
175.4413497644
 30
0.0
  0
SPLINE
  5
2D9
100
AcDbEntity
  8
RUNDUNGEN
100
AcDbSpline
 62
7
  6
CONTINUOUS
 70
0
 71
3
 72
11
 73
7
 74
0
 42
0.0000001
 43
0.0000001
 44
0.0000000001
 40
0.0
 40
0.0
 40
0.0
 40
0.0
 40
0.2439791529
 40
0.4918374972
 40
0.7444961135
 40
1.0
 40
1.0
 40
1.0
 40
1.0
 10
79.3367034669
 20
152.1679477523
 30
0.0
 10
79.3612680912
 20
152.1679477674
 30
0.0
 10
79.4113055287
 20
152.1784909938
 30
0.0
 10
79.4743738246
 20
152.2224950592
 30
0.0
 10
79.5162863765
 20
152.2882075744
 30
0.0
 10
79.5265924376
 20
152.3397178388
 30
0.0
 10
79.5268990219
 20
152.3654409842
 30
0.0
  0
SPLINE
  5
2DA
100
AcDbEntity
  8
RUNDUNGEN
100
AcDbSpline
 62
7
  6
CONTINUOUS
 70
0
 71
3
 72
9
 73
5
 74
0
 42
0.0000001
 43
0.0000001
 44
0.0000000001
 40
0.0
 40
0.0
 40
0.0
 40
0.0
 40
0.5043167513
 40
1.0
 40
1.0
 40
1.0
 40
1.0
 10
79.607516245
 20
152.0163476967
 30
0.0
 10
79.653941679
 20
152.0215837787
 30
0.0
 10
79.7441888786
 20
152.0645677089
 30
0.0
 10
79.7916489825
 20
152.1532203423
 30
0.0
 10
79.7977171569
 20
152.1987376023
 30
0.0
  0
LINE
  5
2DB
100
AcDbEntity
  8
RUNDUNGEN
100
AcDbLine
 62
7
  6
CONTINUOUS
 10
90.6626919416
 20
142.1679535081
 11
92.5852153335
 21
140.3415562858
  0
LINE
  5
2DC
100
AcDbEntity
  8
RUNDUNGEN
100
AcDbLine
 62
7
  6
CONTINUOUS
 10
92.5852153335
 20
151.9943507304
 11
90.6626919416
 21
150.1679535081
  0
SPLINE
  5
2DD
100
AcDbEntity
  8
RUNDUNGEN
100
AcDbSpline
 62
7
  6
CONTINUOUS
 70
0
 71
3
 72
33
 73
29
 74
0
 42
0.0000001
 43
0.0000001
 44
0.0000000001
 40
0.0
 40
0.0
 40
0.0
 40
0.0
 40
0.1226908385
 40
0.185614248
 40
0.2493567944
 40
0.3138129717
 40
0.3462908651
 40
0.378920213
 40
0.4116923749
 40
0.4445978577
 40
0.4610998457
 40
0.4776098772
 40
0.5093177371
 40
0.5170779264
 40
0.5247475188
 40
0.5400375357
 40
0.5554329894
 40
0.5708943767
 40
0.5863948732
 40
0.6019162135
 40
0.6329693339
 40
0.6640007035
 40
0.6949809925
 40
0.7567211124
 40
0.8180987936
 40
0.8790772418
 40
0.9396821968
 40
1.0
 40
1.0
 40
1.0
 40
1.0
 10
81.3587943708
 20
173.7718162308
 30
0.0
 10
81.3745410523
 20
173.661021057
 30
0.0
 10
81.4082138765
 20
173.4947829762
 30
0.0
 10
81.4645281061
 20
173.2744276424
 30
0.0
 10
81.5128655781
 20
173.1069035785
 30
0.0
 10
81.5581171914
 20
172.9674627324
 30
0.0
 10
81.5988393179
 20
172.856504319
 30
0.0
 10
81.6320677973
 20
172.7736345319
 30
0.0
 10
81.6687483776
 20
172.6917332907
 30
0.0
 10
81.7033407288
 20
172.6253028747
 30
0.0
 10
81.7361166444
 20
172.5744025978
 30
0.0
 10
81.771451579
 20
172.5288135876
 30
0.0
 10
81.8177093819
 20
172.4910977092
 30
0.0
 10
81.8612716739
 20
172.4991975938
 30
0.0
 10
81.8859257448
 20
172.5130941698
 30
0.0
 10
81.910251056
 20
172.5390403414
 30
0.0
 10
81.9328031432
 20
172.5746426996
 30
0.0
 10
81.9514694541
 20
172.6126614033
 30
0.0
 10
81.9673406877
 20
172.6519997527
 30
0.0
 10
81.9857500055
 20
172.7055633823
 30
0.0
 10
82.0048657339
 20
172.7737749718
 30
0.0
 10
82.0234751259
 20
172.8566228252
 30
0.0
 10
82.0435692156
 20
172.9677252873
 30
0.0
 10
82.0608127146
 20
173.1073300169
 30
0.0
 10
82.0720617525
 20
173.2749413838
 30
0.0
 10
82.0742878606
 20
173.4418978543
 30
0.0
 10
82.0667941885
 20
173.6077421798
 30
0.0
 10
82.0543020479
 20
173.7174538504
 30
0.0
 10
82.045843967
 20
173.7718167863
 30
0.0
  0
SPLINE
  5
2DE
100
AcDbEntity
  8
RUNDUNGEN
100
AcDbSpline
 62
7
  6
CONTINUOUS
 70
0
 71
3
 72
17
 73
13
 74
0
 42
0.0000001
 43
0.0000001
 44
0.0000000001
 40
0.0
 40
0.0
 40
0.0
 40
0.0
 40
0.1856903076
 40
0.356963679
 40
0.511044832
 40
0.6460161038
 40
0.7607286728
 40
0.8554510997
 40
0.8961169457
 40
0.9330794432
 40
0.9672949713
 40
1.0
 40
1.0
 40
1.0
 40
1.0
 10
82.045843967
 20
173.7718167863
 30
0.0
 10
82.0078180952
 20
174.0161984803
 30
0.0
 10
81.9231684183
 20
174.4843164808
 30
0.0
 10
81.7632165647
 20
175.1463832733
 30
0.0
 10
81.577659949
 20
175.7313591401
 30
0.0
 10
81.3700149074
 20
176.228518988
 30
0.0
 10
81.1439433988
 20
176.6289914112
 30
0.0
 10
80.9322535044
 20
176.8899776126
 30
0.0
 10
80.7543469899
 20
177.0362795741
 30
0.0
 10
80.6249422299
 20
177.1116424381
 30
0.0
 10
80.493417229
 20
177.1575076626
 30
0.0
 10
80.4039952837
 20
177.1679424073
 30
0.0
 10
80.3604351933
 20
177.1679534835
 30
0.0
  0
SPLINE
  5
2DF
100
AcDbEntity
  8
RUNDUNGEN
100
AcDbSpline
 62
7
  6
CONTINUOUS
 70
0
 71
3
 72
9
 73
5
 74
0
 42
0.0000001
 43
0.0000001
 44
0.0000000001
 40
0.0
 40
0.0
 40
0.0
 40
0.0
 40
0.7500188902
 40
1.0
 40
1.0
 40
1.0
 40
1.0
 10
79.7977136308
 20
152.1987803926
 30
0.0
 10
79.8596050195
 20
157.486098915
 30
0.0
 10
80.024388871
 20
164.5344539361
 30
0.0
 10
80.1151417699
 20
171.5840009023
 30
0.0
 10
80.1293712706
 20
173.3463261371
 30
0.0
  0
SPLINE
  5
2E0
100
AcDbEntity
  8
RUNDUNGEN
100
AcDbSpline
 62
7
  6
CONTINUOUS
 70
0
 71
3
 72
39
 73
35
 74
0
 42
0.0000001
 43
0.0000001
 44
0.0000000001
 40
0.0
 40
0.0
 40
0.0
 40
0.0
 40
0.0452791827
 40
0.1021068358
 40
0.1666655314
 40
0.2363356831
 40
0.2725372482
 40
0.3094218802
 40
0.346849294
 40
0.3847035759
 40
0.4037594797
 40
0.4228900838
 40
0.4420777987
 40
0.4613423029
 40
0.4805986684
 40
0.4999166389
 40
0.5191794295
 40
0.5383901654
 40
0.5575284744
 40
0.5766034377
 40
0.6144963682
 40
0.6519709968
 40
0.6889090932
 40
0.7251799315
 40
0.760628761
 40
0.828260231
 40
0.8897029402
 40
0.9172021302
 40
0.9418863589
 40
0.9631384131
 40
0.9802908325
 40
0.9927034375
 40
0.9969811118
 40
1.0
 40
1.0
 40
1.0
 40
1.0
 10
79.7976888661
 20
152.1987803926
 30
0.0
 10
79.8402819079
 20
152.1370354072
 30
0.0
 10
79.9425573359
 20
152.0021722689
 30
0.0
 10
80.1145090309
 20
151.7861769941
 30
0.0
 10
80.3163356216
 20
151.5423326364
 30
0.0
 10
80.4986697133
 20
151.3267618789
 30
0.0
 10
80.6530655434
 20
151.1476174293
 30
0.0
 10
80.7740401262
 20
151.0101939672
 30
0.0
 10
80.8986884443
 20
150.8723798179
 30
0.0
 10
81.0058515354
 20
150.75858924
 30
0.0
 10
81.095052891
 20
150.6696156399
 30
0.0
 10
81.1647193803
 20
150.6049252501
 30
0.0
 10
81.2384712005
 20
150.5442259723
 30
0.0
 10
81.3192382924
 20
150.4925187526
 30
0.0
 10
81.4138835242
 20
150.4642377306
 30
0.0
 10
81.5108522486
 20
150.4849613086
 30
0.0
 10
81.5937780262
 20
150.5338954424
 30
0.0
 10
81.668924535
 20
150.5929173561
 30
0.0
 10
81.7395210751
 20
150.6567460855
 30
0.0
 10
81.8295774506
 20
150.7450098664
 30
0.0
 10
81.9371998193
 20
150.8586262443
 30
0.0
 10
82.0618075072
 20
150.9967871985
 30
0.0
 10
82.1829292654
 20
151.1344544261
 30
0.0
 10
82.3007531384
 20
151.2705421589
 30
0.0
 10
82.4507735467
 20
151.4460065074
 30
0.0
 10
82.6255950853
 20
151.6551182439
 30
0.0
 10
82.7893805177
 20
151.8562622891
 30
0.0
 10
82.9060345389
 20
152.0040063887
 30
0.0
 10
82.9798095636
 20
152.1007347229
 30
0.0
 10
83.0412669341
 20
152.1853287112
 30
0.0
 10
83.0881533077
 20
152.2551765514
 30
0.0
 10
83.1167258097
 20
152.3036908097
 30
0.0
 10
83.1291001695
 20
152.3338938144
 30
0.0
 10
83.1317514786
 20
152.345905643
 30
0.0
 10
83.1316999706
 20
152.3509065507
 30
0.0
  0
SPLINE
  5
2E1
100
AcDbEntity
  8
RUNDUNGEN
100
AcDbSpline
 62
7
  6
CONTINUOUS
 70
0
 71
3
 72
16
 73
12
 74
0
 42
0.0000001
 43
0.0000001
 44
0.0000000001
 40
0.0
 40
0.0
 40
0.0
 40
0.0
 40
0.032811268
 40
0.0670987338
 40
0.1445293783
 40
0.2392184141
 40
0.3538551977
 40
0.4887541227
 40
0.6428057772
 40
0.8141352913
 40
1.0
 40
1.0
 40
1.0
 40
1.0
 10
78.7523461319
 20
176.1703997201
 30
0.0
 10
78.7886033299
 20
176.1703863337
 30
0.0
 10
78.8629876191
 20
176.1617384698
 30
0.0
 10
79.0148524148
 20
176.1088805104
 30
0.0
 10
79.2022986866
 20
175.9710653029
 30
0.0
 10
79.4024226266
 20
175.7230108707
 30
0.0
 10
79.5889296085
 20
175.3899750963
 30
0.0
 10
79.7585755998
 20
174.9767065943
 30
0.0
 10
79.9085571758
 20
174.4901247409
 30
0.0
 10
80.0354695535
 20
173.9392236159
 30
0.0
 10
80.1006739447
 20
173.5496908393
 30
0.0
 10
80.1293726409
 20
173.3463210294
 30
0.0
  0
SPLINE
  5
2E2
100
AcDbEntity
  8
RUNDUNGEN
100
AcDbSpline
 62
7
  6
CONTINUOUS
 70
0
 71
3
 72
11
 73
7
 74
0
 42
0.0000001
 43
0.0000001
 44
0.0000000001
 40
0.0
 40
0.0
 40
0.0
 40
0.0
 40
0.2140776393
 40
0.4439943486
 40
0.7030413373
 40
1.0
 40
1.0
 40
1.0
 40
1.0
 10
79.5268997328
 20
152.3654409748
 30
0.0
 10
79.5503524029
 20
152.3654378624
 30
0.0
 10
79.5992556324
 20
152.3577978639
 30
0.0
 10
79.6696143739
 20
152.3244842889
 30
0.0
 10
79.7373846341
 20
152.2704466247
 30
0.0
 10
79.7777801496
 20
152.2244930463
 30
0.0
 10
79.7976886659
 20
152.1987634455
 30
0.0
  0
SPLINE
  5
2E3
100
AcDbEntity
  8
RUNDUNGEN
100
AcDbSpline
 62
7
  6
CONTINUOUS
 70
0
 71
3
 72
9
 73
5
 74
0
 42
0.0000001
 43
0.0000001
 44
0.0000000001
 40
0.0
 40
0.0
 40
0.0
 40
0.0
 40
0.497566389
 40
1.0
 40
1.0
 40
1.0
 40
1.0
 10
70.1042267631
 20
152.3654446186
 30
0.0
 10
71.6670282525
 20
152.3657095781
 30
0.0
 10
74.8079187124
 20
152.3649949799
 30
0.0
 10
77.9488091522
 20
152.3654807725
 30
0.0
 10
79.526898065
 20
152.3653015222
 30
0.0
  0
SPLINE
  5
2E4
100
AcDbEntity
  8
RUNDUNGEN
100
AcDbSpline
 62
7
  6
CONTINUOUS
 70
0
 71
3
 72
9
 73
5
 74
0
 42
0.0000001
 43
0.0000001
 44
0.0000000001
 40
0.0
 40
0.0
 40
0.0
 40
0.0
 40
0.2613969092
 40
1.0
 40
1.0
 40
1.0
 40
1.0
 10
69.6005028784
 20
152.1705637888
 30
0.0
 10
69.6153817768
 20
152.1822044546
 30
0.0
 10
69.6732879962
 20
152.2254415239
 30
0.0
 10
69.7353766379
 20
152.2632417227
 30
0.0
 10
69.7832817195
 20
152.2867893779
 30
0.0
  0
SPLINE
  5
2E5
100
AcDbEntity
  8
RUNDUNGEN
100
AcDbSpline
 62
7
  6
CONTINUOUS
 70
0
 71
3
 72
9
 73
5
 74
0
 42
0.0000001
 43
0.0000001
 44
0.0000000001
 40
0.0
 40
0.0
 40
0.0
 40
0.0
 40
0.5134270524
 40
1.0
 40
1.0
 40
1.0
 40
1.0
 10
69.7832817195
 20
152.2867893779
 30
0.0
 10
69.8343726334
 20
152.3119030231
 30
0.0
 10
69.9390250791
 20
152.3513819974
 30
0.0
 10
70.050274769
 20
152.3654308652
 30
0.0
 10
70.1042267202
 20
152.3654410242
 30
0.0
  0
SPLINE
  5
2E6
100
AcDbEntity
  8
RUNDUNGEN
100
AcDbSpline
 62
7
  6
CONTINUOUS
 70
0
 71
3
 72
9
 73
5
 74
0
 42
0.0000001
 43
0.0000001
 44
0.0000000001
 40
0.0
 40
0.0
 40
0.0
 40
0.0
 40
0.750027435
 40
1.0
 40
1.0
 40
1.0
 40
1.0
 10
68.9125439678
 20
152.1679799835
 30
0.0
 10
68.9803927672
 20
157.9868076557
 30
0.0
 10
69.1708143714
 20
165.7434790261
 30
0.0
 10
69.2496338633
 20
173.5019078917
 30
0.0
 10
69.2572545657
 20
175.4413501821
 30
0.0
  0
SPLINE
  5
2E7
100
AcDbEntity
  8
RUNDUNGEN
100
AcDbSpline
 62
7
  6
CONTINUOUS
 70
0
 71
3
 72
9
 73
5
 74
0
 42
0.0000001
 43
0.0000001
 44
0.0000000001
 40
0.0
 40
0.0
 40
0.0
 40
0.0
 40
0.2577006622
 40
1.0
 40
1.0
 40
1.0
 40
1.0
 10
69.2572546983
 20
175.4413501821
 30
0.0
 10
69.260904501
 20
175.4554751339
 30
0.0
 10
69.2754331743
 20
175.5101908326
 30
0.0
 10
69.2914514824
 20
175.5645157928
 30
0.0
 10
69.3043169977
 20
175.6045207617
 30
0.0
  0
SPLINE
  5
2E8
100
AcDbEntity
  8
RUNDUNGEN
100
AcDbSpline
 62
7
  6
CONTINUOUS
 70
0
 71
3
 72
9
 73
5
 74
0
 42
0.0000001
 43
0.0000001
 44
0.0000000001
 40
0.0
 40
0.0
 40
0.0
 40
0.0
 40
0.2706536007
 40
1.0
 40
1.0
 40
1.0
 40
1.0
 10
69.3043169977
 20
175.6045207617
 30
0.0
 10
69.3123402779
 20
175.6294689329
 30
0.0
 10
69.3434029072
 20
175.7211616175
 30
0.0
 10
69.3803929302
 20
175.8110133282
 30
0.0
 10
69.4122749064
 20
175.8740274632
 30
0.0
  0
SPLINE
  5
2E9
100
AcDbEntity
  8
RUNDUNGEN
100
AcDbSpline
 62
7
  6
CONTINUOUS
 70
0
 71
3
 72
13
 73
9
 74
0
 42
0.0000001
 43
0.0000001
 44
0.0000000001
 40
0.0
 40
0.0
 40
0.0
 40
0.0
 40
0.168671784
 40
0.3230810016
 40
0.5285951157
 40
0.7054774523
 40
0.8594133957
 40
1.0
 40
1.0
 40
1.0
 40
1.0
 10
69.4122749064
 20
175.8740274632
 30
0.0
 10
69.4239588591
 20
175.897120579
 30
0.0
 10
69.4476456985
 20
175.9407215592
 30
0.0
 10
69.4914713749
 20
176.0090416435
 30
0.0
 10
69.5431744494
 20
176.0735475419
 30
0.0
 10
69.6053734884
 20
176.1282927117
 30
0.0
 10
69.6701494725
 20
176.1623537064
 30
0.0
 10
69.7155942712
 20
176.1703825574
 30
0.0
 10
69.7371655613
 20
176.1703999389
 30
0.0
  0
LINE
  5
2EA
100
AcDbEntity
  8
RUNDUNGEN
100
AcDbLine
 62
7
  6
CONTINUOUS
 10
69.7371656217
 20
176.1704258388
 11
78.7523460811
 21
176.1703778852
  0
SPLINE
  5
2EB
100
AcDbEntity
  8
RUNDUNGEN
100
AcDbSpline
 62
7
  6
CONTINUOUS
 70
0
 71
3
 72
30
 73
26
 74
0
 42
0.0000001
 43
0.0000001
 44
0.0000000001
 40
0.0
 40
0.0
 40
0.0
 40
0.0
 40
0.0465838834
 40
0.1012624658
 40
0.1629589339
 40
0.2302712498
 40
0.2656586793
 40
0.302094963
 40
0.3395188824
 40
0.3777402139
 40
0.4165659708
 40
0.455798672
 40
0.5344059929
 40
0.6108601887
 40
0.6474225139
 40
0.6825209476
 40
0.7161151138
 40
0.7481939087
 40
0.8080357383
 40
0.8359014593
 40
0.8622269045
 40
0.8871645218
 40
0.9113240217
 40
0.957237982
 40
1.0
 40
1.0
 40
1.0
 40
1.0
 10
80.1293726822
 20
173.3463261371
 30
0.0
 10
80.1560364955
 20
173.2999665836
 30
0.0
 10
80.2248116726
 20
173.2055321685
 30
0.0
 10
80.350523051
 20
173.0668229933
 30
0.0
 10
80.5032136897
 20
172.9211293384
 30
0.0
 10
80.6482507532
 20
172.8000227581
 30
0.0
 10
80.7780605161
 20
172.7067900327
 30
0.0
 10
80.8839260841
 20
172.6394741678
 30
0.0
 10
80.9937902937
 20
172.5724756845
 30
0.0
 10
81.108075612
 20
172.5075491808
 30
0.0
 10
81.2268595219
 20
172.4464506603
 30
0.0
 10
81.3918645464
 20
172.3747315202
 30
0.0
 10
81.6043815356
 20
172.3039934787
 30
0.0
 10
81.825402431
 20
172.2789928384
 30
0.0
 10
81.9952596733
 20
172.294047311
 30
0.0
 10
82.1134404175
 20
172.3210157226
 30
0.0
 10
82.2221955892
 20
172.361229134
 30
0.0
 10
82.3516637514
 20
172.4249960048
 30
0.0
 10
82.4644307596
 20
172.5056455562
 30
0.0
 10
82.5596199742
 20
172.5956409128
 30
0.0
 10
82.6208099898
 20
172.6629050387
 30
0.0
 10
82.6732254799
 20
172.7320759384
 30
0.0
 10
82.7273600301
 20
172.8270497955
 30
0.0
 10
82.7732543826
 20
172.9492428138
 30
0.0
 10
82.7869231377
 20
173.0513571728
 30
0.0
 10
82.7866333896
 20
173.1004491636
 30
0.0
  0
SPLINE
  5
2EC
100
AcDbEntity
  8
RUNDUNGEN
100
AcDbSpline
 62
7
  6
CONTINUOUS
 70
0
 71
3
 72
9
 73
5
 74
0
 42
0.0000001
 43
0.0000001
 44
0.0000000001
 40
0.0
 40
0.0
 40
0.0
 40
0.0
 40
0.4703717172
 40
1.0
 40
1.0
 40
1.0
 40
1.0
 10
224.7914270733
 20
150.5923368076
 30
0.0
 10
224.7344080732
 20
150.8549474387
 30
0.0
 10
224.4974299336
 20
151.3935594178
 30
0.0
 10
224.0508442276
 20
151.7870098248
 30
0.0
 10
223.7839429164
 20
151.9295596437
 30
0.0
  0
SPLINE
  5
2ED
100
AcDbEntity
  8
RUNDUNGEN
100
AcDbSpline
 62
7
  6
CONTINUOUS
 70
0
 71
3
 72
13
 73
9
 74
0
 42
0.0000001
 43
0.0000001
 44
0.0000000001
 40
0.0
 40
0.0
 40
0.0
 40
0.0
 40
0.1473405757
 40
0.2860037806
 40
0.4167048034
 40
0.5408865961
 40
0.7750549584
 40
1.0
 40
1.0
 40
1.0
 40
1.0
 10
223.455011318
 20
140.2658404755
 30
0.0
 10
223.5718019564
 20
140.3049270175
 30
0.0
 10
223.7933919932
 20
140.3985838063
 30
0.0
 10
224.0846812548
 20
140.592842095
 30
0.0
 10
224.3253739545
 20
140.8192389615
 30
0.0
 10
224.5754718471
 20
141.1444098198
 30
0.0
 10
224.7822771442
 20
141.5941225799
 30
0.0
 10
224.8369773293
 20
141.9799285433
 30
0.0
 10
224.8369773293
 20
142.1679535081
 30
0.0
  0
SPLINE
  5
2EE
100
AcDbEntity
  8
RUNDUNGEN
100
AcDbSpline
 62
7
  6
CONTINUOUS
 70
0
 71
3
 72
15
 73
11
 74
0
 42
0.0000001
 43
0.0000001
 44
0.0000000001
 40
0.0
 40
0.0
 40
0.0
 40
0.0
 40
0.0324604808
 40
0.057928181
 40
0.0907485406
 40
0.179115803
 40
0.2967906289
 40
0.4414375339
 40
0.6097531209
 40
1.0
 40
1.0
 40
1.0
 40
1.0
 10
224.1068180818
 20
173.7562974251
 30
0.0
 10
224.1101911092
 20
173.7490524018
 30
0.0
 10
224.1052105263
 20
173.7329775558
 30
0.0
 10
224.0926027244
 20
173.7152584245
 30
0.0
 10
224.068212001
 20
173.688160394
 30
0.0
 10
224.0231908101
 20
173.6503316983
 30
0.0
 10
223.9531026243
 20
173.5997558917
 30
0.0
 10
223.8638576374
 20
173.5424755509
 30
0.0
 10
223.7147863629
 20
173.454374477
 30
0.0
 10
223.5932915764
 20
173.3897841545
 30
0.0
 10
223.5076023523
 20
173.3463285973
 30
0.0
  0
SPLINE
  5
2EF
100
AcDbEntity
  8
RUNDUNGEN
100
AcDbSpline
 62
7
  6
CONTINUOUS
 70
0
 71
3
 72
13
 73
9
 74
0
 42
0.0000001
 43
0.0000001
 44
0.0000000001
 40
0.0
 40
0.0
 40
0.0
 40
0.0
 40
0.1160744235
 40
0.2149824106
 40
0.3403588746
 40
0.4880562275
 40
0.6521692399
 40
1.0
 40
1.0
 40
1.0
 40
1.0
 10
190.2987477825
 20
151.0136622172
 30
0.0
 10
190.2909770602
 20
151.0079880757
 30
0.0
 10
190.269593283
 20
151.0145671477
 30
0.0
 10
190.2470309204
 20
151.0290836965
 30
0.0
 10
190.222631782
 20
151.0487939649
 30
0.0
 10
190.1968384662
 20
151.0740796781
 30
0.0
 10
190.1603372992
 20
151.1149084533
 30
0.0
 10
190.1349246683
 20
151.14902208
 30
0.0
 10
190.1190049795
 20
151.1730617608
 30
0.0
  0
SPLINE
  5
2F0
100
AcDbEntity
  8
RUNDUNGEN
100
AcDbSpline
 62
7
  6
CONTINUOUS
 70
0
 71
3
 72
12
 73
8
 74
0
 42
0.0000001
 43
0.0000001
 44
0.0000000001
 40
0.0
 40
0.0
 40
0.0
 40
0.0
 40
0.128606142
 40
0.225871578
 40
0.3469722693
 40
0.6497286172
 40
1.0
 40
1.0
 40
1.0
 40
1.0
 10
193.8369773293
 20
152.1679535081
 30
0.0
 10
193.8276973269
 20
152.167953508
 30
0.0
 10
193.8133108371
 20
152.180815553
 30
0.0
 10
193.8017353204
 20
152.2023353502
 30
0.0
 10
193.7885195983
 20
152.2379456625
 30
0.0
 10
193.7782695991
 20
152.2930005539
 30
0.0
 10
193.7752770567
 20
152.3401662223
 30
0.0
 10
193.7751789324
 20
152.3654410242
 30
0.0
  0
SPLINE
  5
2F1
100
AcDbEntity
  8
RUNDUNGEN
100
AcDbSpline
 62
7
  6
CONTINUOUS
 70
0
 71
3
 72
9
 73
5
 74
0
 42
0.0000001
 43
0.0000001
 44
0.0000000001
 40
0.0
 40
0.0
 40
0.0
 40
0.0
 40
0.4961331238
 40
1.0
 40
1.0
 40
1.0
 40
1.0
 10
190.404855405
 20
177.1126497334
 30
0.0
 10
190.082350993
 20
177.0466419101
 30
0.0
 10
189.4517992755
 20
176.7925508008
 30
0.0
 10
188.9504370229
 20
176.3352164167
 30
0.0
 10
188.7445016361
 20
176.0718506789
 30
0.0
  0
SPLINE
  5
2F2
100
AcDbEntity
  8
RUNDUNGEN
100
AcDbSpline
 62
7
  6
CONTINUOUS
 70
0
 71
3
 72
12
 73
8
 74
0
 42
0.0000001
 43
0.0000001
 44
0.0000000001
 40
0.0
 40
0.0
 40
0.0
 40
0.0
 40
0.1286059825
 40
0.2258718778
 40
0.3469731722
 40
0.6497302222
 40
1.0
 40
1.0
 40
1.0
 40
1.0
 10
222.836977329
 20
152.1679477523
 30
0.0
 10
222.8276970956
 20
152.1679477698
 30
0.0
 10
222.8133103377
 20
152.180810402
 30
0.0
 10
222.8017347076
 20
152.2023309014
 30
0.0
 10
222.7885188999
 20
152.23794239
 30
0.0
 10
222.7782690657
 20
152.2929987691
 30
0.0
 10
222.7752768358
 20
152.3401656364
 30
0.0
 10
222.7751789546
 20
152.3654409842
 30
0.0
  0
SPLINE
  5
2F3
100
AcDbEntity
  8
RUNDUNGEN
100
AcDbSpline
 62
7
  6
CONTINUOUS
 70
0
 71
3
 72
12
 73
8
 74
0
 42
0.0000001
 43
0.0000001
 44
0.0000000001
 40
0.0
 40
0.0
 40
0.0
 40
0.0
 40
0.124458235
 40
0.219551356
 40
0.3387951162
 40
0.6410844758
 40
1.0
 40
1.0
 40
1.0
 40
1.0
 10
223.6007783004
 20
152.0163476967
 30
0.0
 10
223.5934652711
 20
152.0193693806
 30
0.0
 10
223.586372752
 20
152.0343091957
 30
0.0
 10
223.584215053
 20
152.0551976244
 30
0.0
 10
223.5852135015
 20
152.0883614936
 30
0.0
 10
223.594807024
 20
152.1371365839
 30
0.0
 10
223.6074332861
 20
152.1773409798
 30
0.0
 10
223.615363269
 20
152.1987376023
 30
0.0
  0
SPLINE
  5
2F4
100
AcDbEntity
  8
RUNDUNGEN
100
AcDbSpline
 62
7
  6
CONTINUOUS
 70
0
 71
3
 72
26
 73
22
 74
0
 42
0.0000001
 43
0.0000001
 44
0.0000000001
 40
0.0
 40
0.0
 40
0.0
 40
0.0
 40
0.1419285688
 40
0.2823521386
 40
0.4211844457
 40
0.4898810056
 40
0.557952166
 40
0.625226526
 40
0.6915359302
 40
0.7565312833
 40
0.8195074034
 40
0.8497918536
 40
0.8788175984
 40
0.9059710633
 40
0.9301049548
 40
0.9404219039
 40
0.9490999591
 40
0.9558624313
 40
0.9613379409
 40
0.9762859558
 40
1.0
 40
1.0
 40
1.0
 40
1.0
 10
188.606271433
 20
175.8727196456
 30
0.0
 10
188.5854068108
 20
175.8387333664
 30
0.0
 10
188.5457452015
 20
175.7699672151
 30
0.0
 10
188.4922351021
 20
175.6643501541
 30
0.0
 10
188.4527887156
 20
175.5748318164
 30
0.0
 10
188.4245829315
 20
175.5027022983
 30
0.0
 10
188.4052678599
 20
175.4487113111
 30
0.0
 10
188.3878549638
 20
175.3947815248
 30
0.0
 10
188.3724223369
 20
175.3411491068
 30
0.0
 10
188.3591964737
 20
175.2881737564
 30
0.0
 10
188.3502021331
 20
175.2446049728
 30
0.0
 10
188.3447074496
 20
175.2106812199
 30
0.0
 10
188.3416951276
 20
175.1865660923
 30
0.0
 10
188.3400138813
 20
175.164050716
 30
0.0
 10
188.33999372
 20
175.1467132023
 30
0.0
 10
188.3414310877
 20
175.1346326401
 30
0.0
 10
188.3432711585
 20
175.127656958
 30
0.0
 10
188.3460334227
 20
175.1222161975
 30
0.0
 10
188.3536083014
 20
175.1187193548
 30
0.0
 10
188.3650145623
 20
175.1279336167
 30
0.0
 10
188.371401406
 20
175.1357562918
 30
0.0
 10
188.3754075609
 20
175.1410807826
 30
0.0
  0
SPLINE
  5
2F5
100
AcDbEntity
  8
RUNDUNGEN
100
AcDbSpline
 62
7
  6
CONTINUOUS
 70
0
 71
3
 72
22
 73
18
 74
0
 42
0.0000001
 43
0.0000001
 44
0.0000000001
 40
0.0
 40
0.0
 40
0.0
 40
0.0
 40
0.0167509369
 40
0.0345913522
 40
0.0463293951
 40
0.0605692773
 40
0.0970637298
 40
0.1439558076
 40
0.1999673566
 40
0.2637722928
 40
0.3339630962
 40
0.409335495
 40
0.4889861654
 40
0.5718889447
 40
0.6569817238
 40
0.8299661021
 40
1.0
 40
1.0
 40
1.0
 40
1.0
 10
188.2364158122
 20
174.8587236115
 30
0.0
 10
188.2363705413
 20
174.8480554776
 30
0.0
 10
188.2426210546
 20
174.8243279235
 30
0.0
 10
188.2717132148
 20
174.8104189681
 30
0.0
 10
188.299393921
 20
174.8078449651
 30
0.0
 10
188.3393151531
 20
174.8102449032
 30
0.0
 10
188.4000661933
 20
174.8247386098
 30
0.0
 10
188.4838923676
 20
174.8540284851
 30
0.0
 10
188.5826966411
 20
174.8929579852
 30
0.0
 10
188.694047989
 20
174.9403397327
 30
0.0
 10
188.8164857743
 20
174.9931579469
 30
0.0
 10
188.9493648816
 20
175.0471777467
 30
0.0
 10
189.0900653417
 20
175.103430485
 30
0.0
 10
189.2357120302
 20
175.1639575628
 30
0.0
 10
189.4371006299
 20
175.2452133783
 30
0.0
 10
189.6925686224
 20
175.3407213235
 30
0.0
 10
189.9002849322
 20
175.4085194417
 30
0.0
 10
190.0034784793
 20
175.4413498971
 30
0.0
  0
SPLINE
  5
2F6
100
AcDbEntity
  8
RUNDUNGEN
100
AcDbSpline
 62
7
  6
CONTINUOUS
 70
0
 71
3
 72
11
 73
7
 74
0
 42
0.0000001
 43
0.0000001
 44
0.0000000001
 40
0.0
 40
0.0
 40
0.0
 40
0.0
 40
0.2532083212
 40
0.5039701041
 40
0.7525823484
 40
1.0
 40
1.0
 40
1.0
 40
1.0
 10
188.9594737396
 20
176.0718506357
 30
0.0
 10
189.0805363096
 20
176.2269919754
 30
0.0
 10
189.3530691293
 20
176.5126543816
 30
0.0
 10
189.8376754558
 20
176.8472819978
 30
0.0
 10
190.3768238405
 20
177.0730609306
 30
0.0
 10
190.7591362441
 20
177.1444290317
 30
0.0
 10
190.9508277084
 20
177.1595418993
 30
0.0
  0
SPLINE
  5
2F7
100
AcDbEntity
  8
RUNDUNGEN
100
AcDbSpline
 62
7
  6
CONTINUOUS
 70
0
 71
3
 72
8
 73
4
 74
0
 42
0.0000001
 43
0.0000001
 44
0.0000000001
 40
0.0
 40
0.0
 40
0.0
 40
0.0
 40
1.0
 40
1.0
 40
1.0
 40
1.0
 10
223.615364415
 20
152.1987803926
 30
0.0
 10
223.588553477
 20
159.2480028419
 30
0.0
 10
223.5260959597
 20
166.2970769608
 30
0.0
 10
223.5076023154
 20
173.3463261371
 30
0.0
  0
SPLINE
  5
2F8
100
AcDbEntity
  8
RUNDUNGEN
100
AcDbSpline
 62
7
  6
CONTINUOUS
 70
0
 71
3
 72
10
 73
6
 74
0
 42
0.0000001
 43
0.0000001
 44
0.0000000001
 40
0.0
 40
0.0
 40
0.0
 40
0.0
 40
0.2760720941
 40
0.5330263953
 40
1.0
 40
1.0
 40
1.0
 40
1.0
 10
223.7706277799
 20
152.1180400119
 30
0.0
 10
223.9172458542
 20
152.0330875995
 30
0.0
 10
224.1794895654
 20
151.8299914109
 30
0.0
 10
224.5650309336
 20
151.3477757233
 30
0.0
 10
224.7322690239
 20
150.9216405616
 30
0.0
 10
224.7882128187
 20
150.6405275674
 30
0.0
  0
SPLINE
  5
2F9
100
AcDbEntity
  8
RUNDUNGEN
100
AcDbSpline
 62
7
  6
CONTINUOUS
 70
0
 71
3
 72
13
 73
9
 74
0
 42
0.0000001
 43
0.0000001
 44
0.0000000001
 40
0.0
 40
0.0
 40
0.0
 40
0.0
 40
0.3400779405
 40
0.6501921759
 40
0.7841939679
 40
0.8954805489
 40
0.9724163536
 40
1.0
 40
1.0
 40
1.0
 40
1.0
 10
224.7882128187
 20
150.6405275674
 30
0.0
 10
224.791984409
 20
150.6215756345
 30
0.0
 10
224.7987538244
 20
150.5855059102
 30
0.0
 10
224.8059438091
 20
150.5406641965
 30
0.0
 10
224.8104696111
 20
150.510880251
 30
0.0
 10
224.8131242867
 20
150.4896497924
 30
0.0
 10
224.8144154991
 20
150.4839139911
 30
0.0
 10
224.8155164691
 20
150.4707413651
 30
0.0
 10
224.8155759657
 20
150.4723075665
 30
0.0
  0
SPLINE
  5
2FA
100
AcDbEntity
  8
RUNDUNGEN
100
AcDbSpline
 62
7
  6
CONTINUOUS
 70
0
 71
3
 72
15
 73
11
 74
0
 42
0.0000001
 43
0.0000001
 44
0.0000000001
 40
0.0
 40
0.0
 40
0.0
 40
0.0
 40
0.0575537561
 40
0.1314838214
 40
0.2285462844
 40
0.3494095331
 40
0.4915461044
 40
0.6509020788
 40
0.822512547
 40
1.0
 40
1.0
 40
1.0
 40
1.0
 10
191.1636992699
 20
177.1679535081
 30
0.0
 10
191.184741523
 20
177.1679535081
 30
0.0
 10
191.2326921437
 20
177.1500381379
 30
0.0
 10
191.2899339207
 20
177.0871949887
 30
0.0
 10
191.3416098647
 20
176.993254809
 30
0.0
 10
191.3866409126
 20
176.8691496578
 30
0.0
 10
191.4238698816
 20
176.7190864729
 30
0.0
 10
191.4516055931
 20
176.5481830961
 30
0.0
 10
191.4687294359
 20
176.3629568229
 30
0.0
 10
191.4726663185
 20
176.2352911827
 30
0.0
 10
191.4727153757
 20
176.1703999389
 30
0.0
  0
SPLINE
  5
2FB
100
AcDbEntity
  8
RUNDUNGEN
100
AcDbSpline
 62
7
  6
CONTINUOUS
 70
0
 71
3
 72
16
 73
12
 74
0
 42
0.0000001
 43
0.0000001
 44
0.0000000001
 40
0.0
 40
0.0
 40
0.0
 40
0.0
 40
0.3237479129
 40
0.4717360026
 40
0.6087537238
 40
0.6724156748
 40
0.7319836763
 40
0.787239956
 40
0.8388779903
 40
0.9300408671
 40
1.0
 40
1.0
 40
1.0
 40
1.0
 10
223.5076066598
 20
173.3463261371
 30
0.0
 10
223.6397959706
 20
173.2727897351
 30
0.0
 10
223.8273513305
 20
173.1549454714
 30
0.0
 10
224.0461376943
 20
172.9726821826
 30
0.0
 10
224.1620276485
 20
172.8578787701
 30
0.0
 10
224.24292921
 20
172.7670722039
 30
0.0
 10
224.296435212
 20
172.7030881824
 30
0.0
 10
224.3437946914
 20
172.6413337738
 30
0.0
 10
224.3938739543
 20
172.5633293182
 30
0.0
 10
224.4372276789
 20
172.4737689624
 30
0.0
 10
224.4569428798
 20
172.3994303966
 30
0.0
 10
224.4572929289
 20
172.36674484
 30
0.0
  0
LINE
  5
2FC
100
AcDbEntity
  8
RUNDUNGEN
100
AcDbLine
 62
7
  6
CONTINUOUS
 10
191.4727153565
 20
176.1704258388
 11
219.2185878411
 21
176.1703778852
  0
SPLINE
  5
2FD
100
AcDbEntity
  8
RUNDUNGEN
100
AcDbSpline
 62
7
  6
CONTINUOUS
 70
0
 71
3
 72
11
 73
7
 74
0
 42
0.0000001
 43
0.0000001
 44
0.0000000001
 40
0.0
 40
0.0
 40
0.0
 40
0.0
 40
0.2533691023
 40
0.5040581122
 40
0.7526123584
 40
1.0
 40
1.0
 40
1.0
 40
1.0
 10
190.003478479
 20
175.4413501821
 30
0.0
 10
190.0916256523
 20
175.5540866272
 30
0.0
 10
190.292113275
 20
175.760057001
 30
0.0
 10
190.6518882762
 20
175.9930007919
 30
0.0
 10
191.0518072721
 20
176.1377216754
 30
0.0
 10
191.332987432
 20
176.1703633566
 30
0.0
 10
191.4727153757
 20
176.1703999389
 30
0.0
  0
SPLINE
  5
2FE
100
AcDbEntity
  8
RUNDUNGEN
100
AcDbSpline
 62
7
  6
CONTINUOUS
 70
0
 71
3
 72
9
 73
5
 74
0
 42
0.0000001
 43
0.0000001
 44
0.0000000001
 40
0.0
 40
0.0
 40
0.0
 40
0.0
 40
0.7500106758
 40
1.0
 40
1.0
 40
1.0
 40
1.0
 10
190.1190049481
 20
151.1730595965
 30
0.0
 10
190.0990666911
 20
157.240257452
 30
0.0
 10
190.033461518
 20
165.3295613092
 30
0.0
 10
190.0060599647
 20
173.4190567739
 30
0.0
 10
190.003478071
 20
175.4413501821
 30
0.0
  0
SPLINE
  5
2FF
100
AcDbEntity
  8
RUNDUNGEN
100
AcDbSpline
 62
7
  6
CONTINUOUS
 70
0
 71
3
 72
9
 73
5
 74
0
 42
0.0000001
 43
0.0000001
 44
0.0000000001
 40
0.0
 40
0.0
 40
0.0
 40
0.0
 40
0.4975663889
 40
1.0
 40
1.0
 40
1.0
 40
1.0
 10
193.7751789184
 20
152.3654446186
 30
0.0
 10
198.5849873938
 20
152.3657095781
 30
0.0
 10
208.2516541829
 20
152.3649949799
 30
0.0
 10
217.9183209655
 20
152.3654807725
 30
0.0
 10
222.7751792604
 20
152.3653015222
 30
0.0
  0
SPLINE
  5
300
100
AcDbEntity
  8
RUNDUNGEN
100
AcDbSpline
 62
7
  6
CONTINUOUS
 70
0
 71
3
 72
11
 73
7
 74
0
 42
0.0000001
 43
0.0000001
 44
0.0000000001
 40
0.0
 40
0.0
 40
0.0
 40
0.0
 40
0.2460141708
 40
0.4939779199
 40
0.7452146398
 40
1.0
 40
1.0
 40
1.0
 40
1.0
 10
219.2185878243
 20
176.1703997201
 30
0.0
 10
219.661936287
 20
176.1703465346
 30
0.0
 10
220.5575463642
 20
176.0377150375
 30
0.0
 10
221.7888160937
 20
175.4573348504
 30
0.0
 10
222.8184116381
 20
174.5439647562
 30
0.0
 10
223.3151112836
 20
173.7631772043
 30
0.0
 10
223.5076066732
 20
173.3463210294
 30
0.0
  0
SPLINE
  5
301
100
AcDbEntity
  8
RUNDUNGEN
100
AcDbSpline
 62
7
  6
CONTINUOUS
 70
0
 71
3
 72
13
 73
9
 74
0
 42
0.0000001
 43
0.0000001
 44
0.0000000001
 40
0.0
 40
0.0
 40
0.0
 40
0.0
 40
0.0613084651
 40
0.1474559061
 40
0.2566837789
 40
0.3856673497
 40
0.6840458408
 40
1.0
 40
1.0
 40
1.0
 40
1.0
 10
188.9594911742
 20
176.0718355746
 30
0.0
 10
188.9846612483
 20
176.0720353225
 30
0.0
 10
189.0448314437
 20
176.059539667
 30
0.0
 10
189.1435104541
 20
176.0227133416
 30
0.0
 10
189.2634197883
 20
175.9642171875
 30
0.0
 10
189.4546887738
 20
175.8547802289
 30
0.0
 10
189.707473038
 20
175.6830036819
 30
0.0
 10
189.9052482365
 20
175.5260715223
 30
0.0
 10
190.0034780898
 20
175.4413497644
 30
0.0
  0
SPLINE
  5
302
100
AcDbEntity
  8
RUNDUNGEN
100
AcDbSpline
 62
7
  6
CONTINUOUS
 70
0
 71
3
 72
9
 73
5
 74
0
 42
0.0000001
 43
0.0000001
 44
0.0000000001
 40
0.0
 40
0.0
 40
0.0
 40
0.0
 40
0.4880327479
 40
1.0
 40
1.0
 40
1.0
 40
1.0
 10
187.840648403
 20
146.3915018862
 30
0.0
 10
187.8606607689
 20
147.0107155155
 30
0.0
 10
188.0740485568
 20
148.2795095392
 30
0.0
 10
188.6385578756
 20
149.4417018508
 30
0.0
 10
189.010759872
 20
149.9744895087
 30
0.0
  0
SPLINE
  5
303
100
AcDbEntity
  8
RUNDUNGEN
100
AcDbSpline
 62
7
  6
CONTINUOUS
 70
0
 71
3
 72
9
 73
5
 74
0
 42
0.0000001
 43
0.0000001
 44
0.0000000001
 40
0.0
 40
0.0
 40
0.0
 40
0.0
 40
0.5003819656
 40
1.0
 40
1.0
 40
1.0
 40
1.0
 10
189.010759872
 20
149.9744895087
 30
0.0
 10
189.167064136
 20
150.1982308736
 30
0.0
 10
189.5094162104
 20
150.6252611411
 30
0.0
 10
189.9079036884
 20
151.0007170078
 30
0.0
 10
190.1190014158
 20
151.1730588004
 30
0.0
  0
SPLINE
  5
304
100
AcDbEntity
  8
RUNDUNGEN
100
AcDbSpline
 62
7
  6
CONTINUOUS
 70
0
 71
3
 72
15
 73
11
 74
0
 42
0.0000001
 43
0.0000001
 44
0.0000000001
 40
0.0
 40
0.0
 40
0.0
 40
0.0
 40
0.057556543
 40
0.131492799
 40
0.2285601489
 40
0.3494254637
 40
0.4915610482
 40
0.6509134995
 40
0.8225186711
 40
1.0
 40
1.0
 40
1.0
 40
1.0
 10
218.9096030716
 20
177.1679439904
 30
0.0
 10
218.9306455791
 20
177.1679369764
 30
0.0
 10
218.9785911857
 20
177.1500075101
 30
0.0
 10
219.0358256909
 20
177.087156802
 30
0.0
 10
219.0874964013
 20
176.9932126722
 30
0.0
 10
219.132522506
 20
176.869108706
 30
0.0
 10
219.1697472885
 20
176.7190511995
 30
0.0
 10
219.1974798459
 20
176.5481573477
 30
0.0
 10
219.2146018795
 20
176.3629431883
 30
0.0
 10
219.2185385708
 20
176.235286371
 30
0.0
 10
219.2185877964
 20
176.1703997199
 30
0.0
  0
SPLINE
  5
305
100
AcDbEntity
  8
RUNDUNGEN
100
AcDbSpline
 62
7
  6
CONTINUOUS
 70
0
 71
3
 72
9
 73
5
 74
0
 42
0.0000001
 43
0.0000001
 44
0.0000000001
 40
0.0
 40
0.0
 40
0.0
 40
0.0
 40
0.3075929787
 40
1.0
 40
1.0
 40
1.0
 40
1.0
 10
188.74450143
 20
176.0718508569
 30
0.0
 10
188.7386864251
 20
176.0718976006
 30
0.0
 10
188.7200498833
 20
176.0711474954
 30
0.0
 10
188.699999298
 20
176.0636443003
 30
0.0
 10
188.6919003121
 20
176.0533602334
 30
0.0
  0
SPLINE
  5
306
100
AcDbEntity
  8
RUNDUNGEN
100
AcDbSpline
 62
7
  6
CONTINUOUS
 70
0
 71
3
 72
15
 73
11
 74
0
 42
0.0000001
 43
0.0000001
 44
0.0000000001
 40
0.0
 40
0.0
 40
0.0
 40
0.0
 40
0.0525321235
 40
0.1111665125
 40
0.23436287
 40
0.3607147245
 40
0.4884740281
 40
0.6168125691
 40
0.7452283419
 40
1.0
 40
1.0
 40
1.0
 40
1.0
 10
188.3754075609
 20
175.1410807826
 30
0.0
 10
188.3869915301
 20
175.1564767768
 30
0.0
 10
188.4079926701
 20
175.1915751832
 30
0.0
 10
188.4495913549
 20
175.2667301562
 30
0.0
 10
188.5025832851
 20
175.3666104698
 30
0.0
 10
188.5694899222
 20
175.487744099
 30
0.0
 10
188.6400525058
 20
175.6089966297
 30
0.0
 10
188.7145945922
 20
175.7287423421
 30
0.0
 10
188.8186426941
 20
175.8848858739
 30
0.0
 10
188.9019964038
 20
175.9981765631
 30
0.0
 10
188.9594737396
 20
176.0718506357
 30
0.0
  0
SPLINE
  5
307
100
AcDbEntity
  8
RUNDUNGEN
100
AcDbSpline
 62
7
  6
CONTINUOUS
 70
0
 71
3
 72
13
 73
9
 74
0
 42
0.0000001
 43
0.0000001
 44
0.0000000001
 40
0.0
 40
0.0
 40
0.0
 40
0.0
 40
0.1388936496
 40
0.2717280368
 40
0.3997904403
 40
0.5240738113
 40
0.7649197536
 40
1.0
 40
1.0
 40
1.0
 40
1.0
 10
72.2538323121
 20
86.9109227574
 30
0.0
 10
72.2088383719
 20
86.9961139216
 30
0.0
 10
72.1077183927
 20
87.156251264
 30
0.0
 10
71.9251699445
 20
87.3662651408
 30
0.0
 10
71.7222567099
 20
87.5414454237
 30
0.0
 10
71.4347900731
 20
87.7285366566
 30
0.0
 10
71.0436071092
 20
87.8845655655
 30
0.0
 10
70.7124194067
 20
87.9275323179
 30
0.0
 10
70.5493591972
 20
87.9284091569
 30
0.0
  0
LINE
  5
308
100
AcDbEntity
  8
RUNDUNGEN
100
AcDbLine
 62
7
  6
CONTINUOUS
 10
72.2298417885
 20
86.5772518075
 11
72.1869684527
 21
86.7138665264
  0
SPLINE
  5
309
100
AcDbEntity
  8
RUNDUNGEN
100
AcDbSpline
 62
7
  6
CONTINUOUS
 70
0
 71
3
 72
15
 73
11
 74
0
 42
0.0000001
 43
0.0000001
 44
0.0000000001
 40
0.0
 40
0.0
 40
0.0
 40
0.0
 40
0.1033232852
 40
0.2080430572
 40
0.3160301173
 40
0.4292175978
 40
0.5503349116
 40
0.6826022756
 40
0.8307204797
 40
1.0
 40
1.0
 40
1.0
 40
1.0
 10
70.540396262
 20
87.9283504868
 30
0.0
 10
70.4278169943
 20
87.9283922507
 30
0.0
 10
70.2005081992
 20
87.9061463864
 30
0.0
 10
69.8689743128
 20
87.8053162402
 30
0.0
 10
69.554788004
 20
87.6345271753
 30
0.0
 10
69.2690182451
 20
87.3904763608
 30
0.0
 10
69.0277624922
 20
87.0677638245
 30
0.0
 10
68.8547892908
 20
86.6609191392
 30
0.0
 10
68.7862058069
 20
86.1697441368
 30
0.0
 10
68.8432593834
 20
85.8213522449
 30
0.0
 10
68.9016982415
 20
85.6464107993
 30
0.0
  0
LINE
  5
30A
100
AcDbEntity
  8
RUNDUNGEN
100
AcDbLine
 62
7
  6
CONTINUOUS
 10
79.7546180258
 20
52.2846988702
 11
79.7976886659
 21
52.1501239589
  0
LINE
  5
30B
100
AcDbEntity
  8
RUNDUNGEN
100
AcDbLine
 62
7
  6
CONTINUOUS
 10
104.267578125
 20
75.9284233641
 11
100.2720520145
 21
75.9284002113
  0
SPLINE
  5
30C
100
AcDbEntity
  8
RUNDUNGEN
100
AcDbSpline
 62
7
  6
CONTINUOUS
 70
0
 71
3
 72
17
 73
13
 74
0
 42
0.0000001
 43
0.0000001
 44
0.0000000001
 40
0.0
 40
0.0
 40
0.0
 40
0.0
 40
0.1245688547
 40
0.2493317784
 40
0.3742444923
 40
0.4992651841
 40
0.6243670521
 40
0.7495411751
 40
0.8121594767
 40
0.8747790769
 40
0.937394149
 40
1.0
 40
1.0
 40
1.0
 40
1.0
 10
100.2720520145
 20
75.9284002113
 30
0.0
 10
100.0978600812
 20
75.9284000316
 30
0.0
 10
99.7466592468
 20
75.8583763144
 30
0.0
 10
99.2901816682
 20
75.586685753
 30
0.0
 10
98.9286602843
 20
75.1992135962
 30
0.0
 10
98.6687797702
 20
74.7391022297
 30
0.0
 10
98.5032334112
 20
74.2382396018
 30
0.0
 10
98.4312040861
 20
73.8055401339
 30
0.0
 10
98.3965017564
 20
73.457118125
 30
0.0
 10
98.3742153088
 20
73.1953746043
 30
0.0
 10
98.3456032069
 20
72.9342016726
 30
0.0
 10
98.3151211858
 20
72.7615466483
 30
0.0
 10
98.2961216558
 20
72.6760877661
 30
0.0
  0
LINE
  5
30D
100
AcDbEntity
  8
RUNDUNGEN
100
AcDbLine
 62
7
  6
CONTINUOUS
 10
98.2533160175
 20
72.507298118
 11
92.6392608698
 21
52.9284348858
  0
LINE
  5
30E
100
AcDbEntity
  8
RUNDUNGEN
100
AcDbLine
 62
7
  6
CONTINUOUS
 10
69.9140900478
 20
81.9282512651
 11
70.9755024508
 21
78.6615558225
  0
LINE
  5
30F
100
AcDbEntity
  8
RUNDUNGEN
100
AcDbLine
 62
7
  6
CONTINUOUS
 10
70.9755024508
 20
78.6615558225
 11
72.0788057919
 21
75.2659401112
  0
LINE
  5
310
100
AcDbEntity
  8
RUNDUNGEN
100
AcDbLine
 62
7
  6
CONTINUOUS
 10
72.0788057919
 20
75.2659401112
 11
79.327446877
 21
52.9569236972
  0
LINE
  5
311
100
AcDbEntity
  8
RUNDUNGEN
100
AcDbLine
 62
7
  6
CONTINUOUS
 10
79.327446877
 20
52.9569236972
 11
79.3366893799
 21
52.9284782412
  0
SPLINE
  5
312
100
AcDbEntity
  8
RUNDUNGEN
100
AcDbSpline
 62
7
  6
CONTINUOUS
 70
0
 71
3
 72
12
 73
8
 74
0
 42
0.0000001
 43
0.0000001
 44
0.0000000001
 40
0.0
 40
0.0
 40
0.0
 40
0.0
 40
0.2781386865
 40
0.5405450778
 40
0.7788531277
 40
0.8909078066
 40
1.0
 40
1.0
 40
1.0
 40
1.0
 10
69.9694959088
 20
86.8059210409
 30
0.0
 10
69.8469837048
 20
86.7658397862
 30
0.0
 10
69.6188170424
 20
86.6517335174
 30
0.0
 10
69.3568151066
 20
86.394386181
 30
0.0
 10
69.2370645015
 20
86.1264968064
 30
0.0
 10
69.2230511707
 20
85.9121512271
 30
0.0
 10
69.2417955344
 20
85.8100710017
 30
0.0
 10
69.257254508
 20
85.7619341253
 30
0.0
  0
SPLINE
  5
313
100
AcDbEntity
  8
RUNDUNGEN
100
AcDbSpline
 62
7
  6
CONTINUOUS
 70
0
 71
3
 72
12
 73
8
 74
0
 42
0.0000001
 43
0.0000001
 44
0.0000000001
 40
0.0
 40
0.0
 40
0.0
 40
0.0
 40
0.2781393911
 40
0.5405458383
 40
0.7788533451
 40
0.8909078145
 40
1.0
 40
1.0
 40
1.0
 40
1.0
 10
70.6311063954
 20
87.0209107851
 30
0.0
 10
70.7537818785
 20
87.0604957565
 30
0.0
 10
71.0054463365
 20
87.1022946593
 30
0.0
 10
71.3686797215
 20
87.0480932883
 30
0.0
 10
71.623022225
 20
86.901747942
 30
0.0
 10
71.7603462433
 20
86.7365706612
 30
0.0
 10
71.8051811313
 20
86.6429661324
 30
0.0
 10
71.8209676435
 20
86.5949350185
 30
0.0
  0
SPLINE
  5
314
100
AcDbEntity
  8
RUNDUNGEN
100
AcDbSpline
 62
7
  6
CONTINUOUS
 70
0
 71
3
 72
15
 73
11
 74
0
 42
0.0000001
 43
0.0000001
 44
0.0000000001
 40
0.0
 40
0.0
 40
0.0
 40
0.0
 40
0.1060131145
 40
0.2133075393
 40
0.3233247658
 40
0.4379595494
 40
0.5594727942
 40
0.6909420157
 40
0.8363629396
 40
1.0
 40
1.0
 40
1.0
 40
1.0
 10
70.540396262
 20
87.9284348858
 30
0.0
 10
70.4140048994
 20
87.9284769474
 30
0.0
 10
70.1590357509
 20
87.9040618079
 30
0.0
 10
69.7871667749
 20
87.7940126941
 30
0.0
 10
69.4349894985
 20
87.6075451339
 30
0.0
 10
69.1155213385
 20
87.3413137128
 30
0.0
 10
68.8469802387
 20
86.9899382036
 30
0.0
 10
68.6566125302
 20
86.5490093536
 30
0.0
 10
68.5840509584
 20
86.0219382186
 30
0.0
 10
68.6480059861
 20
85.6511373352
 30
0.0
 10
68.7114988661
 20
85.4666663382
 30
0.0
  0
SPLINE
  5
315
100
AcDbEntity
  8
RUNDUNGEN
100
AcDbSpline
 62
7
  6
CONTINUOUS
 70
0
 71
3
 72
13
 73
9
 74
0
 42
0.0000001
 43
0.0000001
 44
0.0000000001
 40
0.0
 40
0.0
 40
0.0
 40
0.0
 40
0.2610881082
 40
0.5155756815
 40
0.639731218
 40
0.761455456
 40
0.8813899338
 40
1.0
 40
1.0
 40
1.0
 40
1.0
 10
82.0458402224
 20
51.9332338454
 30
0.0
 10
82.1687552691
 20
51.9736227504
 30
0.0
 10
82.3995650802
 20
52.0968526347
 30
0.0
 10
82.6134019255
 20
52.3413953782
 30
0.0
 10
82.7167839132
 20
52.5683583606
 30
0.0
 10
82.7575729553
 20
52.7463706345
 30
0.0
 10
82.7601319751
 20
52.9261633391
 30
0.0
 10
82.7363991704
 20
53.0430838178
 30
0.0
 10
82.7184656568
 20
53.0990576612
 30
0.0
  0
SPLINE
  5
316
100
AcDbEntity
  8
RUNDUNGEN
100
AcDbSpline
 62
7
  6
CONTINUOUS
 70
0
 71
3
 72
13
 73
9
 74
0
 42
0.0000001
 43
0.0000001
 44
0.0000000001
 40
0.0
 40
0.0
 40
0.0
 40
0.0
 40
0.2610881663
 40
0.5155757733
 40
0.6397313016
 40
0.7614555122
 40
0.8813899581
 40
1.0
 40
1.0
 40
1.0
 40
1.0
 10
81.3587943874
 20
51.7099860421
 30
0.0
 10
81.2356130016
 20
51.6704135698
 30
0.0
 10
80.9764490089
 20
51.6344425054
 30
0.0
 10
80.659710602
 20
51.7065940065
 30
0.0
 10
80.4426666208
 20
51.8294471567
 30
0.0
 10
80.3050346804
 20
51.9494890918
 30
0.0
 10
80.1972856237
 20
52.0934425173
 30
0.0
 10
80.1477626684
 20
52.2019843715
 30
0.0
 10
80.1293711571
 20
52.2578098628
 30
0.0
  0
SPLINE
  5
317
100
AcDbEntity
  8
RUNDUNGEN
100
AcDbSpline
 62
7
  6
CONTINUOUS
 70
0
 71
3
 72
12
 73
8
 74
0
 42
0.0000001
 43
0.0000001
 44
0.0000000001
 40
0.0
 40
0.0
 40
0.0
 40
0.0
 40
0.303260201
 40
0.5850746608
 40
0.7085863199
 40
0.8180537225
 40
1.0
 40
1.0
 40
1.0
 40
1.0
 10
68.711498866
 20
85.4666644326
 30
0.0
 10
68.7396906678
 20
85.4727891491
 30
0.0
 10
68.7927423665
 20
85.4914563564
 30
0.0
 10
68.8499340808
 20
85.5289698261
 30
0.0
 10
68.8829122199
 20
85.5656457177
 30
0.0
 10
68.9030283859
 20
85.5996592703
 30
0.0
 10
68.9067952166
 20
85.6298656644
 30
0.0
 10
68.9016993014
 20
85.6464072355
 30
0.0
  0
SPLINE
  5
318
100
AcDbEntity
  8
RUNDUNGEN
100
AcDbSpline
 62
7
  6
CONTINUOUS
 70
0
 71
3
 72
11
 73
7
 74
0
 42
0.0000001
 43
0.0000001
 44
0.0000000001
 40
0.0
 40
0.0
 40
0.0
 40
0.0
 40
0.2708691837
 40
0.5203189329
 40
0.7578633975
 40
1.0
 40
1.0
 40
1.0
 40
1.0
 10
79.6389868103
 20
52.0823122933
 30
0.0
 10
79.7081489399
 20
51.9150377598
 30
0.0
 10
79.8953564553
 20
51.6136739177
 30
0.0
 10
80.2803053912
 20
51.2757565825
 30
0.0
 10
80.7191170677
 20
51.0538570622
 30
0.0
 10
81.034524101
 20
50.9794777386
 30
0.0
 10
81.1952702224
 20
50.9609691931
 30
0.0
  0
SPLINE
  5
319
100
AcDbEntity
  8
RUNDUNGEN
100
AcDbSpline
 62
7
  6
CONTINUOUS
 70
0
 71
3
 72
13
 73
9
 74
0
 42
0.0000001
 43
0.0000001
 44
0.0000000001
 40
0.0
 40
0.0
 40
0.0
 40
0.0
 40
0.2495426923
 40
0.4727822884
 40
0.591687713
 40
0.7188083738
 40
0.8557319332
 40
1.0
 40
1.0
 40
1.0
 40
1.0
 10
81.1952702224
 20
50.9609691931
 30
0.0
 10
81.4693820421
 20
50.9294075539
 30
0.0
 10
82.0069786735
 20
50.9799643854
 30
0.0
 10
82.6017152612
 20
51.2882772176
 30
0.0
 10
82.9735728377
 20
51.6554211874
 30
0.0
 10
83.2016958752
 20
52.0173500163
 30
0.0
 10
83.3361833504
 20
52.4542697939
 30
0.0
 10
83.3379958761
 20
52.7707939673
 30
0.0
 10
83.3151310845
 20
52.9286660233
 30
0.0
  0
LINE
  5
31A
100
AcDbEntity
  8
RUNDUNGEN
100
AcDbLine
 62
7
  6
CONTINUOUS
 10
92.6392608698
 20
52.9284348858
 11
92.5259213959
 21
52.5123699118
  0
LINE
  5
31B
100
AcDbEntity
  8
RUNDUNGEN
100
AcDbLine
 62
7
  6
CONTINUOUS
 10
92.5259213959
 20
52.5123699118
 11
92.4957144592
 21
52.4014813751
  0
LINE
  5
31C
100
AcDbEntity
  8
RUNDUNGEN
100
AcDbLine
 62
7
  6
CONTINUOUS
 10
92.4957144592
 20
52.4014813751
 11
92.4890891639
 21
52.3771601742
  0
SPLINE
  5
31D
100
AcDbEntity
  8
RUNDUNGEN
100
AcDbSpline
 62
7
  6
CONTINUOUS
 70
0
 71
3
 72
11
 73
7
 74
0
 42
0.0000001
 43
0.0000001
 44
0.0000000001
 40
0.0
 40
0.0
 40
0.0
 40
0.0
 40
0.2898394594
 40
0.5457994297
 40
0.7784459298
 40
1.0
 40
1.0
 40
1.0
 40
1.0
 10
92.4890891639
 20
52.3771601742
 30
0.0
 10
92.4257361289
 20
52.1446367837
 30
0.0
 10
92.2277578542
 20
51.7234823768
 30
0.0
 10
91.7630206896
 20
51.2568451271
 30
0.0
 10
91.2270306746
 20
50.9872399334
 30
0.0
 10
90.8469125731
 20
50.9284601075
 30
0.0
 10
90.6626919416
 20
50.9284348858
 30
0.0
  0
LINE
  5
31E
100
AcDbEntity
  8
RUNDUNGEN
100
AcDbLine
 62
7
  6
CONTINUOUS
 10
79.5204249889
 20
52.4116527998
 11
79.5645148386
 21
52.2867741577
  0
LINE
  5
31F
100
AcDbEntity
  8
RUNDUNGEN
100
AcDbLine
 62
7
  6
CONTINUOUS
 10
79.5645148386
 20
52.2867741577
 11
79.6075162459
 21
52.1646294248
  0
SPLINE
  5
320
100
AcDbEntity
  8
RUNDUNGEN
100
AcDbSpline
 62
7
  6
CONTINUOUS
 70
0
 71
3
 72
12
 73
8
 74
0
 42
0.0000001
 43
0.0000001
 44
0.0000000001
 40
0.0
 40
0.0
 40
0.0
 40
0.0
 40
0.3425556983
 40
0.6362320981
 40
0.7556707997
 40
0.8548211711
 40
1.0
 40
1.0
 40
1.0
 40
1.0
 10
79.607516245
 20
52.1646339147
 30
0.0
 10
79.6296683449
 20
52.1706805483
 30
0.0
 10
79.6715788495
 20
52.1792606944
 30
0.0
 10
79.7224408506
 20
52.182233899
 30
0.0
 10
79.756717448
 20
52.1775840415
 30
0.0
 10
79.7798197114
 20
52.1705684197
 30
0.0
 10
79.7944231534
 20
52.1592062819
 30
0.0
 10
79.7977171569
 20
52.1500489461
 30
0.0
  0
SPLINE
  5
321
100
AcDbEntity
  8
RUNDUNGEN
100
AcDbSpline
 62
7
  6
CONTINUOUS
 70
0
 71
3
 72
11
 73
7
 74
0
 42
0.0000001
 43
0.0000001
 44
0.0000000001
 40
0.0
 40
0.0
 40
0.0
 40
0.0
 40
0.2500953064
 40
0.5001663968
 40
0.7501724602
 40
1.0
 40
1.0
 40
1.0
 40
1.0
 10
68.7656341076
 20
81.9284348858
 30
0.0
 10
68.9726538004
 20
81.6735070362
 30
0.0
 10
69.3866800113
 20
81.163703502
 30
0.0
 10
69.9799148987
 20
80.3765561787
 30
0.0
 10
70.5098680641
 20
79.5453506536
 30
0.0
 10
70.7864539995
 20
78.9450588423
 30
0.0
 10
70.887825912
 20
78.6330679936
 30
0.0
  0
SPLINE
  5
322
100
AcDbEntity
  8
RUNDUNGEN
100
AcDbSpline
 62
7
  6
CONTINUOUS
 70
0
 71
3
 72
10
 73
6
 74
0
 42
0.0000001
 43
0.0000001
 44
0.0000000001
 40
0.0
 40
0.0
 40
0.0
 40
0.0
 40
0.1194836019
 40
0.3345997484
 40
1.0
 40
1.0
 40
1.0
 40
1.0
 10
92.5852097207
 20
52.377161784
 30
0.0
 10
92.5841153632
 20
52.3733477671
 30
0.0
 10
92.5724445158
 20
52.3672905132
 30
0.0
 10
92.5401570447
 20
52.3663788755
 30
0.0
 10
92.5104493712
 20
52.3715023772
 30
0.0
 10
92.4890891637
 20
52.3771616246
 30
0.0
  0
SPLINE
  5
323
100
AcDbEntity
  8
RUNDUNGEN
100
AcDbSpline
 62
7
  6
CONTINUOUS
 70
0
 71
3
 72
11
 73
7
 74
0
 42
0.0000001
 43
0.0000001
 44
0.0000000001
 40
0.0
 40
0.0
 40
0.0
 40
0.0
 40
0.2783029377
 40
0.5385152569
 40
0.7769890762
 40
1.0
 40
1.0
 40
1.0
 40
1.0
 10
72.377175819
 20
86.6192958073
 30
0.0
 10
72.3561280619
 20
86.6167295578
 30
0.0
 10
72.3145381939
 20
86.6169312453
 30
0.0
 10
72.2568424039
 20
86.6338066073
 30
0.0
 10
72.2111987889
 20
86.6666000049
 30
0.0
 10
72.192338088
 20
86.6977356733
 30
0.0
 10
72.1869720475
 20
86.7138570583
 30
0.0
  0
SPLINE
  5
324
100
AcDbEntity
  8
RUNDUNGEN
100
AcDbSpline
 62
7
  6
CONTINUOUS
 70
0
 71
3
 72
17
 73
13
 74
0
 42
0.0000001
 43
0.0000001
 44
0.0000000001
 40
0.0
 40
0.0
 40
0.0
 40
0.0
 40
0.1288954341
 40
0.2447977083
 40
0.3545572183
 40
0.4149604346
 40
0.5000033381
 40
0.5850442121
 40
0.6454447251
 40
0.755203202
 40
0.8711053988
 40
1.0
 40
1.0
 40
1.0
 40
1.0
 10
70.6311064624
 20
87.0209105789
 30
0.0
 10
70.6129547936
 20
87.0774220355
 30
0.0
 10
70.5652887467
 20
87.1809493914
 30
0.0
 10
70.4655537323
 20
87.3116937832
 30
0.0
 10
70.3576661979
 20
87.3923724825
 30
0.0
 10
70.2449714644
 20
87.4293591915
 30
0.0
 10
70.1342917316
 20
87.4243294053
 30
0.0
 10
70.0417945774
 20
87.3633425284
 30
0.0
 10
69.9723687919
 20
87.2671781368
 30
0.0
 10
69.9325118335
 20
87.1384946273
 30
0.0
 10
69.9286678438
 20
86.974098475
 30
0.0
 10
69.9509589879
 20
86.8623261943
 30
0.0
 10
69.969490244
 20
86.8059384755
 30
0.0
  0
SPLINE
  5
325
100
AcDbEntity
  8
RUNDUNGEN
100
AcDbSpline
 62
7
  6
CONTINUOUS
 70
0
 71
3
 72
17
 73
13
 74
0
 42
0.0000001
 43
0.0000001
 44
0.0000000001
 40
0.0
 40
0.0
 40
0.0
 40
0.0
 40
0.1168760881
 40
0.2250164473
 40
0.3339989752
 40
0.3983840866
 40
0.4999983182
 40
0.6016113003
 40
0.6659976814
 40
0.7749808224
 40
0.8831213415
 40
1.0
 40
1.0
 40
1.0
 40
1.0
 10
81.3587943708
 20
51.7099860931
 30
0.0
 10
81.3733497654
 20
51.6628439157
 30
0.0
 10
81.4153171045
 20
51.5758945589
 30
0.0
 10
81.5090418949
 20
51.4685105928
 30
0.0
 10
81.6130708627
 20
51.4055750199
 30
0.0
 10
81.7267916494
 20
51.3781783501
 30
0.0
 10
81.8430606205
 20
51.3884350523
 30
0.0
 10
81.9431529243
 20
51.4484783872
 30
0.0
 10
82.0190543706
 20
51.5374841891
 30
0.0
 10
82.06622413
 20
51.649547579
 30
0.0
 10
82.0789320509
 20
51.7915140984
 30
0.0
 10
82.061778268
 20
51.8865270368
 30
0.0
 10
82.045843967
 20
51.9332223206
 30
0.0
  0
SPLINE
  5
326
100
AcDbEntity
  8
RUNDUNGEN
100
AcDbSpline
 62
7
  6
CONTINUOUS
 70
0
 71
3
 72
10
 73
6
 74
0
 42
0.0000001
 43
0.0000001
 44
0.0000000001
 40
0.0
 40
0.0
 40
0.0
 40
0.0
 40
0.1724283249
 40
0.4095141917
 40
1.0
 40
1.0
 40
1.0
 40
1.0
 10
82.045843967
 20
51.9332223206
 30
0.0
 10
81.9455035102
 20
52.227284784
 30
0.0
 10
81.712375382
 20
52.9274366747
 30
0.0
 10
81.1501366585
 20
54.6394421191
 30
0.0
 10
80.6891428945
 20
56.057662692
 30
0.0
 10
80.3603385049
 20
57.0696220864
 30
0.0
  0
SPLINE
  5
327
100
AcDbEntity
  8
RUNDUNGEN
100
AcDbSpline
 62
7
  6
CONTINUOUS
 70
0
 71
3
 72
10
 73
6
 74
0
 42
0.0000001
 43
0.0000001
 44
0.0000000001
 40
0.0
 40
0.0
 40
0.0
 40
0.0
 40
0.590485781
 40
0.8275717283
 40
1.0
 40
1.0
 40
1.0
 40
1.0
 10
79.7033006539
 20
56.8561458138
 30
0.0
 10
80.0321076269
 20
55.8441856205
 30
0.0
 10
80.4927654683
 20
54.4258534273
 30
0.0
 10
81.0441946356
 20
52.7103328917
 30
0.0
 10
81.2671271374
 20
52.0068670291
 30
0.0
 10
81.3587943708
 20
51.7099860931
 30
0.0
  0
LINE
  5
328
100
AcDbEntity
  8
RUNDUNGEN
100
AcDbLine
 62
7
  6
CONTINUOUS
 10
83.048171086
 20
53.2061854491
 11
82.7184655472
 21
53.0990576256
  0
LINE
  5
329
100
AcDbEntity
  8
RUNDUNGEN
100
AcDbLine
 62
7
  6
CONTINUOUS
 10
83.2383673751
 20
53.2679839966
 11
73.926108018
 21
81.9281803565
  0
SPLINE
  5
32A
100
AcDbEntity
  8
RUNDUNGEN
100
AcDbSpline
 62
7
  6
CONTINUOUS
 70
0
 71
3
 72
9
 73
5
 74
0
 42
0.0000001
 43
0.0000001
 44
0.0000000001
 40
0.0
 40
0.0
 40
0.0
 40
0.0
 40
0.2832925137
 40
1.0
 40
1.0
 40
1.0
 40
1.0
 10
72.2963086743
 20
85.1242128402
 30
0.0
 10
72.2512059898
 20
85.2630245869
 30
0.0
 10
72.0921776196
 20
85.7530771269
 30
0.0
 10
71.9333105295
 20
86.2431855017
 30
0.0
 10
71.8209672324
 20
86.5949360775
 30
0.0
  0
SPLINE
  5
32B
100
AcDbEntity
  8
RUNDUNGEN
100
AcDbSpline
 62
7
  6
CONTINUOUS
 70
0
 71
3
 72
10
 73
6
 74
0
 42
0.0000001
 43
0.0000001
 44
0.0000000001
 40
0.0
 40
0.0
 40
0.0
 40
0.0
 40
0.1725744695
 40
0.4097571582
 40
1.0
 40
1.0
 40
1.0
 40
1.0
 10
82.7184671387
 20
53.0990527275
 30
0.0
 10
82.634072385
 20
53.3440556633
 30
0.0
 10
82.4388587225
 20
53.9275568782
 30
0.0
 10
81.9694669256
 20
55.3538603593
 30
0.0
 10
81.5853659042
 20
56.5354325229
 30
0.0
 10
81.3114890177
 20
57.378340318
 30
0.0
  0
LINE
  5
32C
100
AcDbEntity
  8
RUNDUNGEN
100
AcDbLine
 62
7
  6
CONTINUOUS
 10
79.7977136308
 20
52.1500478001
 11
80.1293712706
 21
52.2578098997
  0
SPLINE
  5
32D
100
AcDbEntity
  8
RUNDUNGEN
100
AcDbSpline
 62
7
  6
CONTINUOUS
 70
0
 71
3
 72
11
 73
7
 74
0
 42
0.0000001
 43
0.0000001
 44
0.0000000001
 40
0.0
 40
0.0
 40
0.0
 40
0.0
 40
0.2824796966
 40
0.5342877099
 40
0.767238432
 40
1.0
 40
1.0
 40
1.0
 40
1.0
 10
79.7976888661
 20
52.1501240239
 30
0.0
 10
79.8521221403
 20
51.9794664535
 30
0.0
 10
80.0068959019
 20
51.6705979068
 30
0.0
 10
80.3465079774
 20
51.3139376129
 30
0.0
 10
80.7400075739
 20
51.0759944698
 30
0.0
 10
81.0272416836
 20
50.9920083027
 30
0.0
 10
81.1730850367
 20
50.9692994441
 30
0.0
  0
SPLINE
  5
32E
100
AcDbEntity
  8
RUNDUNGEN
100
AcDbSpline
 62
7
  6
CONTINUOUS
 70
0
 71
3
 72
15
 73
11
 74
0
 42
0.0000001
 43
0.0000001
 44
0.0000000001
 40
0.0
 40
0.0
 40
0.0
 40
0.0
 40
0.1359782022
 40
0.2473061529
 40
0.3533177924
 40
0.4631348187
 40
0.5803736957
 40
0.708475872
 40
0.8494096209
 40
1.0
 40
1.0
 40
1.0
 40
1.0
 10
81.1730850367
 20
50.9692994441
 30
0.0
 10
81.3148795734
 20
50.9472210154
 30
0.0
 10
81.5795524477
 20
50.9417866832
 30
0.0
 10
81.9461449437
 20
51.0223258733
 30
0.0
 10
82.2637016415
 20
51.1633609721
 30
0.0
 10
82.5528545849
 20
51.3673847766
 30
0.0
 10
82.8091105866
 20
51.6448852032
 30
0.0
 10
83.0142293602
 20
52.0015471461
 30
0.0
 10
83.1355755779
 20
52.4323866948
 30
0.0
 10
83.137640013
 20
52.7447121583
 30
0.0
 10
83.1168715519
 20
52.9022732158
 30
0.0
  0
SPLINE
  5
32F
100
AcDbEntity
  8
RUNDUNGEN
100
AcDbSpline
 62
7
  6
CONTINUOUS
 70
0
 71
3
 72
15
 73
11
 74
0
 42
0.0000001
 43
0.0000001
 44
0.0000000001
 40
0.0
 40
0.0
 40
0.0
 40
0.0
 40
0.1216821999
 40
0.2403587663
 40
0.3642744859
 40
0.4999926322
 40
0.635710024
 40
0.7596343412
 40
0.8783046475
 40
1.0
 40
1.0
 40
1.0
 40
1.0
 10
80.1293726822
 20
52.2578055553
 30
0.0
 10
80.1820956947
 20
52.0930230265
 30
0.0
 10
80.3518062452
 20
51.7850694167
 30
0.0
 10
80.7584475326
 20
51.4462734965
 30
0.0
 10
81.2837078967
 20
51.2769548781
 30
0.0
 10
81.8608021889
 20
51.3337325986
 30
0.0
 10
82.3610741802
 20
51.6269910571
 30
0.0
 10
82.68652393
 20
52.072699233
 30
0.0
 10
82.8163779258
 20
52.585827142
 30
0.0
 10
82.7726754913
 20
52.9347331499
 30
0.0
 10
82.7184670923
 20
53.0990527124
 30
0.0
  0
LINE
  5
330
100
AcDbEntity
  8
RUNDUNGEN
100
AcDbLine
 62
7
  6
CONTINUOUS
 10
68.9016993981
 20
85.646407267
 11
69.2572545657
 21
85.761934144
  0
LINE
  5
331
100
AcDbEntity
  8
RUNDUNGEN
100
AcDbLine
 62
7
  6
CONTINUOUS
 10
80.3603385636
 20
57.0696221054
 11
71.3453125552
 21
84.8150196353
  0
LINE
  5
332
100
AcDbEntity
  8
RUNDUNGEN
100
AcDbLine
 62
7
  6
CONTINUOUS
 10
70.688325659
 20
84.6013853593
 11
79.7033005937
 21
56.8561457942
  0
SPLINE
  5
333
100
AcDbEntity
  8
RUNDUNGEN
100
AcDbSpline
 62
7
  6
CONTINUOUS
 70
0
 71
3
 72
11
 73
7
 74
0
 42
0.0000001
 43
0.0000001
 44
0.0000000001
 40
0.0
 40
0.0
 40
0.0
 40
0.0
 40
0.2830792418
 40
0.5361661673
 40
0.7723146816
 40
1.0
 40
1.0
 40
1.0
 40
1.0
 10
72.1869684842
 20
86.7138665366
 30
0.0
 10
72.1256396932
 20
86.910239139
 30
0.0
 10
71.9406905895
 20
87.2645893276
 30
0.0
 10
71.5230554157
 20
87.6531982224
 30
0.0
 10
71.0448686525
 20
87.8784967334
 30
0.0
 10
70.7058655318
 20
87.9282908951
 30
0.0
 10
70.540396262
 20
87.9283504868
 30
0.0
  0
LINE
  5
334
100
AcDbEntity
  8
RUNDUNGEN
100
AcDbLine
 62
7
  6
CONTINUOUS
 10
72.1869716101
 20
86.7138569161
 11
71.8209675797
 21
86.5949349978
  0
SPLINE
  5
335
100
AcDbEntity
  8
RUNDUNGEN
100
AcDbSpline
 62
7
  6
CONTINUOUS
 70
0
 71
3
 72
10
 73
6
 74
0
 42
0.0000001
 43
0.0000001
 44
0.0000000001
 40
0.0
 40
0.0
 40
0.0
 40
0.0
 40
0.5902426851
 40
0.8274254486
 40
1.0
 40
1.0
 40
1.0
 40
1.0
 10
78.7523461319
 20
56.5468243908
 30
0.0
 10
79.0262237501
 20
55.7039171916
 30
0.0
 10
79.4099897357
 20
54.5222364509
 30
0.0
 10
79.8686016362
 20
53.0924305642
 30
0.0
 10
80.0536415131
 20
52.5056235336
 30
0.0
 10
80.1293726409
 20
52.2578055419
 30
0.0
  0
LINE
  5
336
100
AcDbEntity
  8
RUNDUNGEN
100
AcDbLine
 62
7
  6
CONTINUOUS
 10
68.7656341076
 20
81.9284348858
 11
71.0400719266
 21
75.9284348857
  0
ELLIPSE
  5
337
100
AcDbEntity
  8
0
100
AcDbEllipse
 62
7
  6
CONTINUOUS
 10
77.8604833826
 20
146.1679535081
 30
0.0
 11
-0.0
 21
2.745
 31
0.0
 40
0.3249196962
 41
-3.1415926536
 42
-0.0
  0
ELLIPSE
  5
338
100
AcDbEntity
  8
0
100
AcDbEllipse
 62
7
  6
CONTINUOUS
 10
93.9605249759
 20
146.1679535081
 30
0.0
 11
-0.0
 21
2.745
 31
0.0
 40
0.2867453858
 41
0.0
 42
3.1415926536
  0
ELLIPSE
  5
339
100
AcDbEntity
  8
0
100
AcDbEllipse
 62
7
  6
CONTINUOUS
 10
75.4203364639
 20
146.1679535081
 30
0.0
 11
0.0
 21
2.745
 31
0.0
 40
0.3249196962
 41
-0.0
 42
3.1415926536
  0
ELLIPSE
  5
33A
100
AcDbEntity
  8
0
100
AcDbEllipse
 62
7
  6
CONTINUOUS
 10
96.1139828229
 20
146.1679535081
 30
0.0
 11
0.0
 21
2.745
 31
0.0
 40
0.2867453858
 41
-3.1415926536
 42
0.0
  0
ENDSEC
  0
SECTION
  2
OBJECTS
  0
DICTIONARY
  5
C
100
AcDbDictionary
280
0
281
1
  3
ACAD_GROUP
350
D
  3
ACAD_MLINESTYLE
350
17
  3
ACAD_LAYOUT
350
1A
  3
ACAD_PLOTSETTINGS
350
19
  3
ACAD_PLOTSTYLENAME
350
E
  0
DICTIONARY
  5
D
102
{ACAD_REACTORS
330
C
102
}
100
AcDbDictionary
280
0
281
1
  0
ACDBDICTIONARYWDFLT
  5
E
102
{ACAD_REACTORS
330
C
102
}
100
AcDbDictionary
281
1
  3
Normal
350
F
100
AcDbDictionaryWithDefault
340
F
  0
DICTIONARY
  5
17
102
{ACAD_REACTORS
330
C
102
}
100
AcDbDictionary
280
0
281
1
  3
Standard
350
18
  0
DICTIONARY
  5
19
102
{ACAD_REACTORS
330
C
102
}
100
AcDbDictionary
281
1
  0
DICTIONARY
  5
1A
102
{ACAD_REACTORS
330
C
102
}
100
AcDbDictionary
281
1
  3
Model
350
33B
  3
Layout1
350
33C
  0
ACDBPLACEHOLDER
  5
F
102
{ACAD_REACTORS
330
E
102
}
  0
MLINESTYLE
  5
18
102
{ACAD_REACTORS
330
17
102
}
100
AcDbMlineStyle
  2
STANDARD
 70
0
  3

 62
256
 51
90.0
 52
90.0
 71
2
 49
0.5
 62
256
  6
BYLAYER
 49
-0.5
 62
256
  6
BYLAYER
  0
LAYOUT
  5
33B
102
{ACAD_REACTORS
330
1A
102
}
100
AcDbPlotSettings
  1

  2
none_device
  4
ISO_A4_(297.00_x_210.00_MM)
  6

 40
0.0
 41
0.0
 42
0.0
 43
0.0
 44
297.0
 45
210.0
 46
0.0
 47
0.0
 48
0.0
 49
0.0
140
0.0
141
0.0
142
1.0
143
1.0
 70
1024
 72
1
 73
0
 74
0
  7

 75
0
147
1.0
148
0.0
149
0.0
100
AcDbLayout
  1
Model
 70
0
 71
0
 10
0.0
 20
0.0
 11
297.0
 21
210.0
 12
0.0
 22
0.0
 32
0.0
 14
0.0
 24
0.0
 34
0.0
 15
0.0
 25
0.0
 35
0.0
146
0.0
 13
0.0
 23
0.0
 33
0.0
 16
1.0
 26
0.0
 36
0.0
 17
0.0
 27
1.0
 37
0.0
 76
0
330
20E
345
0
346
0
  0
LAYOUT
  5
33C
102
{ACAD_REACTORS
330
1A
102
}
100
AcDbPlotSettings
  1

  2
none_device
  4
ISO_A4_(297.00_x_210.00_MM)
  6

 40
0.0
 41
0.0
 42
0.0
 43
0.0
 44
297.0
 45
210.0
 46
0.0
 47
0.0
 48
0.0
 49
0.0
140
0.0
141
0.0
142
1.0
143
1.0
 70
0
 72
1
 73
0
 74
0
  7

 75
0
147
1.0
148
0.0
149
0.0
100
AcDbLayout
  1
Layout1
 70
0
 71
1
 10
0.0
 20
0.0
 11
297.0
 21
210.0
 12
0.0
 22
0.0
 32
0.0
 14
0.0
 24
0.0
 34
0.0
 15
0.0
 25
0.0
 35
0.0
146
0.0
 13
0.0
 23
0.0
 33
0.0
 16
1.0
 26
0.0
 36
0.0
 17
0.0
 27
1.0
 37
0.0
 76
0
330
20F
345
0
346
0
  0
ENDSEC
  0
EOF
