  0
SECTION
  2
HEADER
  9
$ACADVER
  1
AC1018
  9
$ACADMAINTVER
 70
     0
  9
$DWGCODEPAGE
  3
ANSI_1252
  9
$INSBASE
 10
0.0
 20
0.0
 30
0.0
  9
$EXTMIN
 10
-36.68445574269801
 20
104.1690572064525
 30
0.0
  9
$EXTMAX
 10
90.906447257305
 20
104.1690572064635
 30
0.0
  9
$LIMMIN
 10
-36.68445574269801
 20
104.1690572064525
  9
$LIMMAX
 10
90.906447257305
 20
104.1690572064635
  9
$ORTHOMODE
 70
     1
  9
$REGENMODE
 70
     1
  9
$FILLMODE
 70
     1
  9
$QTEXTMODE
 70
     0
  9
$MIRRTEXT
 70
     1
  9
$LTSCALE
 40
1.0
  9
$ATTMODE
 70
     1
  9
$TEXTSIZE
 40
4.166666507721
  9
$TRACEWID
 40
1.0
  9
$TEXTSTYLE
  7
Standard
  9
$CLAYER
  8
0
  9
$CELTYPE
  6
ByLayer
  9
$CECOLOR
 62
     7
  9
$CELTSCALE
 40
1.0
  9
$DISPSILH
 70
     0
  9
$DIMSCALE
 40
1.0
  9
$DIMASZ
 40
0.5
  9
$DIMEXO
 40
0.0625
  9
$DIMDLI
 40
0.38
  9
$DIMRND
 40
0.0000001
  9
$DIMDLE
 40
0.0
  9
$DIMEXE
 40
0.18
  9
$DIMTP
 40
0.0
  9
$DIMTM
 40
0.0
  9
$DIMTXT
 40
1.8
  9
$DIMCEN
 40
0.09
  9
$DIMTSZ
 40
0.0
  9
$DIMTOL
 70
     0
  9
$DIMLIM
 70
     0
  9
$DIMTIH
 70
     1
  9
$DIMTOH
 70
     1
  9
$DIMSE1
 70
     0
  9
$DIMSE2
 70
     0
  9
$DIMTAD
 70
     0
  9
$DIMZIN
 70
     0
  9
$DIMBLK
  1

  9
$DIMASO
 70
     0
  9
$DIMSHO
 70
     1
  9
$DIMPOST
  1
mm
  9
$DIMAPOST
  1

  9
$DIMALT
 70
     0
  9
$DIMALTD
 70
     2
  9
$DIMALTF
 40
25.4
  9
$DIMLFAC
 40
1.0
  9
$DIMTOFL
 70
     0
  9
$DIMTVP
 40
0.0
  9
$DIMTIX
 70
     0
  9
$DIMSOXD
 70
     0
  9
$DIMSAH
 70
     0
  9
$DIMBLK1
  1

  9
$DIMBLK2
  1

  9
$DIMSTYLE
  2
Standard
  9
$DIMCLRD
 70
     0
  9
$DIMCLRE
 70
     0
  9
$DIMCLRT
 70
   150
  9
$DIMTFAC
 40
1.0
  9
$DIMGAP
 40
0.09
  9
$DIMJUST
 70
     0
  9
$DIMSD1
 70
     0
  9
$DIMSD2
 70
     0
  9
$DIMTOLJ
 70
     1
  9
$DIMTZIN
 70
     0
  9
$DIMALTZ
 70
     8
  9
$DIMALTTZ
 70
     0
  9
$DIMUPT
 70
     0
  9
$DIMDEC
 70
     1
  9
$DIMTDEC
 70
     1
  9
$DIMALTU
 70
     2
  9
$DIMALTTD
 70
     2
  9
$DIMTXSTY
  7
_TCW_TXTSTY_1
  9
$DIMAUNIT
 70
     0
  9
$DIMADEC
 70
     1
  9
$DIMALTRND
 40
0.01
  9
$DIMAZIN
 70
     0
  9
$DIMDSEP
 70
    46
  9
$DIMATFIT
 70
     3
  9
$DIMFRAC
 70
     0
  9
$DIMLDRBLK
  1

  9
$DIMLUNIT
 70
     2
  9
$DIMLWD
 70
    -2
  9
$DIMLWE
 70
    -2
  9
$DIMTMOVE
 70
     0
  9
$LUNITS
 70
     2
  9
$LUPREC
 70
     4
  9
$SKETCHINC
 40
1.0
  9
$FILLETRAD
 40
4.0
  9
$AUNITS
 70
     0
  9
$AUPREC
 70
     0
  9
$MENU
  1
.
  9
$ELEVATION
 40
0.0
  9
$PELEVATION
 40
0.0
  9
$THICKNESS
 40
0.0
  9
$LIMCHECK
 70
     0
  9
$CHAMFERA
 40
0.5
  9
$CHAMFERB
 40
0.5
  9
$CHAMFERC
 40
1.0
  9
$CHAMFERD
 40
0.0
  9
$SKPOLY
 70
     0
  9
$TDCREATE
 40
2454839.660854271
  9
$TDUCREATE
 40
2454839.619187604
  9
$TDUPDATE
 40
2454839.660854282
  9
$TDUUPDATE
 40
2454839.619187616
  9
$TDINDWG
 40
0.0
  9
$TDUSRTIMER
 40
0.0
  9
$USRTIMER
 70
     1
  9
$ANGBASE
 50
0.0
  9
$ANGDIR
 70
     0
  9
$PDMODE
 70
     0
  9
$PDSIZE
 40
0.0
  9
$PLINEWID
 40
0.0
  9
$SPLFRAME
 70
     0
  9
$SPLINETYPE
 70
     5
  9
$SPLINESEGS
 70
    20
  9
$HANDSEED
  5
227
  9
$SURFTAB1
 70
     6
  9
$SURFTAB2
 70
     6
  9
$SURFTYPE
 70
     6
  9
$SURFU
 70
     6
  9
$SURFV
 70
     6
  9
$UCSBASE
  2

  9
$UCSNAME
  2

  9
$UCSORG
 10
-20.53908831738078
 20
104.1690512459884
 30
-20.53908831738078
  9
$UCSXDIR
 10
1.0
 20
0.0
 30
0.0
  9
$UCSYDIR
 10
0.0
 20
0.0
 30
1.0
  9
$UCSORTHOREF
  2

  9
$UCSORTHOVIEW
 70
     0
  9
$UCSORGTOP
 10
0.0
 20
0.0
 30
0.0
  9
$UCSORGBOTTOM
 10
0.0
 20
0.0
 30
0.0
  9
$UCSORGLEFT
 10
0.0
 20
0.0
 30
0.0
  9
$UCSORGRIGHT
 10
0.0
 20
0.0
 30
0.0
  9
$UCSORGFRONT
 10
0.0
 20
0.0
 30
0.0
  9
$UCSORGBACK
 10
0.0
 20
0.0
 30
0.0
  9
$PUCSBASE
  2

  9
$PUCSNAME
  2

  9
$PUCSORG
 10
0.0
 20
0.0
 30
0.0
  9
$PUCSXDIR
 10
1.0
 20
0.0
 30
0.0
  9
$PUCSYDIR
 10
0.0
 20
1.0
 30
0.0
  9
$PUCSORTHOREF
  2

  9
$PUCSORTHOVIEW
 70
     0
  9
$PUCSORGTOP
 10
0.0
 20
0.0
 30
0.0
  9
$PUCSORGBOTTOM
 10
0.0
 20
0.0
 30
0.0
  9
$PUCSORGLEFT
 10
0.0
 20
0.0
 30
0.0
  9
$PUCSORGRIGHT
 10
0.0
 20
0.0
 30
0.0
  9
$PUCSORGFRONT
 10
0.0
 20
0.0
 30
0.0
  9
$PUCSORGBACK
 10
0.0
 20
0.0
 30
0.0
  9
$USERI1
 70
     0
  9
$USERI2
 70
     0
  9
$USERI3
 70
     0
  9
$USERI4
 70
     0
  9
$USERI5
 70
     0
  9
$USERR1
 40
0.0
  9
$USERR2
 40
0.0
  9
$USERR3
 40
0.0
  9
$USERR4
 40
0.0
  9
$USERR5
 40
0.0
  9
$WORLDVIEW
 70
     1
  9
$SHADEDGE
 70
     3
  9
$SHADEDIF
 70
    70
  9
$TILEMODE
 70
     1
  9
$MAXACTVP
 70
    64
  9
$PINSBASE
 10
0.0
 20
0.0
 30
0.0
  9
$PLIMCHECK
 70
     0
  9
$PEXTMIN
 10
-13.332066719959
 20
-2.974074408104
 30
0.0
  9
$PEXTMAX
 10
283.593928153088
 20
206.999253228615
 30
0.0
  9
$PLIMMIN
 10
-13.332066719959
 20
-2.974074408104
  9
$PLIMMAX
 10
283.593928153088
 20
206.999253228615
  9
$UNITMODE
 70
     0
  9
$VISRETAIN
 70
     1
  9
$PLINEGEN
 70
     0
  9
$PSLTSCALE
 70
     1
  9
$TREEDEPTH
 70
  3020
  9
$CMLSTYLE
  2
Standard
  9
$CMLJUST
 70
     0
  9
$CMLSCALE
 40
1.0
  9
$PROXYGRAPHICS
 70
     1
  9
$MEASUREMENT
 70
     0
  9
$CELWEIGHT
370
    -1
  9
$ENDCAPS
280
     0
  9
$JOINSTYLE
280
     0
  9
$LWDISPLAY
290
     0
  9
$INSUNITS
 70
     1
  9
$HYPERLINKBASE
  1

  9
$STYLESHEET
  1

  9
$XEDIT
290
     1
  9
$CEPSNTYPE
380
     0
  9
$PSTYLEMODE
290
     1
  9
$FINGERPRINTGUID
  2
{DCA42B4B-B60B-4D8F-80B6-95BDFB1AD6D2}
  9
$VERSIONGUID
  2
{FAEB1C32-E019-11D5-929B-00C0DF256EC4}
  9
$EXTNAMES
290
     1
  9
$PSVPSCALE
 40
0.0
  9
$OLESTARTUP
290
     0
  9
$SORTENTS
280
   127
  9
$INDEXCTL
280
     0
  9
$HIDETEXT
280
     1
  9
$XCLIPFRAME
290
     0
  9
$HALOGAP
280
     0
  9
$OBSCOLOR
 70
   257
  9
$OBSLTYPE
280
     0
  9
$INTERSECTIONDISPLAY
280
     0
  9
$INTERSECTIONCOLOR
 70
   257
  9
$DIMASSOC
280
     2
  9
$PROJECTNAME
  1

  0
ENDSEC
  0
SECTION
  2
CLASSES
  0
CLASS
  1
ACDBDICTIONARYWDFLT
  2
AcDbDictionaryWithDefault
  3
ObjectDBX Classes
 90
        0
 91
        3
280
     0
281
     0
  0
CLASS
  1
VISUALSTYLE
  2
AcDbVisualStyle
  3
ObjectDBX Classes
 90
     4095
 91
        3
280
     0
281
     0
  0
CLASS
  1
TCOPTIONALDATA
  2
TcOptionalData
  3
ExTcadCustObjs|Description: TurboCAD extension data object
 90
        0
 91
        3
280
     0
281
     0
  0
ENDSEC
  0
SECTION
  2
TABLES
  0
TABLE
  2
VPORT
  5
8
330
0
100
AcDbSymbolTable
 70
     1
  0
VPORT
  5
29
330
8
100
AcDbSymbolTableRecord
100
AcDbViewportTableRecord
  2
*Active
 70
     0
 10
0.0
 20
0.0
 11
1.0
 21
1.0
 12
0.0
 22
0.0
 13
0.0
 23
0.0
 14
10.0
 24
10.0
 15
10.0
 25
10.0
 16
0.0
 26
-1.0
 36
0.0
 17
41.872339792217
 27
0.0
 37
27.57455356963399
 40
45.55112229469783
 41
1.972704714640198
 42
50.0
 43
0.0
 44
0.0
 50
0.0
 51
0.0
 71
     0
 72
   100
 73
     1
 74
     3
 75
     0
 76
     0
 77
     0
 78
     0
281
     0
 65
     1
110
0.0
120
0.0
130
0.0
111
1.0
121
0.0
131
0.0
112
0.0
122
1.0
132
0.0
 79
     0
146
0.0
  0
ENDTAB
  0
TABLE
  2
LTYPE
  5
5
330
0
100
AcDbSymbolTable
 70
    17
  0
LTYPE
  5
14
330
5
100
AcDbSymbolTableRecord
100
AcDbLinetypeTableRecord
  2
ByBlock
 70
     0
  3

 72
    65
 73
     0
 40
0.0
  0
LTYPE
  5
15
330
5
100
AcDbSymbolTableRecord
100
AcDbLinetypeTableRecord
  2
ByLayer
 70
     0
  3

 72
    65
 73
     0
 40
0.0
  0
LTYPE
  5
16
330
5
100
AcDbSymbolTableRecord
100
AcDbLinetypeTableRecord
  2
Continuous
 70
     0
  3
Solid line
 72
    65
 73
     0
 40
0.0
  0
LTYPE
  5
40
330
5
100
AcDbSymbolTableRecord
100
AcDbLinetypeTableRecord
  2
Durchgehend
 70
     0
  3
Durchgehend
 72
    65
 73
     0
 40
0.0
  0
LTYPE
  5
41
330
5
100
AcDbSymbolTableRecord
100
AcDbLinetypeTableRecord
  2
Rand
 70
     0
  3
Rand
 72
    65
 73
     6
 40
1.75
 49
0.5
 74
     0
 49
-0.25
 74
     0
 49
0.5
 74
     0
 49
-0.25
 74
     0
 49
0.0
 74
     0
 49
-0.25
 74
     0
  0
LTYPE
  5
42
330
5
100
AcDbSymbolTableRecord
100
AcDbLinetypeTableRecord
  2
Mitte
 70
     0
  3
Mitte
 72
    65
 73
     4
 40
2.0
 49
1.25
 74
     0
 49
-0.25
 74
     0
 49
0.25
 74
     0
 49
-0.25
 74
     0
  0
LTYPE
  5
43
330
5
100
AcDbSymbolTableRecord
100
AcDbLinetypeTableRecord
  2
Strichpunkt
 70
     0
  3
Strichpunkt
 72
    65
 73
     4
 40
1.0
 49
0.5
 74
     0
 49
-0.25
 74
     0
 49
0.0
 74
     0
 49
-0.25
 74
     0
  0
LTYPE
  5
44
330
5
100
AcDbSymbolTableRecord
100
AcDbLinetypeTableRecord
  2
Gestrichelt
 70
     0
  3
Gestrichelt
 72
    65
 73
     2
 40
0.75
 49
0.5
 74
     0
 49
-0.25
 74
     0
  0
LTYPE
  5
45
330
5
100
AcDbSymbolTableRecord
100
AcDbLinetypeTableRecord
  2
Teilen
 70
     0
  3
Teilen
 72
    65
 73
     6
 40
1.25
 49
0.5
 74
     0
 49
-0.25
 74
     0
 49
0.0
 74
     0
 49
-0.25
 74
     0
 49
0.0
 74
     0
 49
-0.25
 74
     0
  0
LTYPE
  5
46
330
5
100
AcDbSymbolTableRecord
100
AcDbLinetypeTableRecord
  2
Punkt
 70
     0
  3
Punkt
 72
    65
 73
     2
 40
0.25
 49
0.0
 74
     0
 49
-0.25
 74
     0
  0
LTYPE
  5
47
330
5
100
AcDbSymbolTableRecord
100
AcDbLinetypeTableRecord
  2
Verdeckt
 70
     0
  3
Verdeckt
 72
    65
 73
     2
 40
0.375
 49
0.25
 74
     0
 49
-0.125
 74
     0
  0
LTYPE
  5
48
330
5
100
AcDbSymbolTableRecord
100
AcDbLinetypeTableRecord
  2
$INVISIBLE
 70
     0
  3
$INVISIBLE
 72
    65
 73
     2
 40
200.0
 49
-100.0
 74
     0
 49
-100.0
 74
     0
  0
LTYPE
  5
49
330
5
100
AcDbSymbolTableRecord
100
AcDbLinetypeTableRecord
  2
HIDDEN
 70
     0
  3
HIDDEN
 72
    65
 73
     2
 40
9.524999999999999
 49
6.35
 74
     0
 49
-3.175
 74
     0
  0
LTYPE
  5
4A
330
5
100
AcDbSymbolTableRecord
100
AcDbLinetypeTableRecord
  2
DOT
 70
     0
  3
DOT
 72
    65
 73
     2
 40
0.25
 49
0.0
 74
     0
 49
-0.25
 74
     0
  0
LTYPE
  5
4B
330
5
100
AcDbSymbolTableRecord
100
AcDbLinetypeTableRecord
  2
CENTER
 70
     0
  3
CENTER
 72
    65
 73
     4
 40
50.8
 49
31.75
 74
     0
 49
-6.35
 74
     0
 49
6.35
 74
     0
 49
-6.35
 74
     0
  0
LTYPE
  5
4C
330
5
100
AcDbSymbolTableRecord
100
AcDbLinetypeTableRecord
  2
DASHDOT
 70
     0
  3
DASHDOT
 72
    65
 73
     4
 40
1.0
 49
0.5
 74
     0
 49
-0.25
 74
     0
 49
0.0
 74
     0
 49
-0.25
 74
     0
  0
LTYPE
  5
4D
330
5
100
AcDbSymbolTableRecord
100
AcDbLinetypeTableRecord
  2
DASHED
 70
     0
  3
DASHED
 72
    65
 73
     2
 40
0.75
 49
0.5
 74
     0
 49
-0.25
 74
     0
  0
LTYPE
  5
4E
330
5
100
AcDbSymbolTableRecord
100
AcDbLinetypeTableRecord
  2
$SNAPEXT
 70
     0
  3
$SNAPEXT
 72
    65
 73
     2
 40
0.04
 49
0.02
 74
     0
 49
-0.02
 74
     0
  0
LTYPE
  5
4F
330
5
100
AcDbSymbolTableRecord
100
AcDbLinetypeTableRecord
  2
$AUXILIARY
 70
     0
  3
$AUXILIARY
 72
    65
 73
     2
 40
0.1
 49
0.05
 74
     0
 49
-0.05
 74
     0
  0
ENDTAB
  0
TABLE
  2
LAYER
  5
2
330
0
100
AcDbSymbolTable
 70
     3
  0
LAYER
  5
10
330
2
100
AcDbSymbolTableRecord
100
AcDbLayerTableRecord
  2
0
 70
     0
 62
     7
  6
Continuous
370
     0
390
F
  0
LAYER
  5
50
330
2
100
AcDbSymbolTableRecord
100
AcDbLayerTableRecord
  2
Main lines
 70
     0
 62
     1
420
 16711680
  6
Continuous
370
    50
390
F
  0
LAYER
  5
51
330
2
100
AcDbSymbolTableRecord
100
AcDbLayerTableRecord
  2
ASHADE
 70
     0
 62
     7
  6
Continuous
370
     0
390
F
  0
ENDTAB
  0
TABLE
  2
STYLE
  5
3
330
0
100
AcDbSymbolTable
 70
     6
  0
STYLE
  5
11
330
3
100
AcDbSymbolTableRecord
100
AcDbTextStyleTableRecord
  2
Standard
 70
     0
 40
0.0
 41
1.0
 50
0.0
 71
     0
 42
0.2
  3
txt
  4

  0
STYLE
  5
55
330
3
100
AcDbSymbolTableRecord
100
AcDbTextStyleTableRecord
  2
ISO Proportional
 70
     0
 40
0.0
 41
1.0
 50
0.0
 71
     0
 42
2.5
  3
ISOCP.SHX
  4

  0
STYLE
  5
56
330
3
100
AcDbSymbolTableRecord
100
AcDbTextStyleTableRecord
  2

 70
     1
 40
0.0
 41
1.0
 50
0.0
 71
     0
 42
2.5
  3
LTYPESHP.SHX
  4

  0
STYLE
  5
57
330
3
100
AcDbSymbolTableRecord
100
AcDbTextStyleTableRecord
  2
YUSIMPLE
 70
     0
 40
0.0
 41
1.0
 50
0.0
 71
     0
 42
2.5
  3
YUSIMPLE.SHX
  4

  0
STYLE
  5
58
330
3
100
AcDbSymbolTableRecord
100
AcDbTextStyleTableRecord
  2
ASHADE
 70
     0
 40
0.2000000029802322
 41
1.0
 50
0.0
 71
     0
 42
2.5
  3
SIMPLEX.SHX
  4

  0
STYLE
  5
59
330
3
100
AcDbSymbolTableRecord
100
AcDbTextStyleTableRecord
  2
_TCW_TXTSTY_1
 70
     0
 40
0.0
 41
1.0
 50
0.0
 71
     0
 42
0.6000000238418579
  3
TXT.SHX
  4

  0
ENDTAB
  0
TABLE
  2
VIEW
  5
6
330
0
100
AcDbSymbolTable
 70
     3
  0
VIEW
  5
52
330
6
100
AcDbSymbolTableRecord
100
AcDbViewTableRecord
  2
Ansicht_0
 70
     0
 40
210.0
 10
148.5
 20
105.0
 41
297.0
 11
0.0
 21
0.0
 31
1.0
 12
0.0
 22
0.0
 32
0.0
 42
50.0
 43
0.0
 44
0.0
 50
0.0
 71
     0
281
     0
 72
     0
  0
VIEW
  5
53
330
6
100
AcDbSymbolTableRecord
100
AcDbViewTableRecord
  2
View_1
 70
     0
 40
201.393107068014
 10
717.186018361002
 20
392.429501955622
 41
280.2283967588439
 11
0.0
 21
0.0
 31
1.0
 12
0.0
 22
0.0
 32
0.0
 42
50.0
 43
0.0
 44
0.0
 50
0.0
 71
     0
281
     0
 72
     0
  0
VIEW
  5
54
330
6
100
AcDbSymbolTableRecord
100
AcDbViewTableRecord
  2
View_2
 70
     0
 40
201.3931070680139
 10
717.186022139866
 20
392.429504239632
 41
280.2283967588437
 11
0.0
 21
0.0
 31
1.0
 12
0.0
 22
0.0
 32
0.0
 42
50.0
 43
0.0
 44
0.0
 50
0.0
 71
     0
281
     0
 72
     0
  0
ENDTAB
  0
TABLE
  2
UCS
  5
7
330
0
100
AcDbSymbolTable
 70
     0
  0
ENDTAB
  0
TABLE
  2
APPID
  5
9
330
0
100
AcDbSymbolTable
 70
     3
  0
APPID
  5
12
330
9
100
AcDbSymbolTableRecord
100
AcDbRegAppTableRecord
  2
ACAD
 70
     0
  0
APPID
  5
3F
330
9
100
AcDbSymbolTableRecord
100
AcDbRegAppTableRecord
  2
TCAD
 70
     0
  0
APPID
  5
79
330
9
100
AcDbSymbolTableRecord
100
AcDbRegAppTableRecord
  2
AVE_RENDER
 70
     0
  0
ENDTAB
  0
TABLE
  2
DIMSTYLE
  5
A
330
0
100
AcDbSymbolTable
 70
     2
100
AcDbDimStyleTable
  0
DIMSTYLE
105
27
330
A
100
AcDbSymbolTableRecord
100
AcDbDimStyleTableRecord
  2
Standard
 70
     0
  3
mm
 41
0.5
 45
0.0000001
140
1.8
148
0.01
178
   150
179
     1
271
     1
272
     1
285
     8
340
59
  0
DIMSTYLE
105
5A
330
A
100
AcDbSymbolTableRecord
100
AcDbDimStyleTableRecord
  2
ISO-25
 70
     0
 41
2.5
 42
0.625
 43
3.75
 44
1.25
 45
0.0000001
 73
     0
 74
     0
 77
     1
 78
     8
140
2.5
143
0.03937007874
147
0.625
148
0.0000001
171
     3
172
     1
178
     1
179
     2
271
     2
272
     2
274
     3
283
     0
285
     8
340
59
  0
ENDTAB
  0
TABLE
  2
BLOCK_RECORD
  5
1
330
0
100
AcDbSymbolTable
 70
     5
  0
BLOCK_RECORD
  5
1F
330
1
100
AcDbSymbolTableRecord
100
AcDbBlockTableRecord
  2
*Model_Space
340
22
  0
BLOCK_RECORD
  5
1B
330
1
100
AcDbSymbolTableRecord
100
AcDbBlockTableRecord
  2
*Paper_Space
340
1E
  0
BLOCK_RECORD
  5
3B
330
1
100
AcDbSymbolTableRecord
100
AcDbBlockTableRecord
  2
*Paper_Space1
340
3C
  0
BLOCK_RECORD
  5
5B
330
1
100
AcDbSymbolTableRecord
100
AcDbBlockTableRecord
  2
OVERHEAD
340
0
102
{BLKREFS
331
78
331
85
331
91
331
9D
331
A9
331
B5
102
}
  0
BLOCK_RECORD
  5
C1
330
1
100
AcDbSymbolTableRecord
100
AcDbBlockTableRecord
  2
DIRECT
340
0
102
{BLKREFS
331
D5
102
}
  0
BLOCK_RECORD
  5
E1
330
1
100
AcDbSymbolTableRecord
100
AcDbBlockTableRecord
  2
SH_SPOT
340
0
102
{BLKREFS
331
109
102
}
  0
ENDTAB
  0
ENDSEC
  0
SECTION
  2
BLOCKS
  0
BLOCK
  5
20
330
1F
100
AcDbEntity
  8
0
100
AcDbBlockBegin
  2
*Model_Space
 70
     0
 71
     0
 10
0.0
 20
0.0
 30
0.0
  3
*Model_Space
  1

  0
ENDBLK
  5
21
330
1F
100
AcDbEntity
  8
0
100
AcDbBlockEnd
  0
BLOCK
  5
1C
330
1B
100
AcDbEntity
 67
     1
  8
0
100
AcDbBlockBegin
  2
*Paper_Space
 70
     0
 71
     0
 10
0.0
 20
0.0
 30
0.0
  3
*Paper_Space
  1

  0
ENDBLK
  5
1D
330
1B
100
AcDbEntity
 67
     1
  8
0
100
AcDbBlockEnd
  0
BLOCK
  5
3D
330
3B
100
AcDbEntity
  8
0
100
AcDbBlockBegin
  2
*Paper_Space1
 70
     0
 71
     0
 10
0.0
 20
0.0
 30
0.0
  3
*Paper_Space1
  1

  0
VIEWPORT
  5
225
330
3B
100
AcDbEntity
  8
0
100
AcDbViewport
 10
140.021884882379
 20
101.902895350416
 30
0.0
 40
280.228395758387
 41
201.393106349011
 68
     1
 69
     1
 12
140.021884882379
 22
101.902895350416
 13
0.0
 23
0.0
 14
5.0
 24
5.0
 15
5.0
 25
5.0
 16
0.0
 26
0.0
 36
1.0
 17
0.0
 27
0.0
 37
0.0
 42
50.0
 43
0.0
 44
0.0
 45
201.393106349011
 50
0.0
 51
0.0
 72
  1000
 90
    32800
  1

281
     0
 71
     1
 74
     0
110
0.0
120
0.0
130
0.0
111
1.0
121
0.0
131
0.0
112
0.0
122
1.0
132
0.0
 79
     0
146
0.0
170
     0
  0
ENDBLK
  5
3E
330
3B
100
AcDbEntity
  8
0
100
AcDbBlockEnd
  0
BLOCK
  5
76
330
5B
100
AcDbEntity
  8
0
100
AcDbBlockBegin
  2
OVERHEAD
 70
     2
 71
     0
 10
0.0
 20
0.0
 30
0.0
  3
OVERHEAD
  1

  0
ATTDEF
  5
5C
330
5B
100
AcDbEntity
  8
ASHADE
  6
Continuous
 62
     1
420
 16711680
100
AcDbText
 10
0.0
 20
-0.1
 30
0.0
 40
0.2
  1

  7
ASHADE
 72
     1
 11
0.0
 21
-0.1
 31
0.0
100
AcDbAttributeDefinition
  3
Light Name
  2
SNAME
 70
     0
  0
ATTDEF
  5
5D
330
5B
100
AcDbEntity
  8
ASHADE
  6
Continuous
 62
     7
100
AcDbText
 10
0.0
 20
0.28
 30
0.0
 40
0.01
  1

100
AcDbAttributeDefinition
  3

  2
GNAME
 70
     1
  0
ATTDEF
  5
5E
330
5B
100
AcDbEntity
  8
ASHADE
  6
Continuous
 62
     7
100
AcDbText
 10
0.0
 20
0.265
 30
0.0
 40
0.01
  1

100
AcDbAttributeDefinition
  3
Look-at X
  2
LAX
 70
     1
  0
ATTDEF
  5
5F
330
5B
100
AcDbEntity
  8
ASHADE
  6
Continuous
 62
     7
100
AcDbText
 10
0.0
 20
0.25
 30
0.0
 40
0.01
  1

100
AcDbAttributeDefinition
  3
Look-at Y
  2
LAY
 70
     1
  0
ATTDEF
  5
60
330
5B
100
AcDbEntity
  8
ASHADE
  6
Continuous
 62
     7
100
AcDbText
 10
0.0
 20
0.235
 30
0.0
 40
0.01
  1

100
AcDbAttributeDefinition
  3
Look-at Z
  2
LAZ
 70
     1
  0
ATTDEF
  5
61
330
5B
100
AcDbEntity
  8
ASHADE
  6
Continuous
 62
     7
100
AcDbText
 10
0.0
 20
0.22
 30
0.0
 40
0.01
  1
1
100
AcDbAttributeDefinition
  3
Light Intensity
  2
INTENSITY
 70
     1
  0
ATTDEF
  5
62
330
5B
100
AcDbEntity
  8
ASHADE
  6
Continuous
 62
     7
100
AcDbText
 10
0.0
 20
0.205
 30
0.0
 40
0.01
  1
1,1,1
100
AcDbAttributeDefinition
  3
Light Color (RGB)
  2
COLOR
 70
     1
  0
ATTDEF
  5
63
330
5B
100
AcDbEntity
  8
ASHADE
  6
Continuous
 62
     7
100
AcDbText
 10
0.0
 20
0.19
 30
0.0
 40
0.01
  1
0
100
AcDbAttributeDefinition
  3
Depth Map Size
  2
CONEA
 70
     1
  0
ATTDEF
  5
64
330
5B
100
AcDbEntity
  8
ASHADE
  6
Continuous
 62
     7
100
AcDbText
 10
0.0
 20
0.175
 30
0.0
 40
0.01
  1
-1
100
AcDbAttributeDefinition
  3
*not used*
  2
CONED
 70
     1
  0
ATTDEF
  5
65
330
5B
100
AcDbEntity
  8
ASHADE
  6
Continuous
 62
     7
100
AcDbText
 10
0.0
 20
0.16
 30
0.0
 40
0.01
  1
-1
100
AcDbAttributeDefinition
  3
*not used*
  2
BEAMD
 70
     1
  0
ARC
  5
66
330
5B
100
AcDbEntity
  8
ASHADE
  6
Continuous
 62
     7
100
AcDbCircle
 10
0.0
 20
0.0
 30
0.0
 40
0.3
100
AcDbArc
 50
205.679289
 51
334.320711
  0
ARC
  5
67
330
5B
100
AcDbEntity
  8
ASHADE
  6
Continuous
 62
     7
100
AcDbCircle
 10
0.0
 20
0.0
 30
0.0
 40
0.3
100
AcDbArc
 50
25.679289
 51
154.320711
  0
LINE
  5
68
330
5B
100
AcDbEntity
  8
ASHADE
  6
Continuous
 62
     7
100
AcDbLine
 10
-0.27037
 20
-0.13
 30
0.0
 11
-0.315432
 21
-0.151667
 31
0.0
  0
LINE
  5
69
330
5B
100
AcDbEntity
  8
ASHADE
  6
Continuous
 62
     7
100
AcDbLine
 10
-0.204141
 20
-0.219832
 30
0.0
 11
-0.272188
 21
-0.29311
 31
0.0
  0
LINE
  5
6A
330
5B
100
AcDbEntity
  8
ASHADE
  6
Continuous
 62
     7
100
AcDbLine
 10
-0.109659
 20
-0.27924
 30
0.0
 11
-0.127936
 21
-0.32578
 31
0.0
  0
LINE
  5
6B
330
5B
100
AcDbEntity
  8
ASHADE
  6
Continuous
 62
     7
100
AcDbLine
 10
0.0
 20
-0.3
 30
0.0
 11
0.0
 21
-0.4
 31
0.0
  0
LINE
  5
6C
330
5B
100
AcDbEntity
  8
ASHADE
  6
Continuous
 62
     7
100
AcDbLine
 10
0.109659
 20
-0.27924
 30
0.0
 11
0.127936
 21
-0.32578
 31
0.0
  0
LINE
  5
6D
330
5B
100
AcDbEntity
  8
ASHADE
  6
Continuous
 62
     7
100
AcDbLine
 10
0.204141
 20
-0.219832
 30
0.0
 11
0.272188
 21
-0.29311
 31
0.0
  0
LINE
  5
6E
330
5B
100
AcDbEntity
  8
ASHADE
  6
Continuous
 62
     7
100
AcDbLine
 10
0.27037
 20
-0.13
 30
0.0
 11
0.315432
 21
-0.151667
 31
0.0
  0
LINE
  5
6F
330
5B
100
AcDbEntity
  8
ASHADE
  6
Continuous
 62
     7
100
AcDbLine
 10
-0.109659
 20
0.27924
 30
0.0
 11
-0.127936
 21
0.32578
 31
0.0
  0
LINE
  5
70
330
5B
100
AcDbEntity
  8
ASHADE
  6
Continuous
 62
     7
100
AcDbLine
 10
-0.204141
 20
0.219832
 30
0.0
 11
-0.272188
 21
0.29311
 31
0.0
  0
LINE
  5
71
330
5B
100
AcDbEntity
  8
ASHADE
  6
Continuous
 62
     7
100
AcDbLine
 10
-0.27037
 20
0.13
 30
0.0
 11
-0.315432
 21
0.151667
 31
0.0
  0
LINE
  5
72
330
5B
100
AcDbEntity
  8
ASHADE
  6
Continuous
 62
     7
100
AcDbLine
 10
0.27037
 20
0.13
 30
0.0
 11
0.315432
 21
0.151667
 31
0.0
  0
LINE
  5
73
330
5B
100
AcDbEntity
  8
ASHADE
  6
Continuous
 62
     7
100
AcDbLine
 10
0.204141
 20
0.219832
 30
0.0
 11
0.272188
 21
0.29311
 31
0.0
  0
LINE
  5
74
330
5B
100
AcDbEntity
  8
ASHADE
  6
Continuous
 62
     7
100
AcDbLine
 10
0.109659
 20
0.27924
 30
0.0
 11
0.127936
 21
0.32578
 31
0.0
  0
LINE
  5
75
330
5B
100
AcDbEntity
  8
ASHADE
  6
Continuous
 62
     7
100
AcDbLine
 10
0.0
 20
0.3
 30
0.0
 11
0.0
 21
0.4
 31
0.0
  0
ENDBLK
  5
77
330
5B
100
AcDbEntity
  8
0
100
AcDbBlockEnd
  0
BLOCK
  5
D3
330
C1
100
AcDbEntity
  8
0
100
AcDbBlockBegin
  2
DIRECT
 70
     2
 71
     0
 10
0.0
 20
0.0
 30
0.0
  3
DIRECT
  1

  0
ATTDEF
  5
C2
330
C1
100
AcDbEntity
  8
ASHADE
  6
Continuous
 62
     1
420
 16711680
100
AcDbText
 10
0.0
 20
-0.1
 30
0.0
 40
0.2
  1

  7
ASHADE
 72
     1
 11
0.0
 21
-0.1
 31
0.0
100
AcDbAttributeDefinition
  3
Light Name
  2
SNAME
 70
     0
  0
ATTDEF
  5
C3
330
C1
100
AcDbEntity
  8
ASHADE
  6
Continuous
 62
     7
100
AcDbText
 10
0.0
 20
0.28
 30
0.0
 40
0.01
  1

100
AcDbAttributeDefinition
  3

  2
GNAME
 70
     1
  0
ATTDEF
  5
C4
330
C1
100
AcDbEntity
  8
ASHADE
  6
Continuous
 62
     7
100
AcDbText
 10
0.0
 20
0.265
 30
0.0
 40
0.01
  1

100
AcDbAttributeDefinition
  3
Look-at X
  2
LAX
 70
     1
  0
ATTDEF
  5
C5
330
C1
100
AcDbEntity
  8
ASHADE
  6
Continuous
 62
     7
100
AcDbText
 10
0.0
 20
0.25
 30
0.0
 40
0.01
  1

100
AcDbAttributeDefinition
  3
Look-at Y
  2
LAY
 70
     1
  0
ATTDEF
  5
C6
330
C1
100
AcDbEntity
  8
ASHADE
  6
Continuous
 62
     7
100
AcDbText
 10
0.0
 20
0.235
 30
0.0
 40
0.01
  1

100
AcDbAttributeDefinition
  3
Look-at Z
  2
LAZ
 70
     1
  0
ATTDEF
  5
C7
330
C1
100
AcDbEntity
  8
ASHADE
  6
Continuous
 62
     7
100
AcDbText
 10
0.0
 20
0.22
 30
0.0
 40
0.01
  1
1
100
AcDbAttributeDefinition
  3
Light Intensity
  2
INTENSITY
 70
     1
  0
ATTDEF
  5
C8
330
C1
100
AcDbEntity
  8
ASHADE
  6
Continuous
 62
     7
100
AcDbText
 10
0.0
 20
0.205
 30
0.0
 40
0.01
  1
1,1,1
100
AcDbAttributeDefinition
  3
Light Color (RGB)
  2
COLOR
 70
     1
  0
ATTDEF
  5
C9
330
C1
100
AcDbEntity
  8
ASHADE
  6
Continuous
 62
     7
100
AcDbText
 10
0.0
 20
0.19
 30
0.0
 40
0.01
  1
0
100
AcDbAttributeDefinition
  3
Depth Map Size
  2
CONEA
 70
     1
  0
ATTDEF
  5
CA
330
C1
100
AcDbEntity
  8
ASHADE
  6
Continuous
 62
     7
100
AcDbText
 10
0.0
 20
0.175
 30
0.0
 40
0.01
  1
-1
100
AcDbAttributeDefinition
  3
*not used*
  2
CONED
 70
     1
  0
ATTDEF
  5
CB
330
C1
100
AcDbEntity
  8
ASHADE
  6
Continuous
 62
     7
100
AcDbText
 10
0.0
 20
0.16
 30
0.0
 40
0.01
  1
-1
100
AcDbAttributeDefinition
  3
*not used*
  2
BEAMD
 70
     1
  0
ARC
  5
CC
330
C1
100
AcDbEntity
  8
ASHADE
  6
Continuous
 62
     7
100
AcDbCircle
 10
0.0
 20
0.0
 30
0.0
 40
0.3
100
AcDbArc
 50
205.679289
 51
334.320711
  0
ARC
  5
CD
330
C1
100
AcDbEntity
  8
ASHADE
  6
Continuous
 62
     7
100
AcDbCircle
 10
0.0
 20
0.0
 30
0.0
 40
0.3
100
AcDbArc
 50
25.679289
 51
154.320711
  0
LINE
  5
CE
330
C1
100
AcDbEntity
  8
ASHADE
  6
Continuous
 62
     7
100
AcDbLine
 10
0.21
 20
0.214243
 30
0.0
 11
0.21
 21
0.5
 31
0.0
  0
LINE
  5
CF
330
C1
100
AcDbEntity
  8
ASHADE
  6
Continuous
 62
     7
100
AcDbLine
 10
0.11
 20
0.279106
 30
0.0
 11
0.11
 21
0.5
 31
0.0
  0
LINE
  5
D0
330
C1
100
AcDbEntity
  8
ASHADE
  6
Continuous
 62
     7
100
AcDbLine
 10
0.0
 20
0.3
 30
0.0
 11
0.0
 21
0.5
 31
0.0
  0
LINE
  5
D1
330
C1
100
AcDbEntity
  8
ASHADE
  6
Continuous
 62
     7
100
AcDbLine
 10
-0.11
 20
0.279106
 30
0.0
 11
-0.11
 21
0.5
 31
0.0
  0
LINE
  5
D2
330
C1
100
AcDbEntity
  8
ASHADE
  6
Continuous
 62
     7
100
AcDbLine
 10
-0.21
 20
0.214243
 30
0.0
 11
-0.21
 21
0.5
 31
0.0
  0
ENDBLK
  5
D4
330
C1
100
AcDbEntity
  8
0
100
AcDbBlockEnd
  0
BLOCK
  5
107
330
E1
100
AcDbEntity
  8
0
100
AcDbBlockBegin
  2
SH_SPOT
 70
     2
 71
     0
 10
0.0
 20
0.0
 30
0.0
  3
SH_SPOT
  1

  0
ATTDEF
  5
E2
330
E1
100
AcDbEntity
  8
ASHADE
  6
Continuous
 62
     1
420
 16711680
100
AcDbText
 10
0.0
 20
-0.1
 30
0.0
 40
0.2
  1

  7
ASHADE
 72
     1
 11
0.0
 21
-0.1
 31
0.0
100
AcDbAttributeDefinition
  3
Light Name
  2
SNAME
 70
     0
  0
ATTDEF
  5
E3
330
E1
100
AcDbEntity
  8
ASHADE
  6
Continuous
 62
     7
 60
     1
100
AcDbText
 10
0.0
 20
-0.15
 30
0.0
 40
0.01
  1

100
AcDbAttributeDefinition
  3

  2
GNAME
 70
     0
  0
ATTDEF
  5
E4
330
E1
100
AcDbEntity
  8
ASHADE
  6
Continuous
 62
     7
 60
     1
100
AcDbText
 10
0.0
 20
-0.165
 30
0.0
 40
0.01
  1

100
AcDbAttributeDefinition
  3
Look-at X
  2
LAX
 70
     0
  0
ATTDEF
  5
E5
330
E1
100
AcDbEntity
  8
ASHADE
  6
Continuous
 62
     7
 60
     1
100
AcDbText
 10
0.0
 20
-0.18
 30
0.0
 40
0.01
  1

100
AcDbAttributeDefinition
  3
Look-at Y
  2
LAY
 70
     0
  0
ATTDEF
  5
E6
330
E1
100
AcDbEntity
  8
ASHADE
  6
Continuous
 62
     7
 60
     1
100
AcDbText
 10
0.0
 20
-0.195
 30
0.0
 40
0.01
  1

100
AcDbAttributeDefinition
  3
Look-at Z
  2
LAZ
 70
     0
  0
ATTDEF
  5
E7
330
E1
100
AcDbEntity
  8
ASHADE
  6
Continuous
 62
     7
 60
     1
100
AcDbText
 10
0.0
 20
-0.21
 30
0.0
 40
0.01
  1
1
100
AcDbAttributeDefinition
  3
Light Intensity
  2
INTENSITY
 70
     0
  0
ATTDEF
  5
E8
330
E1
100
AcDbEntity
  8
ASHADE
  6
Continuous
 62
     7
 60
     1
100
AcDbText
 10
0.0
 20
-0.225
 30
0.0
 40
0.01
  1
1,1,1
100
AcDbAttributeDefinition
  3
Light Color (RGB)
  2
COLOR
 70
     0
  0
ATTDEF
  5
E9
330
E1
100
AcDbEntity
  8
ASHADE
  6
Continuous
 62
     7
 60
     1
100
AcDbText
 10
0.0
 20
-0.24
 30
0.0
 40
0.01
  1
0
100
AcDbAttributeDefinition
  3
Depth Map Size
  2
ZSIZE
 70
     0
  0
ATTDEF
  5
EA
330
E1
100
AcDbEntity
  8
ASHADE
  6
Continuous
 62
     7
 60
     1
100
AcDbText
 10
0.0
 20
-0.255
 30
0.0
 40
0.01
  1
-1
100
AcDbAttributeDefinition
  3
*not used*
  2
BIASMIN
 70
     0
  0
ATTDEF
  5
EB
330
E1
100
AcDbEntity
  8
ASHADE
  6
Continuous
 62
     7
 60
     1
100
AcDbText
 10
0.0
 20
-0.27
 30
0.0
 40
0.01
  1
-1
100
AcDbAttributeDefinition
  3
*not used*
  2
BIASMAX
 70
     0
  0
ATTDEF
  5
EC
330
E1
100
AcDbEntity
  8
ASHADE
  6
Continuous
 62
     7
 60
     1
100
AcDbText
 10
0.0
 20
-0.285
 30
0.0
 40
0.01
  1
10.0
100
AcDbAttributeDefinition
  3
Cone Angle
  2
CONEAN
 70
     0
  0
ATTDEF
  5
ED
330
E1
100
AcDbEntity
  8
ASHADE
  6
Continuous
 62
     7
 60
     1
100
AcDbText
 10
0.0
 20
-0.3
 30
0.0
 40
0.01
  1
0.0
100
AcDbAttributeDefinition
  3
Cone Delta
  2
CONEDE
 70
     0
  0
ATTDEF
  5
EE
330
E1
100
AcDbEntity
  8
ASHADE
  6
Continuous
 62
     7
 60
     1
100
AcDbText
 10
0.0
 20
-0.315
 30
0.0
 40
0.01
  1
0.0
100
AcDbAttributeDefinition
  3
Beam Distribution
  2
BIAMDI
 70
     0
  0
LINE
  5
EF
330
E1
100
AcDbEntity
  8
ASHADE
  6
Continuous
 62
     7
100
AcDbLine
 10
-0.25
 20
-0.13
 30
0.0
 11
-0.25
 21
-0.34
 31
0.0
  0
LINE
  5
F0
330
E1
100
AcDbEntity
  8
ASHADE
  6
Continuous
 62
     7
100
AcDbLine
 10
-0.25
 20
-0.34
 30
0.0
 11
0.25
 21
-0.34
 31
0.0
  0
LINE
  5
F1
330
E1
100
AcDbEntity
  8
ASHADE
  6
Continuous
 62
     7
100
AcDbLine
 10
0.25
 20
-0.34
 30
0.0
 11
0.25
 21
-0.13
 31
0.0
  0
LINE
  5
F2
330
E1
100
AcDbEntity
  8
ASHADE
  6
Continuous
 62
     7
100
AcDbLine
 10
0.25
 20
0.13
 30
0.0
 11
0.25
 21
0.26
 31
0.0
  0
LINE
  5
F3
330
E1
100
AcDbEntity
  8
ASHADE
  6
Continuous
 62
     7
100
AcDbLine
 10
0.25
 20
0.26
 30
0.0
 11
-0.25
 21
0.26
 31
0.0
  0
LINE
  5
F4
330
E1
100
AcDbEntity
  8
ASHADE
  6
Continuous
 62
     7
100
AcDbLine
 10
-0.25
 20
0.26
 30
0.0
 11
-0.25
 21
0.13
 31
0.0
  0
LINE
  5
F5
330
E1
100
AcDbEntity
  8
ASHADE
  6
Continuous
 62
     7
100
AcDbLine
 10
-0.21
 20
0.26
 30
0.0
 11
-0.301304
 21
0.46
 31
0.0
  0
LINE
  5
F6
330
E1
100
AcDbEntity
  8
ASHADE
  6
Continuous
 62
     7
100
AcDbLine
 10
-0.104545
 20
0.26
 30
0.0
 11
-0.15
 21
0.46
 31
0.0
  0
LINE
  5
F7
330
E1
100
AcDbEntity
  8
ASHADE
  6
Continuous
 62
     7
100
AcDbLine
 10
0.0
 20
0.26
 30
0.0
 11
0.0
 21
0.46
 31
0.0
  0
LINE
  5
F8
330
E1
100
AcDbEntity
  8
ASHADE
  6
Continuous
 62
     7
100
AcDbLine
 10
0.104545
 20
0.26
 30
0.0
 11
0.15
 21
0.46
 31
0.0
  0
LINE
  5
F9
330
E1
100
AcDbEntity
  8
ASHADE
  6
Continuous
 62
     7
100
AcDbLine
 10
0.21
 20
0.26
 30
0.0
 11
0.301304
 21
0.46
 31
0.0
  0
LINE
  5
FA
330
E1
100
AcDbEntity
  8
ASHADE
  6
Continuous
 62
     7
100
AcDbLine
 10
-0.29
 20
-0.18
 30
0.0
 11
-0.29
 21
-0.22
 31
0.0
  0
LINE
  5
FB
330
E1
100
AcDbEntity
  8
ASHADE
  6
Continuous
 62
     7
100
AcDbLine
 10
0.29
 20
-0.18
 30
0.0
 11
0.29
 21
-0.22
 31
0.0
  0
LINE
  5
FC
330
E1
100
AcDbEntity
  8
ASHADE
  6
Continuous
 62
     7
100
AcDbLine
 10
0.29
 20
0.22
 30
0.0
 11
0.29
 21
0.18
 31
0.0
  0
LINE
  5
FD
330
E1
100
AcDbEntity
  8
ASHADE
  6
Continuous
 62
     7
100
AcDbLine
 10
-0.29
 20
0.22
 30
0.0
 11
-0.29
 21
0.18
 31
0.0
  0
LINE
  5
FE
330
E1
100
AcDbEntity
  8
ASHADE
  6
Continuous
 62
     7
100
AcDbLine
 10
-0.29
 20
-0.22
 30
0.0
 11
-0.25
 21
-0.22
 31
0.0
  0
LINE
  5
FF
330
E1
100
AcDbEntity
  8
ASHADE
  6
Continuous
 62
     7
100
AcDbLine
 10
-0.25
 20
-0.18
 30
0.0
 11
-0.29
 21
-0.18
 31
0.0
  0
LINE
  5
100
330
E1
100
AcDbEntity
  8
ASHADE
  6
Continuous
 62
     7
100
AcDbLine
 10
0.29
 20
-0.22
 30
0.0
 11
0.25
 21
-0.22
 31
0.0
  0
LINE
  5
101
330
E1
100
AcDbEntity
  8
ASHADE
  6
Continuous
 62
     7
100
AcDbLine
 10
0.25
 20
-0.18
 30
0.0
 11
0.29
 21
-0.18
 31
0.0
  0
LINE
  5
102
330
E1
100
AcDbEntity
  8
ASHADE
  6
Continuous
 62
     7
100
AcDbLine
 10
0.29
 20
0.18
 30
0.0
 11
0.25
 21
0.18
 31
0.0
  0
LINE
  5
103
330
E1
100
AcDbEntity
  8
ASHADE
  6
Continuous
 62
     7
100
AcDbLine
 10
0.25
 20
0.22
 30
0.0
 11
0.29
 21
0.22
 31
0.0
  0
LINE
  5
104
330
E1
100
AcDbEntity
  8
ASHADE
  6
Continuous
 62
     7
100
AcDbLine
 10
-0.29
 20
0.18
 30
0.0
 11
-0.25
 21
0.18
 31
0.0
  0
LINE
  5
105
330
E1
100
AcDbEntity
  8
ASHADE
  6
Continuous
 62
     7
100
AcDbLine
 10
-0.25
 20
0.22
 30
0.0
 11
-0.29
 21
0.22
 31
0.0
  0
ATTDEF
  5
106
330
E1
100
AcDbEntity
  8
ASHADE
  6
Continuous
 62
     7
 60
     1
100
AcDbText
 10
0.0
 20
-0.33
 30
0.0
 40
0.01
  1
0,0,0
100
AcDbAttributeDefinition
  3
Look-from XYZ
  2
LFXYZ
 70
     0
  0
ENDBLK
  5
108
330
E1
100
AcDbEntity
  8
0
100
AcDbBlockEnd
  0
ENDSEC
  0
SECTION
  2
ENTITIES
  0
INSERT
  5
78
330
1F
100
AcDbEntity
  8
0
 60
     1
100
AcDbBlockReference
 66
     1
  2
OVERHEAD
 10
140.289155034892
 20
104.404762691894
 30
-36.12170267016199
1001
AVE_RENDER
1002
{
1070
     0
1000
LIGHT_0
1011
141.289155034892
1021
104.404762691894
1031
-36.12170267016199
1041
1.0
1010
0.5019607843137255
1020
0.5019607843137255
1030
0.5019607843137255
1002
{
1070
     1
1070
     0
1040
0.0
1040
0.0
1040
3.0
1002
}
1002
{
1070
     9
1070
    21
1070
    15
1070
     0
1040
37.62
1040
122.37
1002
}
1002
}
1001
TCAD
1000
TCW_LIGTH
1002
{
1070
     1
1002
}
  0
ATTRIB
  5
7A
330
78
100
AcDbEntity
  8
ASHADE
  6
Continuous
 62
     1
420
 16711680
100
AcDbText
 10
139.7177264634634
 20
104.304762691894
 30
-36.12170267016199
 40
0.2
  1
LIGHT_0
  7
ASHADE
 72
     1
 11
140.289155034892
 21
104.304762691894
 31
-36.12170267016199
100
AcDbAttribute
  2
SNAME
 70
     0
  0
ATTRIB
  5
7B
330
78
100
AcDbEntity
  8
ASHADE
  6
Continuous
 62
     7
 60
     1
100
AcDbText
 10
140.289155034892
 20
104.404762691894
 30
0.0
 40
0.01
  1

100
AcDbAttribute
  2
GNAME
 70
     0
  0
ATTRIB
  5
7C
330
78
100
AcDbEntity
  8
ASHADE
  6
Continuous
 62
     7
 60
     1
100
AcDbText
 10
140.289155034892
 20
104.404762691894
 30
0.0
 40
0.01
  1

100
AcDbAttribute
  2
LAX
 70
     0
  0
ATTRIB
  5
7D
330
78
100
AcDbEntity
  8
ASHADE
  6
Continuous
 62
     7
 60
     1
100
AcDbText
 10
140.289155034892
 20
104.404762691894
 30
0.0
 40
0.01
  1

100
AcDbAttribute
  2
LAY
 70
     0
  0
ATTRIB
  5
7E
330
78
100
AcDbEntity
  8
ASHADE
  6
Continuous
 62
     7
 60
     1
100
AcDbText
 10
140.289155034892
 20
104.404762691894
 30
0.0
 40
0.01
  1

100
AcDbAttribute
  2
LAZ
 70
     0
  0
ATTRIB
  5
7F
330
78
100
AcDbEntity
  8
ASHADE
  6
Continuous
 62
     7
 60
     1
100
AcDbText
 10
140.289155034892
 20
104.404762691894
 30
0.0
 40
0.01
  1
1
100
AcDbAttribute
  2
INTENSITY
 70
     0
  0
ATTRIB
  5
80
330
78
100
AcDbEntity
  8
ASHADE
  6
Continuous
 62
     7
 60
     1
100
AcDbText
 10
140.289155034892
 20
104.404762691894
 30
0.0
 40
0.01
  1
1,1,1
100
AcDbAttribute
  2
COLOR
 70
     0
  0
ATTRIB
  5
81
330
78
100
AcDbEntity
  8
ASHADE
  6
Continuous
 62
     7
 60
     1
100
AcDbText
 10
140.289155034892
 20
104.404762691894
 30
0.0
 40
0.01
  1
0
100
AcDbAttribute
  2
CONEA
 70
     0
  0
ATTRIB
  5
82
330
78
100
AcDbEntity
  8
ASHADE
  6
Continuous
 62
     7
 60
     1
100
AcDbText
 10
140.289155034892
 20
104.404762691894
 30
0.0
 40
0.01
  1
-1
100
AcDbAttribute
  2
CONED
 70
     0
  0
ATTRIB
  5
83
330
78
100
AcDbEntity
  8
ASHADE
  6
Continuous
 62
     7
 60
     1
100
AcDbText
 10
140.289155034892
 20
104.404762691894
 30
0.0
 40
0.01
  1
-1
100
AcDbAttribute
  2
BEAMD
 70
     0
  0
SEQEND
  5
84
330
78
100
AcDbEntity
  8
0
 60
     1
  0
INSERT
  5
85
330
1F
100
AcDbEntity
  8
0
 60
     1
100
AcDbBlockReference
 66
     1
  2
OVERHEAD
 10
201.005648545175
 20
84.368727295769
 30
-36.84793505203402
1001
AVE_RENDER
1002
{
1070
     0
1000
LIGHT_1
1011
202.005648545175
1021
84.368727295769
1031
-36.84793505203402
1041
1.0
1010
0.5019607843137255
1020
0.5019607843137255
1030
0.5019607843137255
1002
{
1070
     1
1070
     0
1040
0.0
1040
0.0
1040
3.0
1002
}
1002
{
1070
     9
1070
    21
1070
    15
1070
     0
1040
37.62
1040
122.37
1002
}
1002
}
1001
TCAD
1000
TCW_LIGTH
1002
{
1070
     1
1002
}
  0
ATTRIB
  5
86
330
85
100
AcDbEntity
  8
ASHADE
  6
Continuous
 62
     1
420
 16711680
100
AcDbText
 10
200.4342199737464
 20
84.26872729576901
 30
-36.84793505203402
 40
0.2
  1
LIGHT_1
  7
ASHADE
 72
     1
 11
201.005648545175
 21
84.26872729576901
 31
-36.84793505203402
100
AcDbAttribute
  2
SNAME
 70
     0
  0
ATTRIB
  5
87
330
85
100
AcDbEntity
  8
ASHADE
  6
Continuous
 62
     7
 60
     1
100
AcDbText
 10
201.005648545175
 20
84.368727295769
 30
0.0
 40
0.01
  1

100
AcDbAttribute
  2
GNAME
 70
     0
  0
ATTRIB
  5
88
330
85
100
AcDbEntity
  8
ASHADE
  6
Continuous
 62
     7
 60
     1
100
AcDbText
 10
201.005648545175
 20
84.368727295769
 30
0.0
 40
0.01
  1

100
AcDbAttribute
  2
LAX
 70
     0
  0
ATTRIB
  5
89
330
85
100
AcDbEntity
  8
ASHADE
  6
Continuous
 62
     7
 60
     1
100
AcDbText
 10
201.005648545175
 20
84.368727295769
 30
0.0
 40
0.01
  1

100
AcDbAttribute
  2
LAY
 70
     0
  0
ATTRIB
  5
8A
330
85
100
AcDbEntity
  8
ASHADE
  6
Continuous
 62
     7
 60
     1
100
AcDbText
 10
201.005648545175
 20
84.368727295769
 30
0.0
 40
0.01
  1

100
AcDbAttribute
  2
LAZ
 70
     0
  0
ATTRIB
  5
8B
330
85
100
AcDbEntity
  8
ASHADE
  6
Continuous
 62
     7
 60
     1
100
AcDbText
 10
201.005648545175
 20
84.368727295769
 30
0.0
 40
0.01
  1
1
100
AcDbAttribute
  2
INTENSITY
 70
     0
  0
ATTRIB
  5
8C
330
85
100
AcDbEntity
  8
ASHADE
  6
Continuous
 62
     7
 60
     1
100
AcDbText
 10
201.005648545175
 20
84.368727295769
 30
0.0
 40
0.01
  1
1,1,1
100
AcDbAttribute
  2
COLOR
 70
     0
  0
ATTRIB
  5
8D
330
85
100
AcDbEntity
  8
ASHADE
  6
Continuous
 62
     7
 60
     1
100
AcDbText
 10
201.005648545175
 20
84.368727295769
 30
0.0
 40
0.01
  1
0
100
AcDbAttribute
  2
CONEA
 70
     0
  0
ATTRIB
  5
8E
330
85
100
AcDbEntity
  8
ASHADE
  6
Continuous
 62
     7
 60
     1
100
AcDbText
 10
201.005648545175
 20
84.368727295769
 30
0.0
 40
0.01
  1
-1
100
AcDbAttribute
  2
CONED
 70
     0
  0
ATTRIB
  5
8F
330
85
100
AcDbEntity
  8
ASHADE
  6
Continuous
 62
     7
 60
     1
100
AcDbText
 10
201.005648545175
 20
84.368727295769
 30
0.0
 40
0.01
  1
-1
100
AcDbAttribute
  2
BEAMD
 70
     0
  0
SEQEND
  5
90
330
85
100
AcDbEntity
  8
0
 60
     1
  0
INSERT
  5
91
330
1F
100
AcDbEntity
  8
0
 60
     1
100
AcDbBlockReference
 66
     1
  2
OVERHEAD
 10
113.055708172247
 20
16.653633484428
 30
107.999289129201
1001
AVE_RENDER
1002
{
1070
     0
1000
LIGHT_2
1011
114.055708172247
1021
16.653633484428
1031
107.999289129201
1041
1.0
1010
0.5019607843137255
1020
0.5019607843137255
1030
0.5019607843137255
1002
{
1070
     1
1070
     0
1040
0.0
1040
0.0
1040
3.0
1002
}
1002
{
1070
     9
1070
    21
1070
    15
1070
     0
1040
37.62
1040
122.37
1002
}
1002
}
1001
TCAD
1000
TCW_LIGTH
1002
{
1070
     1
1002
}
  0
ATTRIB
  5
92
330
91
100
AcDbEntity
  8
ASHADE
  6
Continuous
 62
     1
420
 16711680
100
AcDbText
 10
112.4842796008184
 20
16.553633484428
 30
107.999289129201
 40
0.2
  1
LIGHT_2
  7
ASHADE
 72
     1
 11
113.055708172247
 21
16.553633484428
 31
107.999289129201
100
AcDbAttribute
  2
SNAME
 70
     0
  0
ATTRIB
  5
93
330
91
100
AcDbEntity
  8
ASHADE
  6
Continuous
 62
     7
 60
     1
100
AcDbText
 10
113.055708172247
 20
16.653633484428
 30
0.0
 40
0.01
  1

100
AcDbAttribute
  2
GNAME
 70
     0
  0
ATTRIB
  5
94
330
91
100
AcDbEntity
  8
ASHADE
  6
Continuous
 62
     7
 60
     1
100
AcDbText
 10
113.055708172247
 20
16.653633484428
 30
0.0
 40
0.01
  1

100
AcDbAttribute
  2
LAX
 70
     0
  0
ATTRIB
  5
95
330
91
100
AcDbEntity
  8
ASHADE
  6
Continuous
 62
     7
 60
     1
100
AcDbText
 10
113.055708172247
 20
16.653633484428
 30
0.0
 40
0.01
  1

100
AcDbAttribute
  2
LAY
 70
     0
  0
ATTRIB
  5
96
330
91
100
AcDbEntity
  8
ASHADE
  6
Continuous
 62
     7
 60
     1
100
AcDbText
 10
113.055708172247
 20
16.653633484428
 30
0.0
 40
0.01
  1

100
AcDbAttribute
  2
LAZ
 70
     0
  0
ATTRIB
  5
97
330
91
100
AcDbEntity
  8
ASHADE
  6
Continuous
 62
     7
 60
     1
100
AcDbText
 10
113.055708172247
 20
16.653633484428
 30
0.0
 40
0.01
  1
1
100
AcDbAttribute
  2
INTENSITY
 70
     0
  0
ATTRIB
  5
98
330
91
100
AcDbEntity
  8
ASHADE
  6
Continuous
 62
     7
 60
     1
100
AcDbText
 10
113.055708172247
 20
16.653633484428
 30
0.0
 40
0.01
  1
1,1,1
100
AcDbAttribute
  2
COLOR
 70
     0
  0
ATTRIB
  5
99
330
91
100
AcDbEntity
  8
ASHADE
  6
Continuous
 62
     7
 60
     1
100
AcDbText
 10
113.055708172247
 20
16.653633484428
 30
0.0
 40
0.01
  1
0
100
AcDbAttribute
  2
CONEA
 70
     0
  0
ATTRIB
  5
9A
330
91
100
AcDbEntity
  8
ASHADE
  6
Continuous
 62
     7
 60
     1
100
AcDbText
 10
113.055708172247
 20
16.653633484428
 30
0.0
 40
0.01
  1
-1
100
AcDbAttribute
  2
CONED
 70
     0
  0
ATTRIB
  5
9B
330
91
100
AcDbEntity
  8
ASHADE
  6
Continuous
 62
     7
 60
     1
100
AcDbText
 10
113.055708172247
 20
16.653633484428
 30
0.0
 40
0.01
  1
-1
100
AcDbAttribute
  2
BEAMD
 70
     0
  0
SEQEND
  5
9C
330
91
100
AcDbEntity
  8
0
 60
     1
  0
INSERT
  5
9D
330
1F
100
AcDbEntity
  8
0
 60
     1
100
AcDbBlockReference
 66
     1
  2
OVERHEAD
 10
173.772201682529
 20
-3.382401911697
 30
107.273056747329
1001
AVE_RENDER
1002
{
1070
     0
1000
LIGHT_3
1011
174.772201682529
1021
-3.382401911697
1031
107.273056747329
1041
1.0
1010
0.5019607843137255
1020
0.5019607843137255
1030
0.5019607843137255
1002
{
1070
     1
1070
     0
1040
0.0
1040
0.0
1040
3.0
1002
}
1002
{
1070
     9
1070
    21
1070
    15
1070
     0
1040
37.62
1040
122.37
1002
}
1002
}
1001
TCAD
1000
TCW_LIGTH
1002
{
1070
     1
1002
}
  0
ATTRIB
  5
9E
330
9D
100
AcDbEntity
  8
ASHADE
  6
Continuous
 62
     1
420
 16711680
100
AcDbText
 10
173.2007731111004
 20
-3.482401911697
 30
107.273056747329
 40
0.2
  1
LIGHT_3
  7
ASHADE
 72
     1
 11
173.772201682529
 21
-3.482401911697
 31
107.273056747329
100
AcDbAttribute
  2
SNAME
 70
     0
  0
ATTRIB
  5
9F
330
9D
100
AcDbEntity
  8
ASHADE
  6
Continuous
 62
     7
 60
     1
100
AcDbText
 10
173.772201682529
 20
-3.382401911697
 30
0.0
 40
0.01
  1

100
AcDbAttribute
  2
GNAME
 70
     0
  0
ATTRIB
  5
A0
330
9D
100
AcDbEntity
  8
ASHADE
  6
Continuous
 62
     7
 60
     1
100
AcDbText
 10
173.772201682529
 20
-3.382401911697
 30
0.0
 40
0.01
  1

100
AcDbAttribute
  2
LAX
 70
     0
  0
ATTRIB
  5
A1
330
9D
100
AcDbEntity
  8
ASHADE
  6
Continuous
 62
     7
 60
     1
100
AcDbText
 10
173.772201682529
 20
-3.382401911697
 30
0.0
 40
0.01
  1

100
AcDbAttribute
  2
LAY
 70
     0
  0
ATTRIB
  5
A2
330
9D
100
AcDbEntity
  8
ASHADE
  6
Continuous
 62
     7
 60
     1
100
AcDbText
 10
173.772201682529
 20
-3.382401911697
 30
0.0
 40
0.01
  1

100
AcDbAttribute
  2
LAZ
 70
     0
  0
ATTRIB
  5
A3
330
9D
100
AcDbEntity
  8
ASHADE
  6
Continuous
 62
     7
 60
     1
100
AcDbText
 10
173.772201682529
 20
-3.382401911697
 30
0.0
 40
0.01
  1
1
100
AcDbAttribute
  2
INTENSITY
 70
     0
  0
ATTRIB
  5
A4
330
9D
100
AcDbEntity
  8
ASHADE
  6
Continuous
 62
     7
 60
     1
100
AcDbText
 10
173.772201682529
 20
-3.382401911697
 30
0.0
 40
0.01
  1
1,1,1
100
AcDbAttribute
  2
COLOR
 70
     0
  0
ATTRIB
  5
A5
330
9D
100
AcDbEntity
  8
ASHADE
  6
Continuous
 62
     7
 60
     1
100
AcDbText
 10
173.772201682529
 20
-3.382401911697
 30
0.0
 40
0.01
  1
0
100
AcDbAttribute
  2
CONEA
 70
     0
  0
ATTRIB
  5
A6
330
9D
100
AcDbEntity
  8
ASHADE
  6
Continuous
 62
     7
 60
     1
100
AcDbText
 10
173.772201682529
 20
-3.382401911697
 30
0.0
 40
0.01
  1
-1
100
AcDbAttribute
  2
CONED
 70
     0
  0
ATTRIB
  5
A7
330
9D
100
AcDbEntity
  8
ASHADE
  6
Continuous
 62
     7
 60
     1
100
AcDbText
 10
173.772201682529
 20
-3.382401911697
 30
0.0
 40
0.01
  1
-1
100
AcDbAttribute
  2
BEAMD
 70
     0
  0
SEQEND
  5
A8
330
9D
100
AcDbEntity
  8
0
 60
     1
  0
INSERT
  5
A9
330
1F
100
AcDbEntity
  8
0
 60
     1
100
AcDbBlockReference
 66
     1
  2
OVERHEAD
 10
0.0
 20
0.0
 30
0.0
1001
AVE_RENDER
1002
{
1070
     0
1000
LIGHT_4
1011
1.0
1021
0.0
1031
0.0
1041
1.0
1010
0.5019607843137255
1020
0.5019607843137255
1030
0.5019607843137255
1002
{
1070
     1
1070
     0
1040
0.0
1040
0.0
1040
3.0
1002
}
1002
{
1070
     9
1070
    21
1070
    15
1070
     0
1040
37.62
1040
122.37
1002
}
1002
}
1001
TCAD
1000
TCW_LIGTH
1002
{
1070
     1
1002
}
  0
ATTRIB
  5
AA
330
A9
100
AcDbEntity
  8
ASHADE
  6
Continuous
 62
     1
420
 16711680
100
AcDbText
 10
-0.5714285714285715
 20
-0.1
 30
0.0
 40
0.2
  1
LIGHT_4
  7
ASHADE
 72
     1
 11
0.0
 21
-0.1
 31
0.0
100
AcDbAttribute
  2
SNAME
 70
     0
  0
ATTRIB
  5
AB
330
A9
100
AcDbEntity
  8
ASHADE
  6
Continuous
 62
     7
 60
     1
100
AcDbText
 10
0.0
 20
0.0
 30
0.0
 40
0.01
  1

100
AcDbAttribute
  2
GNAME
 70
     0
  0
ATTRIB
  5
AC
330
A9
100
AcDbEntity
  8
ASHADE
  6
Continuous
 62
     7
 60
     1
100
AcDbText
 10
0.0
 20
0.0
 30
0.0
 40
0.01
  1

100
AcDbAttribute
  2
LAX
 70
     0
  0
ATTRIB
  5
AD
330
A9
100
AcDbEntity
  8
ASHADE
  6
Continuous
 62
     7
 60
     1
100
AcDbText
 10
0.0
 20
0.0
 30
0.0
 40
0.01
  1

100
AcDbAttribute
  2
LAY
 70
     0
  0
ATTRIB
  5
AE
330
A9
100
AcDbEntity
  8
ASHADE
  6
Continuous
 62
     7
 60
     1
100
AcDbText
 10
0.0
 20
0.0
 30
0.0
 40
0.01
  1

100
AcDbAttribute
  2
LAZ
 70
     0
  0
ATTRIB
  5
AF
330
A9
100
AcDbEntity
  8
ASHADE
  6
Continuous
 62
     7
 60
     1
100
AcDbText
 10
0.0
 20
0.0
 30
0.0
 40
0.01
  1
1
100
AcDbAttribute
  2
INTENSITY
 70
     0
  0
ATTRIB
  5
B0
330
A9
100
AcDbEntity
  8
ASHADE
  6
Continuous
 62
     7
 60
     1
100
AcDbText
 10
0.0
 20
0.0
 30
0.0
 40
0.01
  1
1,1,1
100
AcDbAttribute
  2
COLOR
 70
     0
  0
ATTRIB
  5
B1
330
A9
100
AcDbEntity
  8
ASHADE
  6
Continuous
 62
     7
 60
     1
100
AcDbText
 10
0.0
 20
0.0
 30
0.0
 40
0.01
  1
0
100
AcDbAttribute
  2
CONEA
 70
     0
  0
ATTRIB
  5
B2
330
A9
100
AcDbEntity
  8
ASHADE
  6
Continuous
 62
     7
 60
     1
100
AcDbText
 10
0.0
 20
0.0
 30
0.0
 40
0.01
  1
-1
100
AcDbAttribute
  2
CONED
 70
     0
  0
ATTRIB
  5
B3
330
A9
100
AcDbEntity
  8
ASHADE
  6
Continuous
 62
     7
 60
     1
100
AcDbText
 10
0.0
 20
0.0
 30
0.0
 40
0.01
  1
-1
100
AcDbAttribute
  2
BEAMD
 70
     0
  0
SEQEND
  5
B4
330
A9
100
AcDbEntity
  8
0
 60
     1
  0
INSERT
  5
B5
330
1F
100
AcDbEntity
  8
0
 60
     1
100
AcDbBlockReference
 66
     1
  2
OVERHEAD
 10
0.0
 20
0.0
 30
0.0
1001
AVE_RENDER
1002
{
1070
     0
1000
LIGHT_5
1011
1.0
1021
0.0
1031
0.0
1041
1.0
1010
0.2509803921568627
1020
0.2509803921568627
1030
0.2509803921568627
1002
{
1070
     1
1070
     0
1040
0.0
1040
0.0
1040
3.0
1002
}
1002
{
1070
     9
1070
    21
1070
    15
1070
     0
1040
37.62
1040
122.37
1002
}
1002
}
1001
TCAD
1000
TCW_LIGTH
1002
{
1070
     1
1002
}
  0
ATTRIB
  5
B6
330
B5
100
AcDbEntity
  8
ASHADE
  6
Continuous
 62
     1
420
 16711680
100
AcDbText
 10
-0.5714285714285715
 20
-0.1
 30
0.0
 40
0.2
  1
LIGHT_5
  7
ASHADE
 72
     1
 11
0.0
 21
-0.1
 31
0.0
100
AcDbAttribute
  2
SNAME
 70
     0
  0
ATTRIB
  5
B7
330
B5
100
AcDbEntity
  8
ASHADE
  6
Continuous
 62
     7
 60
     1
100
AcDbText
 10
0.0
 20
0.0
 30
0.0
 40
0.01
  1

100
AcDbAttribute
  2
GNAME
 70
     0
  0
ATTRIB
  5
B8
330
B5
100
AcDbEntity
  8
ASHADE
  6
Continuous
 62
     7
 60
     1
100
AcDbText
 10
0.0
 20
0.0
 30
0.0
 40
0.01
  1

100
AcDbAttribute
  2
LAX
 70
     0
  0
ATTRIB
  5
B9
330
B5
100
AcDbEntity
  8
ASHADE
  6
Continuous
 62
     7
 60
     1
100
AcDbText
 10
0.0
 20
0.0
 30
0.0
 40
0.01
  1

100
AcDbAttribute
  2
LAY
 70
     0
  0
ATTRIB
  5
BA
330
B5
100
AcDbEntity
  8
ASHADE
  6
Continuous
 62
     7
 60
     1
100
AcDbText
 10
0.0
 20
0.0
 30
0.0
 40
0.01
  1

100
AcDbAttribute
  2
LAZ
 70
     0
  0
ATTRIB
  5
BB
330
B5
100
AcDbEntity
  8
ASHADE
  6
Continuous
 62
     7
 60
     1
100
AcDbText
 10
0.0
 20
0.0
 30
0.0
 40
0.01
  1
1
100
AcDbAttribute
  2
INTENSITY
 70
     0
  0
ATTRIB
  5
BC
330
B5
100
AcDbEntity
  8
ASHADE
  6
Continuous
 62
     7
 60
     1
100
AcDbText
 10
0.0
 20
0.0
 30
0.0
 40
0.01
  1
1,1,1
100
AcDbAttribute
  2
COLOR
 70
     0
  0
ATTRIB
  5
BD
330
B5
100
AcDbEntity
  8
ASHADE
  6
Continuous
 62
     7
 60
     1
100
AcDbText
 10
0.0
 20
0.0
 30
0.0
 40
0.01
  1
0
100
AcDbAttribute
  2
CONEA
 70
     0
  0
ATTRIB
  5
BE
330
B5
100
AcDbEntity
  8
ASHADE
  6
Continuous
 62
     7
 60
     1
100
AcDbText
 10
0.0
 20
0.0
 30
0.0
 40
0.01
  1
-1
100
AcDbAttribute
  2
CONED
 70
     0
  0
ATTRIB
  5
BF
330
B5
100
AcDbEntity
  8
ASHADE
  6
Continuous
 62
     7
 60
     1
100
AcDbText
 10
0.0
 20
0.0
 30
0.0
 40
0.01
  1
-1
100
AcDbAttribute
  2
BEAMD
 70
     0
  0
SEQEND
  5
C0
330
B5
100
AcDbEntity
  8
0
 60
     1
  0
INSERT
  5
D5
330
1F
100
AcDbEntity
  8
0
 60
     1
100
AcDbBlockReference
 66
     1
  2
DIRECT
 10
368.8062712708579
 20
914.207709937714
 30
659.7339691407237
 41
0.9999999999999999
 42
0.9999999999999998
 43
0.9999999999999998
 50
0.0000000000000127
210
-0.3009239042821715
220
-0.2148675255087683
230
0.9291268752507987
1001
AVE_RENDER
1002
{
1070
     0
1000
LIGHT_6
1011
891.5501056819228
1021
183.4183406607621
1031
1041.228467893875
1041
1.0
1010
0.5019607843137255
1020
0.5019607843137255
1030
0.5019607843137255
1002
{
1070
     1
1070
     0
1040
0.0
1040
0.0
1040
3.0
1002
}
1002
{
1070
     9
1070
    21
1070
    15
1070
     0
1040
37.62
1040
122.37
1002
}
1002
}
1001
TCAD
1000
TCW_LIGTH
1002
{
1070
     0
1002
}
  0
ATTRIB
  5
D6
330
D5
100
AcDbEntity
  8
ASHADE
  6
Continuous
 62
     1
420
 16711680
100
AcDbText
 10
368.2348426994292
 20
914.1077099377137
 30
659.7339691407238
 40
0.2
  1
LIGHT_6
 50
0.0000000000000127
  7
ASHADE
 72
     1
 11
368.8062712708577
 21
914.1077099377137
 31
659.7339691407238
210
-0.3009239042821715
220
-0.2148675255087683
230
0.9291268752507987
100
AcDbAttribute
  2
SNAME
 70
     0
  0
ATTRIB
  5
D7
330
D5
100
AcDbEntity
  8
ASHADE
  6
Continuous
 62
     7
 60
     1
100
AcDbText
 10
368.8062712708578
 20
914.2077099377137
 30
0.0
 40
0.01
  1

 50
0.0000000000000127
210
-0.3009239042821715
220
-0.2148675255087683
230
0.9291268752507987
100
AcDbAttribute
  2
GNAME
 70
     0
  0
ATTRIB
  5
D8
330
D5
100
AcDbEntity
  8
ASHADE
  6
Continuous
 62
     7
 60
     1
100
AcDbText
 10
368.8062712708578
 20
914.2077099377137
 30
0.0
 40
0.01
  1

 50
0.0000000000000127
210
-0.3009239042821715
220
-0.2148675255087683
230
0.9291268752507987
100
AcDbAttribute
  2
LAX
 70
     0
  0
ATTRIB
  5
D9
330
D5
100
AcDbEntity
  8
ASHADE
  6
Continuous
 62
     7
 60
     1
100
AcDbText
 10
368.8062712708578
 20
914.2077099377137
 30
0.0
 40
0.01
  1

 50
0.0000000000000127
210
-0.3009239042821715
220
-0.2148675255087683
230
0.9291268752507987
100
AcDbAttribute
  2
LAY
 70
     0
  0
ATTRIB
  5
DA
330
D5
100
AcDbEntity
  8
ASHADE
  6
Continuous
 62
     7
 60
     1
100
AcDbText
 10
368.8062712708578
 20
914.2077099377137
 30
0.0
 40
0.01
  1

 50
0.0000000000000127
210
-0.3009239042821715
220
-0.2148675255087683
230
0.9291268752507987
100
AcDbAttribute
  2
LAZ
 70
     0
  0
ATTRIB
  5
DB
330
D5
100
AcDbEntity
  8
ASHADE
  6
Continuous
 62
     7
 60
     1
100
AcDbText
 10
368.8062712708578
 20
914.2077099377137
 30
0.0
 40
0.01
  1
1
 50
0.0000000000000127
210
-0.3009239042821715
220
-0.2148675255087683
230
0.9291268752507987
100
AcDbAttribute
  2
INTENSITY
 70
     0
  0
ATTRIB
  5
DC
330
D5
100
AcDbEntity
  8
ASHADE
  6
Continuous
 62
     7
 60
     1
100
AcDbText
 10
368.8062712708578
 20
914.2077099377137
 30
0.0
 40
0.01
  1
1,1,1
 50
0.0000000000000127
210
-0.3009239042821715
220
-0.2148675255087683
230
0.9291268752507987
100
AcDbAttribute
  2
COLOR
 70
     0
  0
ATTRIB
  5
DD
330
D5
100
AcDbEntity
  8
ASHADE
  6
Continuous
 62
     7
 60
     1
100
AcDbText
 10
368.8062712708578
 20
914.2077099377137
 30
0.0
 40
0.01
  1
0
 50
0.0000000000000127
210
-0.3009239042821715
220
-0.2148675255087683
230
0.9291268752507987
100
AcDbAttribute
  2
CONEA
 70
     0
  0
ATTRIB
  5
DE
330
D5
100
AcDbEntity
  8
ASHADE
  6
Continuous
 62
     7
 60
     1
100
AcDbText
 10
368.8062712708578
 20
914.2077099377137
 30
0.0
 40
0.01
  1
-1
 50
0.0000000000000127
210
-0.3009239042821715
220
-0.2148675255087683
230
0.9291268752507987
100
AcDbAttribute
  2
CONED
 70
     0
  0
ATTRIB
  5
DF
330
D5
100
AcDbEntity
  8
ASHADE
  6
Continuous
 62
     7
 60
     1
100
AcDbText
 10
368.8062712708578
 20
914.2077099377137
 30
0.0
 40
0.01
  1
-1
 50
0.0000000000000127
210
-0.3009239042821715
220
-0.2148675255087683
230
0.9291268752507987
100
AcDbAttribute
  2
BEAMD
 70
     0
  0
SEQEND
  5
E0
330
D5
100
AcDbEntity
  8
0
 60
     1
  0
INSERT
  5
109
330
1F
100
AcDbEntity
  8
0
 60
     1
100
AcDbBlockReference
 66
     1
  2
SH_SPOT
 10
64.93939127354997
 20
229.7637626846899
 30
50.16617519274438
 43
0.9999999999999999
210
-0.1090219380841554
220
-0.1404222275660837
230
0.9840710416538806
1001
AVE_RENDER
1002
{
1070
     0
1000
LIGHT_7
1011
370.451023378601
1021
371.254772490983
1031
144.995513367263
1041
1.0
1010
0.5019607843137255
1020
0.5019607843137255
1030
0.5019607843137255
1002
{
1070
     1
1070
     0
1040
0.0
1040
0.0
1040
3.0
1002
}
1002
{
1070
     9
1070
    21
1070
    15
1070
     0
1040
37.62
1040
122.37
1002
}
1002
}
1001
TCAD
1000
TCW_LIGTH
1002
{
1070
     0
1002
}
  0
ATTRIB
  5
10A
330
109
100
AcDbEntity
  8
ASHADE
  6
Continuous
 62
     1
420
 16711680
100
AcDbText
 10
-90.11942751734891
 20
226.6266108709984
 30
10.03736483567474
 40
0.2
  1
LIGHT_7
  7
ASHADE
 72
     1
 11
-89.54799894592034
 21
226.6266108709984
 31
10.03736483567474
210
-0.1090219380841554
220
-0.1404222275660837
230
0.9840710416538806
100
AcDbAttribute
  2
SNAME
 70
     0
  0
ATTRIB
  5
10B
330
109
100
AcDbEntity
  8
ASHADE
  6
Continuous
 62
     7
 60
     1
100
AcDbText
 10
-89.60932451693449
 20
226.704341111702
 30
0.0
 40
0.01
  1

210
-0.1090219380841554
220
-0.1404222275660837
230
0.9840710416538806
100
AcDbAttribute
  2
GNAME
 70
     0
  0
ATTRIB
  5
10C
330
109
100
AcDbEntity
  8
ASHADE
  6
Continuous
 62
     7
 60
     1
100
AcDbText
 10
-89.60932451693449
 20
226.704341111702
 30
0.0
 40
0.01
  1

210
-0.1090219380841554
220
-0.1404222275660837
230
0.9840710416538806
100
AcDbAttribute
  2
LAX
 70
     0
  0
ATTRIB
  5
10D
330
109
100
AcDbEntity
  8
ASHADE
  6
Continuous
 62
     7
 60
     1
100
AcDbText
 10
-89.60932451693449
 20
226.704341111702
 30
0.0
 40
0.01
  1

210
-0.1090219380841554
220
-0.1404222275660837
230
0.9840710416538806
100
AcDbAttribute
  2
LAY
 70
     0
  0
ATTRIB
  5
10E
330
109
100
AcDbEntity
  8
ASHADE
  6
Continuous
 62
     7
 60
     1
100
AcDbText
 10
-89.60932451693449
 20
226.704341111702
 30
0.0
 40
0.01
  1

210
-0.1090219380841554
220
-0.1404222275660837
230
0.9840710416538806
100
AcDbAttribute
  2
LAZ
 70
     0
  0
ATTRIB
  5
10F
330
109
100
AcDbEntity
  8
ASHADE
  6
Continuous
 62
     7
 60
     1
100
AcDbText
 10
-89.60932451693449
 20
226.704341111702
 30
0.0
 40
0.01
  1
1
210
-0.1090219380841554
220
-0.1404222275660837
230
0.9840710416538806
100
AcDbAttribute
  2
INTENSITY
 70
     0
  0
ATTRIB
  5
110
330
109
100
AcDbEntity
  8
ASHADE
  6
Continuous
 62
     7
 60
     1
100
AcDbText
 10
-89.60932451693449
 20
226.704341111702
 30
0.0
 40
0.01
  1
1,1,1
210
-0.1090219380841554
220
-0.1404222275660837
230
0.9840710416538806
100
AcDbAttribute
  2
COLOR
 70
     0
  0
ATTRIB
  5
111
330
109
100
AcDbEntity
  8
ASHADE
  6
Continuous
 62
     7
 60
     1
100
AcDbText
 10
-89.60932451693449
 20
226.704341111702
 30
0.0
 40
0.01
  1
0
210
-0.1090219380841554
220
-0.1404222275660837
230
0.9840710416538806
100
AcDbAttribute
  2
ZSIZE
 70
     0
  0
ATTRIB
  5
112
330
109
100
AcDbEntity
  8
ASHADE
  6
Continuous
 62
     7
 60
     1
100
AcDbText
 10
-89.60932451693449
 20
226.704341111702
 30
0.0
 40
0.01
  1
-1
210
-0.1090219380841554
220
-0.1404222275660837
230
0.9840710416538806
100
AcDbAttribute
  2
BIASMIN
 70
     0
  0
ATTRIB
  5
113
330
109
100
AcDbEntity
  8
ASHADE
  6
Continuous
 62
     7
 60
     1
100
AcDbText
 10
-89.60932451693449
 20
226.704341111702
 30
0.0
 40
0.01
  1
-1
210
-0.1090219380841554
220
-0.1404222275660837
230
0.9840710416538806
100
AcDbAttribute
  2
BIASMAX
 70
     0
  0
ATTRIB
  5
114
330
109
100
AcDbEntity
  8
ASHADE
  6
Continuous
 62
     7
 60
     1
100
AcDbText
 10
-89.60932451693449
 20
226.704341111702
 30
0.0
 40
0.01
  1
10.0
210
-0.1090219380841554
220
-0.1404222275660837
230
0.9840710416538806
100
AcDbAttribute
  2
CONEAN
 70
     0
  0
ATTRIB
  5
115
330
109
100
AcDbEntity
  8
ASHADE
  6
Continuous
 62
     7
 60
     1
100
AcDbText
 10
-89.60932451693449
 20
226.704341111702
 30
0.0
 40
0.01
  1
0.0
210
-0.1090219380841554
220
-0.1404222275660837
230
0.9840710416538806
100
AcDbAttribute
  2
CONEDE
 70
     0
  0
ATTRIB
  5
116
330
109
100
AcDbEntity
  8
ASHADE
  6
Continuous
 62
     7
 60
     1
100
AcDbText
 10
-89.60932451693449
 20
226.704341111702
 30
0.0
 40
0.01
  1
0.0
210
-0.1090219380841554
220
-0.1404222275660837
230
0.9840710416538806
100
AcDbAttribute
  2
BEAMDI
 70
     0
  0
ATTRIB
  5
117
330
109
100
AcDbEntity
  8
ASHADE
  6
Continuous
 62
     7
 60
     1
100
AcDbText
 10
-89.60932451693449
 20
226.704341111702
 30
0.0
 40
0.01
  1
0,0,0
210
-0.1090219380841554
220
-0.1404222275660837
230
0.9840710416538806
100
AcDbAttribute
  2
LFXYZ
 70
     0
  0
SEQEND
  5
118
330
109
100
AcDbEntity
  8
0
 60
     1
  0
LINE
  5
11B
102
{ACAD_XDICTIONARY
360
119
102
}
330
1F
100
AcDbEntity
  8
Main lines
  6
DASHED
100
AcDbLine
 10
64.674064292217
 20
104.169051245997
 30
10.074553569634
 11
85.874064292217
 21
104.169051245997
 31
10.074553569634
210
0.0
220
-1.0
230
0.0
  0
LINE
  5
11E
102
{ACAD_XDICTIONARY
360
11C
102
}
330
1F
100
AcDbEntity
  8
Main lines
  6
DASHED
100
AcDbLine
 10
64.674064292217
 20
104.169051245997
 30
22.074553569634
 11
64.674064292217
 21
104.169051245997
 31
10.074553569634
210
0.0
220
-1.0
230
0.0
  0
LINE
  5
121
102
{ACAD_XDICTIONARY
360
11F
102
}
330
1F
100
AcDbEntity
  8
Main lines
  6
DASHED
100
AcDbLine
 10
85.874064292217
 20
104.169051245999
 30
22.074553569634
 11
64.674064292217
 21
104.169051245999
 31
22.074553569634
210
0.0
220
-1.0
230
0.0
  0
LINE
  5
124
102
{ACAD_XDICTIONARY
360
122
102
}
330
1F
100
AcDbEntity
  8
Main lines
100
AcDbLine
 10
2.099052292217
 20
104.169051245994
 30
22.765536569634
 11
1.874538292217
 21
104.169051245994
 31
22.074553569634
210
0.0
220
-1.0
230
0.0
  0
LINE
  5
127
102
{ACAD_XDICTIONARY
360
125
102
}
330
1F
100
AcDbEntity
  8
Main lines
100
AcDbLine
 10
1.874538292217
 20
104.169051245994
 30
22.074553569634
 11
0.996128292217
 21
104.169051245994
 31
19.371087569634
210
0.0
220
-1.0
230
0.0
  0
LINE
  5
12A
102
{ACAD_XDICTIONARY
360
128
102
}
330
1F
100
AcDbEntity
  8
Main lines
100
AcDbLine
 10
64.874064292217
 20
104.169051245997
 30
47.074553569634
 11
72.874064292217
 21
104.169051245997
 31
47.074553569634
210
0.0
220
-1.0
230
0.0
  0
LINE
  5
12D
102
{ACAD_XDICTIONARY
360
12B
102
}
330
1F
100
AcDbEntity
  8
Main lines
100
AcDbLine
 10
62.971951292217
 20
104.169051245997
 30
45.692587569634
 11
74.776178292217
 21
104.169051245997
 31
45.692587569634
210
0.0
220
-1.0
230
0.0
  0
LINE
  5
130
102
{ACAD_XDICTIONARY
360
12E
102
}
330
1F
100
AcDbEntity
  8
Main lines
100
AcDbLine
 10
85.874064292217
 20
104.169051245999
 30
22.074553569634
 11
85.874064292217
 21
104.169051245999
 31
10.074553569634
210
0.0
220
-1.0
230
0.0
  0
LINE
  5
133
102
{ACAD_XDICTIONARY
360
131
102
}
330
1F
100
AcDbEntity
  8
Main lines
100
AcDbLine
 10
82.874064292217
 20
104.169051245998
 30
8.074553569634
 11
82.874064292217
 21
104.169051245998
 31
24.074553569634
210
0.0
220
-1.0
230
0.0
  0
LINE
  5
136
102
{ACAD_XDICTIONARY
360
134
102
}
330
1F
100
AcDbEntity
  8
Main lines
100
AcDbLine
 10
81.874064292217
 20
104.169051245998
 30
11.574553569634
 11
81.874064292217
 21
104.169051245998
 31
20.574553569634
210
0.0
220
-1.0
230
0.0
  0
LINE
  5
139
102
{ACAD_XDICTIONARY
360
137
102
}
330
1F
100
AcDbEntity
  8
Main lines
100
AcDbLine
 10
74.874064292217
 20
104.169051245998
 30
11.574553569634
 11
74.874064292217
 21
104.169051245998
 31
45.074553569634
210
0.0
220
-1.0
230
0.0
  0
LINE
  5
13C
102
{ACAD_XDICTIONARY
360
13A
102
}
330
1F
100
AcDbEntity
  8
Main lines
100
AcDbLine
 10
71.570143292217
 20
104.169051245998
 30
33.270631569634
 11
71.570143292217
 21
104.169051245998
 31
40.878475569634
210
0.0
220
-1.0
230
0.0
  0
LINE
  5
13F
102
{ACAD_XDICTIONARY
360
13D
102
}
330
1F
100
AcDbEntity
  8
Main lines
100
AcDbLine
 10
74.874064292217
 20
104.169051245998
 30
24.074553569634
 11
83.874064292217
 21
104.169051245998
 31
24.074553569634
210
0.0
220
-1.0
230
0.0
  0
LINE
  5
142
102
{ACAD_XDICTIONARY
360
140
102
}
330
1F
100
AcDbEntity
  8
Main lines
100
AcDbLine
 10
63.536049292217
 20
104.169051245997
 30
20.293845569634
 11
62.874064292217
 21
104.169051245997
 31
19.371087569634
210
0.0
220
-1.0
230
0.0
  0
LINE
  5
145
102
{ACAD_XDICTIONARY
360
143
102
}
330
1F
100
AcDbEntity
  8
Main lines
100
AcDbLine
 10
64.329815292217
 20
104.169051245997
 30
21.089989569634
 11
63.536049292217
 21
104.169051245997
 31
20.293845569634
210
0.0
220
-1.0
230
0.0
  0
LINE
  5
148
102
{ACAD_XDICTIONARY
360
146
102
}
330
1F
100
AcDbEntity
  8
Main lines
100
AcDbLine
 10
65.230875292217
 20
104.169051245997
 30
21.742755569634
 11
64.329815292217
 21
104.169051245997
 31
21.089989569634
210
0.0
220
-1.0
230
0.0
  0
LINE
  5
14B
102
{ACAD_XDICTIONARY
360
149
102
}
330
1F
100
AcDbEntity
  8
Main lines
100
AcDbLine
 10
66.214150292217
 20
104.169051245997
 30
22.240469569634
 11
65.230875292217
 21
104.169051245997
 31
21.742755569634
210
0.0
220
-1.0
230
0.0
  0
LINE
  5
14E
102
{ACAD_XDICTIONARY
360
14C
102
}
330
1F
100
AcDbEntity
  8
Main lines
100
AcDbLine
 10
67.255508292217
 20
104.169051245998
 30
22.575829569634
 11
66.214150292217
 21
104.169051245998
 31
22.240469569634
210
0.0
220
-1.0
230
0.0
  0
LINE
  5
151
102
{ACAD_XDICTIONARY
360
14F
102
}
330
1F
100
AcDbEntity
  8
Main lines
100
AcDbLine
 10
68.331071292217
 20
104.169051245998
 30
22.744424569634
 11
67.255508292217
 21
104.169051245998
 31
22.575829569634
210
0.0
220
-1.0
230
0.0
  0
LINE
  5
154
102
{ACAD_XDICTIONARY
360
152
102
}
330
1F
100
AcDbEntity
  8
Main lines
100
AcDbLine
 10
69.418028292217
 20
104.169051245998
 30
22.744345569634
 11
68.331071292217
 21
104.169051245998
 31
22.744424569634
210
0.0
220
-1.0
230
0.0
  0
LINE
  5
157
102
{ACAD_XDICTIONARY
360
155
102
}
330
1F
100
AcDbEntity
  8
Main lines
100
AcDbLine
 10
70.493606292217
 20
104.169051245998
 30
22.575583569634
 11
69.418028292217
 21
104.169051245998
 31
22.744345569634
210
0.0
220
-1.0
230
0.0
  0
LINE
  5
15A
102
{ACAD_XDICTIONARY
360
158
102
}
330
1F
100
AcDbEntity
  8
Main lines
100
AcDbLine
 10
71.534574292217
 20
104.169051245998
 30
22.240209569634
 11
70.493606292217
 21
104.169051245998
 31
22.575583569634
210
0.0
220
-1.0
230
0.0
  0
LINE
  5
15D
102
{ACAD_XDICTIONARY
360
15B
102
}
330
1F
100
AcDbEntity
  8
Main lines
100
AcDbLine
 10
72.517492292217
 20
104.169051245998
 30
21.742593569634
 11
71.534574292217
 21
104.169051245998
 31
22.240209569634
210
0.0
220
-1.0
230
0.0
  0
LINE
  5
160
102
{ACAD_XDICTIONARY
360
15E
102
}
330
1F
100
AcDbEntity
  8
Main lines
100
AcDbLine
 10
73.418357292217
 20
104.169051245998
 30
21.089939569634
 11
72.517492292217
 21
104.169051245998
 31
21.742593569634
210
0.0
220
-1.0
230
0.0
  0
LINE
  5
163
102
{ACAD_XDICTIONARY
360
161
102
}
330
1F
100
AcDbEntity
  8
Main lines
100
AcDbLine
 10
74.212175292217
 20
104.169051245998
 30
20.293726569634
 11
73.418357292217
 21
104.169051245998
 31
21.089939569634
210
0.0
220
-1.0
230
0.0
  0
LINE
  5
166
102
{ACAD_XDICTIONARY
360
164
102
}
330
1F
100
AcDbEntity
  8
Main lines
100
AcDbLine
 10
74.874064292217
 20
104.169051245998
 30
19.371087569634
 11
74.212175292217
 21
104.169051245998
 31
20.293726569634
210
0.0
220
-1.0
230
0.0
  0
LINE
  5
169
102
{ACAD_XDICTIONARY
360
167
102
}
330
1F
100
AcDbEntity
  8
Main lines
100
AcDbLine
 10
74.874064292217
 20
104.169051245998
 30
20.574553569634
 11
82.874064292217
 21
104.169051245998
 31
20.574553569634
210
0.0
220
-1.0
230
0.0
  0
LINE
  5
16C
102
{ACAD_XDICTIONARY
360
16A
102
}
330
1F
100
AcDbEntity
  8
Main lines
100
AcDbLine
 10
85.874064292217
 20
104.169051245999
 30
19.490056569634
 11
82.874064292217
 21
104.169051245999
 31
19.490056569634
210
0.0
220
-1.0
230
0.0
  0
LINE
  5
16F
102
{ACAD_XDICTIONARY
360
16D
102
}
330
1F
100
AcDbEntity
  8
Main lines
100
AcDbLine
 10
66.177986292217
 20
104.169051245997
 30
40.878475569634
 11
66.177986292217
 21
104.169051245997
 31
33.270631569634
210
0.0
220
-1.0
230
0.0
  0
LINE
  5
172
102
{ACAD_XDICTIONARY
360
170
102
}
330
1F
100
AcDbEntity
  8
Main lines
100
AcDbLine
 10
85.874064292217
 20
104.169051245999
 30
17.610671569634
 11
82.874064292217
 21
104.169051245999
 31
17.610671569634
210
0.0
220
-1.0
230
0.0
  0
LINE
  5
175
102
{ACAD_XDICTIONARY
360
173
102
}
330
1F
100
AcDbEntity
  8
Main lines
100
AcDbLine
 10
62.874064292217
 20
104.169051245997
 30
8.074553569634
 11
62.874064292217
 21
104.169051245997
 31
45.074553569634
210
0.0
220
-1.0
230
0.0
  0
LINE
  5
178
102
{ACAD_XDICTIONARY
360
176
102
}
330
1F
100
AcDbEntity
  8
Main lines
100
AcDbLine
 10
85.874064292217
 20
104.169051245999
 30
13.336852569634
 11
82.874064292217
 21
104.169051245999
 31
13.336852569634
210
0.0
220
-1.0
230
0.0
  0
LINE
  5
17B
102
{ACAD_XDICTIONARY
360
179
102
}
330
1F
100
AcDbEntity
  8
Main lines
100
AcDbLine
 10
82.874064292217
 20
104.169051245998
 30
11.574553569634
 11
74.874064292217
 21
104.169051245998
 31
11.574553569634
210
0.0
220
-1.0
230
0.0
  0
LINE
  5
17E
102
{ACAD_XDICTIONARY
360
17C
102
}
330
1F
100
AcDbEntity
  8
Main lines
100
AcDbLine
 10
85.874064292217
 20
104.169051245999
 30
11.405001569634
 11
82.874064292217
 21
104.169051245999
 31
11.405001569634
210
0.0
220
-1.0
230
0.0
  0
LINE
  5
181
102
{ACAD_XDICTIONARY
360
17F
102
}
330
1F
100
AcDbEntity
  8
Main lines
100
AcDbLine
 10
62.874064292217
 20
104.169051245997
 30
8.074553569634
 11
83.874064292217
 21
104.169051245997
 31
8.074553569634
210
0.0
220
-1.0
230
0.0
  0
LINE
  5
184
102
{ACAD_XDICTIONARY
360
182
102
}
330
1F
100
AcDbEntity
  8
Main lines
100
AcDbLine
 10
11.450615292217
 20
104.169051245994
 30
47.074553569634
 11
20.770615292217
 21
104.169051245994
 31
47.074553569634
210
0.0
220
-1.0
230
0.0
  0
LINE
  5
187
102
{ACAD_XDICTIONARY
360
185
102
}
330
1F
100
AcDbEntity
  8
Main lines
100
AcDbLine
 10
35.370615292217
 20
104.169051245996
 30
8.074553569634
 11
35.370615292217
 21
104.169051245996
 31
24.074553569634
210
0.0
220
-1.0
230
0.0
  0
LINE
  5
18A
102
{ACAD_XDICTIONARY
360
188
102
}
330
1F
100
AcDbEntity
  8
Main lines
100
AcDbLine
 10
9.347691292217
 20
104.169051245994
 30
45.074553569634
 11
22.851214292217
 21
104.169051245994
 31
45.074553569634
210
0.0
220
-1.0
230
0.0
  0
LINE
  5
18D
102
{ACAD_XDICTIONARY
360
18B
102
}
330
1F
100
AcDbEntity
  8
Main lines
100
AcDbLine
 10
33.370615292217
 20
104.169051245996
 30
10.074553569634
 11
33.370615292217
 21
104.169051245996
 31
22.074553569634
210
0.0
220
-1.0
230
0.0
  0
LINE
  5
190
102
{ACAD_XDICTIONARY
360
18E
102
}
330
1F
100
AcDbEntity
  8
Main lines
100
AcDbLine
 10
31.370615292217
 20
104.169051245996
 30
10.074553569634
 11
31.370615292217
 21
104.169051245996
 31
22.074553569634
210
0.0
220
-1.0
230
0.0
  0
LINE
  5
193
102
{ACAD_XDICTIONARY
360
191
102
}
330
1F
100
AcDbEntity
  8
Main lines
100
AcDbLine
 10
29.008481292217
 20
104.169051245995
 30
20.574553569634
 11
27.370615292217
 21
104.169051245995
 31
16.074553569634
210
0.0
220
-1.0
230
0.0
  0
LINE
  5
196
102
{ACAD_XDICTIONARY
360
194
102
}
330
1F
100
AcDbEntity
  8
Main lines
100
AcDbLine
 10
28.457452292217
 20
104.169051245995
 30
25.523278569634
 11
22.693138292217
 21
104.169051245995
 31
45.625828569634
210
0.0
220
-1.0
230
0.0
  0
LINE
  5
199
102
{ACAD_XDICTIONARY
360
197
102
}
330
1F
100
AcDbEntity
  8
Main lines
100
AcDbLine
 10
30.282377292217
 20
104.169051245995
 30
24.074553569634
 11
17.686575292217
 21
104.169051245995
 31
19.490056569634
210
0.0
220
-1.0
230
0.0
  0
LINE
  5
19C
102
{ACAD_XDICTIONARY
360
19A
102
}
330
1F
100
AcDbEntity
  8
Main lines
100
AcDbLine
 10
22.884778292217
 20
104.169051245995
 30
28.742167569634
 11
25.193557292217
 21
104.169051245995
 31
22.222374569634
210
0.0
220
-1.0
230
0.0
  0
LINE
  5
19F
102
{ACAD_XDICTIONARY
360
19D
102
}
330
1F
100
AcDbEntity
  8
Main lines
100
AcDbLine
 10
27.370615292217
 20
104.169051245995
 30
16.074553569634
 11
29.008481292217
 21
104.169051245995
 31
11.574553569634
210
0.0
220
-1.0
230
0.0
  0
LINE
  5
1A2
102
{ACAD_XDICTIONARY
360
1A0
102
}
330
1F
100
AcDbEntity
  8
Main lines
100
AcDbLine
 10
10.340615292217
 20
104.169051245994
 30
30.074553569634
 11
20.999495292217
 21
104.169051245994
 31
30.074553569634
210
0.0
220
-1.0
230
0.0
  0
LINE
  5
1A5
102
{ACAD_XDICTIONARY
360
1A3
102
}
330
1F
100
AcDbEntity
  8
Main lines
100
AcDbLine
 10
16.370615292217
 20
104.169051245995
 30
17.610671569634
 11
16.370615292217
 21
104.169051245995
 31
13.336852569634
210
0.0
220
-1.0
230
0.0
  0
LINE
  5
1A8
102
{ACAD_XDICTIONARY
360
1A6
102
}
330
1F
100
AcDbEntity
  8
Main lines
100
AcDbLine
 10
30.282377292217
 20
104.169051245995
 30
24.074553569634
 11
35.370615292217
 21
104.169051245995
 31
24.074553569634
210
0.0
220
-1.0
230
0.0
  0
LINE
  5
1AB
102
{ACAD_XDICTIONARY
360
1A9
102
}
330
1F
100
AcDbEntity
  8
Main lines
100
AcDbLine
 10
33.370615292217
 20
104.169051245996
 30
22.074553569634
 11
35.370615292217
 21
104.169051245996
 31
22.074553569634
210
0.0
220
-1.0
230
0.0
  0
LINE
  5
1AE
102
{ACAD_XDICTIONARY
360
1AC
102
}
330
1F
100
AcDbEntity
  8
Main lines
100
AcDbLine
 10
31.370615292217
 20
104.169051245996
 30
22.074553569634
 11
33.370615292217
 21
104.169051245996
 31
22.074553569634
210
0.0
220
-1.0
230
0.0
  0
LINE
  5
1B1
102
{ACAD_XDICTIONARY
360
1AF
102
}
330
1F
100
AcDbEntity
  8
Main lines
100
AcDbLine
 10
24.787422292217
 20
104.169051245995
 30
22.074553569634
 11
31.370615292217
 21
104.169051245995
 31
22.074553569634
210
0.0
220
-1.0
230
0.0
  0
LINE
  5
1B4
102
{ACAD_XDICTIONARY
360
1B2
102
}
330
1F
100
AcDbEntity
  8
Main lines
100
AcDbLine
 10
1.147995292217
 20
104.169051245994
 30
22.074553569634
 11
-2.129384707783
 21
104.169051245994
 31
22.074553569634
210
0.0
220
-1.0
230
0.0
  0
LINE
  5
1B7
102
{ACAD_XDICTIONARY
360
1B5
102
}
330
1F
100
AcDbEntity
  8
Main lines
100
AcDbLine
 10
31.370615292217
 20
104.169051245996
 30
20.574553569634
 11
29.008481292217
 21
104.169051245996
 31
20.574553569634
210
0.0
220
-1.0
230
0.0
  0
LINE
  5
1BA
102
{ACAD_XDICTIONARY
360
1B8
102
}
330
1F
100
AcDbEntity
  8
Main lines
100
AcDbLine
 10
35.370615292217
 20
104.169051245996
 30
20.574553569634
 11
33.370615292217
 21
104.169051245996
 31
20.574553569634
210
0.0
220
-1.0
230
0.0
  0
LINE
  5
1BD
102
{ACAD_XDICTIONARY
360
1BB
102
}
330
1F
100
AcDbEntity
  8
Main lines
100
AcDbLine
 10
3.446977292217
 20
104.169051245994
 30
10.074553569634
 11
8.408763292217
 21
104.169051245994
 31
28.592191569634
210
0.0
220
-1.0
230
0.0
  0
LINE
  5
1C0
102
{ACAD_XDICTIONARY
360
1BE
102
}
330
1F
100
AcDbEntity
  8
Main lines
100
AcDbLine
 10
-0.644485707783
 20
104.169051245994
 30
16.672666569634
 11
-1.126442707783
 21
104.169051245994
 31
16.074553569634
210
0.0
220
-1.0
230
0.0
  0
LINE
  5
1C3
102
{ACAD_XDICTIONARY
360
1C1
102
}
330
1F
100
AcDbEntity
  8
Main lines
100
AcDbLine
 10
-0.169521707783
 20
104.169051245994
 30
17.290100569634
 11
-0.644485707783
 21
104.169051245994
 31
16.672666569634
210
0.0
220
-1.0
230
0.0
  0
LINE
  5
1C6
102
{ACAD_XDICTIONARY
360
1C4
102
}
330
1F
100
AcDbEntity
  8
Main lines
100
AcDbLine
 10
0.280439292217
 20
104.169051245994
 30
17.937148569634
 11
-0.169521707783
 21
104.169051245994
 31
17.290100569634
210
0.0
220
-1.0
230
0.0
  0
LINE
  5
1C9
102
{ACAD_XDICTIONARY
360
1C7
102
}
330
1F
100
AcDbEntity
  8
Main lines
100
AcDbLine
 10
0.681031292217
 20
104.169051245994
 30
18.625407569634
 11
0.280439292217
 21
104.169051245994
 31
17.937148569634
210
0.0
220
-1.0
230
0.0
  0
LINE
  5
1CC
102
{ACAD_XDICTIONARY
360
1CA
102
}
330
1F
100
AcDbEntity
  8
Main lines
100
AcDbLine
 10
0.996130292217
 20
104.169051245994
 30
19.371093569634
 11
0.681031292217
 21
104.169051245994
 31
18.625407569634
210
0.0
220
-1.0
230
0.0
  0
LINE
  5
1CF
102
{ACAD_XDICTIONARY
360
1CD
102
}
330
1F
100
AcDbEntity
  8
Main lines
100
AcDbLine
 10
9.548502292217
 20
104.169051245994
 30
45.692587569634
 11
2.099052292217
 21
104.169051245994
 31
22.765536569634
210
0.0
220
-1.0
230
0.0
  0
LINE
  5
1D2
102
{ACAD_XDICTIONARY
360
1D0
102
}
330
1F
100
AcDbEntity
  8
Main lines
100
AcDbLine
 10
-1.126441707783
 20
104.169051245994
 30
16.074553569634
 11
1.147973292217
 21
104.169051245994
 31
22.074553569634
210
0.0
220
-1.0
230
0.0
  0
LINE
  5
1D5
102
{ACAD_XDICTIONARY
360
1D3
102
}
330
1F
100
AcDbEntity
  8
Main lines
100
AcDbLine
 10
17.852977292217
 20
104.169051245995
 30
11.405001569634
 11
30.282377292217
 21
104.169051245995
 31
8.074553569634
210
0.0
220
-1.0
230
0.0
  0
LINE
  5
1D8
102
{ACAD_XDICTIONARY
360
1D6
102
}
330
1F
100
AcDbEntity
  8
Main lines
100
AcDbLine
 10
29.008481292217
 20
104.169051245995
 30
11.574553569634
 11
31.370615292217
 21
104.169051245995
 31
11.574553569634
210
0.0
220
-1.0
230
0.0
  0
LINE
  5
1DB
102
{ACAD_XDICTIONARY
360
1D9
102
}
330
1F
100
AcDbEntity
  8
Main lines
100
AcDbLine
 10
35.370615292217
 20
104.169051245996
 30
11.574553569634
 11
33.370615292217
 21
104.169051245996
 31
11.574553569634
210
0.0
220
-1.0
230
0.0
  0
LINE
  5
1DE
102
{ACAD_XDICTIONARY
360
1DC
102
}
330
1F
100
AcDbEntity
  8
Main lines
100
AcDbLine
 10
33.370615292217
 20
104.169051245996
 30
10.074553569634
 11
35.370615292217
 21
104.169051245996
 31
10.074553569634
210
0.0
220
-1.0
230
0.0
  0
LINE
  5
1E1
102
{ACAD_XDICTIONARY
360
1DF
102
}
330
1F
100
AcDbEntity
  8
Main lines
100
AcDbLine
 10
31.370615292217
 20
104.169051245996
 30
10.074553569634
 11
33.370615292217
 21
104.169051245996
 31
10.074553569634
210
0.0
220
-1.0
230
0.0
  0
LINE
  5
1E4
102
{ACAD_XDICTIONARY
360
1E2
102
}
330
1F
100
AcDbEntity
  8
Main lines
100
AcDbLine
 10
22.818275292217
 20
104.169051245995
 30
10.074553569634
 11
31.370615292217
 21
104.169051245995
 31
10.074553569634
210
0.0
220
-1.0
230
0.0
  0
LINE
  5
1E7
102
{ACAD_XDICTIONARY
360
1E5
102
}
330
1F
100
AcDbEntity
  8
Main lines
100
AcDbLine
 10
3.446977292217
 20
104.169051245994
 30
10.074553569634
 11
-2.129384707783
 21
104.169051245994
 31
10.074553569634
210
0.0
220
-1.0
230
0.0
  0
LINE
  5
1EA
102
{ACAD_XDICTIONARY
360
1E8
102
}
330
1F
100
AcDbEntity
  8
Main lines
100
AcDbLine
 10
30.282377292217
 20
104.169051245995
 30
8.074553569634
 11
35.370615292217
 21
104.169051245995
 31
8.074553569634
210
0.0
220
-1.0
230
0.0
  0
LINE
  5
1ED
102
{ACAD_XDICTIONARY
360
1EB
102
}
330
1F
100
AcDbEntity
  8
Main lines
100
AcDbLine
 10
-2.129384707783
 20
104.169051245994
 30
10.074553569634
 11
-2.129384707783
 21
104.169051245994
 31
22.074433569634
210
0.0
220
-1.0
230
0.0
  0
ARC
  5
1F0
102
{ACAD_XDICTIONARY
360
1EE
102
}
330
1F
100
AcDbEntity
  8
Main lines
100
AcDbCircle
 10
68.874064292215
 20
40.87847556963399
 30
-104.169051245988
 40
2.696078999999997
210
0.0
220
-1.0
230
0.0
100
AcDbArc
 50
0.0
 51
90.0
  0
ARC
  5
1F3
102
{ACAD_XDICTIONARY
360
1F1
102
}
330
1F
100
AcDbEntity
  8
Main lines
100
AcDbCircle
 10
68.874064292215
 20
33.27063156963399
 30
-104.169051245988
 40
2.696078999999999
210
0.0
220
-1.0
230
0.0
100
AcDbArc
 50
180.0
 51
270.0
  0
ARC
  5
1F6
102
{ACAD_XDICTIONARY
360
1F4
102
}
330
1F
100
AcDbEntity
  8
Main lines
100
AcDbCircle
 10
72.874064292215
 20
45.07455356963399
 30
-104.169051245988
 40
2.0
210
0.0
220
-1.0
230
0.0
100
AcDbArc
 50
0.0
 51
90.0
  0
ARC
  5
1F9
102
{ACAD_XDICTIONARY
360
1F7
102
}
330
1F
100
AcDbEntity
  8
Main lines
100
AcDbCircle
 10
64.874064292215
 20
45.07455356963399
 30
-104.169051245988
 40
2.0
210
0.0
220
-1.0
230
0.0
100
AcDbArc
 50
90.0
 51
180.0
  0
ARC
  5
1FC
102
{ACAD_XDICTIONARY
360
1FA
102
}
330
1F
100
AcDbEntity
  8
Main lines
100
AcDbCircle
 10
68.874064292215
 20
33.27063156963399
 30
-104.169051245988
 40
2.696078999999999
210
0.0
220
-1.0
230
0.0
100
AcDbArc
 50
-90.0
 51
0.0
  0
ARC
  5
1FF
102
{ACAD_XDICTIONARY
360
1FD
102
}
330
1F
100
AcDbEntity
  8
Main lines
100
AcDbCircle
 10
68.874064292215
 20
40.87847556963399
 30
-104.169051245988
 40
2.696078999999997
210
0.0
220
-1.0
230
0.0
100
AcDbArc
 50
90.0
 51
180.0
  0
ARC
  5
202
102
{ACAD_XDICTIONARY
360
200
102
}
330
1F
100
AcDbEntity
  8
Main lines
100
AcDbCircle
 10
83.874064292215
 20
22.07455356963399
 30
-104.169051245988
 40
2.0
210
0.0
220
-1.0
230
0.0
100
AcDbArc
 50
0.0
 51
90.0
  0
ARC
  5
205
102
{ACAD_XDICTIONARY
360
203
102
}
330
1F
100
AcDbEntity
  8
Main lines
100
AcDbCircle
 10
83.874064292215
 20
10.07455356963399
 30
-104.169051245988
 40
2.0
210
0.0
220
-1.0
230
0.0
100
AcDbArc
 50
-90.0
 51
0.0
  0
ARC
  5
208
102
{ACAD_XDICTIONARY
360
206
102
}
330
1F
100
AcDbEntity
  8
Main lines
100
AcDbCircle
 10
30.379975292214
 20
26.07455356963399
 30
-104.169051245988
 40
2.0
210
0.0
220
-1.0
230
0.0
100
AcDbArc
 50
-164.0
 51
-92.77251700000102
  0
ARC
  5
20B
102
{ACAD_XDICTIONARY
360
209
102
}
330
1F
100
AcDbEntity
  8
Main lines
100
AcDbCircle
 10
11.450615292214
 20
45.07455356963399
 30
-104.169051245988
 40
2.0
210
0.0
220
-1.0
230
0.0
100
AcDbArc
 50
90.0
 51
161.999999999999
  0
ARC
  5
20E
102
{ACAD_XDICTIONARY
360
20C
102
}
330
1F
100
AcDbEntity
  8
Main lines
100
AcDbCircle
 10
18.370615292215
 20
17.61067156963399
 30
-104.169051245988
 40
2.000000000000001
210
0.0
220
-1.0
230
0.0
100
AcDbArc
 50
110.0
 51
180.0
  0
ARC
  5
211
102
{ACAD_XDICTIONARY
360
20F
102
}
330
1F
100
AcDbEntity
  8
Main lines
100
AcDbCircle
 10
18.370615292215
 20
13.33685256963399
 30
-104.169051245988
 40
2.0
210
0.0
220
-1.0
230
0.0
100
AcDbArc
 50
180.0
 51
255.0000000000001
  0
ARC
  5
214
102
{ACAD_XDICTIONARY
360
212
102
}
330
1F
100
AcDbEntity
  8
Main lines
100
AcDbCircle
 10
10.340615292215
 20
28.07455356963399
 30
-104.169051245988
 40
2.0
210
0.0
220
-1.0
230
0.0
100
AcDbArc
 50
90.0
 51
165.0
  0
ARC
  5
217
102
{ACAD_XDICTIONARY
360
215
102
}
330
1F
100
AcDbEntity
  8
Main lines
100
AcDbCircle
 10
20.999495292214
 20
28.07455356963399
 30
-104.169051245988
 40
2.0
210
0.0
220
-1.0
230
0.0
100
AcDbArc
 50
19.49999999999905
 51
90.0
  0
ARC
  5
21A
102
{ACAD_XDICTIONARY
360
218
102
}
330
1F
100
AcDbEntity
  8
Main lines
100
AcDbCircle
 10
20.770615292214
 20
45.07455356963399
 30
-104.169051245988
 40
2.0
210
0.0
220
-1.0
230
0.0
100
AcDbArc
 50
16.00000000000006
 51
90.0
  0
LWPOLYLINE
  5
21B
330
1F
100
AcDbEntity
  8
Main lines
370
    50
100
AcDbPolyline
 90
        3
 70
     1
 38
-104.169051245988
 10
74.874064292215
 20
16.07455356963401
 40
0.0196850392967463
 41
0.0196850392967463
 42
0.4142135623731
 10
68.874064292215
 20
22.07455356963401
 40
0.0196850392967463
 41
0.0196850392967463
 42
2.414213562373
 10
74.874064292215
 20
16.07455356963401
 40
0.0196850392967463
 41
0.0196850392967463
210
0.0
220
-1.0
230
6.123031769111886E-17
  0
LWPOLYLINE
  5
21C
330
1F
100
AcDbEntity
  8
Main lines
370
    50
100
AcDbPolyline
 90
        3
 70
     1
 38
-104.169051245988
 10
71.570143292215
 20
16.07455356963401
 40
0.0196850392967463
 41
0.0196850392967463
 42
0.4142135623731
 10
68.874064292215
 20
18.77063256963401
 40
0.0196850392967463
 41
0.0196850392967463
 42
2.414213562373
 10
71.570143292215
 20
16.07455356963401
 40
0.0196850392967463
 41
0.0196850392967463
210
0.0
220
-1.0
230
6.123031769111886E-17
  0
ARC
  5
21F
102
{ACAD_XDICTIONARY
360
21D
102
}
330
1F
100
AcDbEntity
  8
Main lines
100
AcDbCircle
 10
1.147995292214
 20
23.07455356963399
 30
-104.169051245988
 40
1.0
210
0.0
220
-1.0
230
0.0
100
AcDbArc
 50
-90.0
 51
-18.00000000000209
  0
LINE
  5
222
102
{ACAD_XDICTIONARY
360
220
102
}
330
1F
100
AcDbEntity
  8
Main lines
100
AcDbLine
 10
74.874064292217
 20
104.169051245998
 30
11.574553569634
 11
74.874064292217
 21
104.169051245998
 31
31.368866569634
210
0.0
220
-1.0
230
0.0
  0
VIEWPORT
  5
223
330
1B
100
AcDbEntity
 67
     1
  8
0
100
AcDbViewport
 10
140.021884882379
 20
101.902895350416
 30
0.0
 40
280.228395758387
 41
201.393106349011
 68
     1
 69
     1
 12
140.021884882379
 22
101.902895350416
 13
0.0
 23
0.0
 14
10.0
 24
10.0
 15
10.0
 25
10.0
 16
0.0
 26
0.0
 36
1.0
 17
0.0
 27
0.0
 37
0.0
 42
50.0
 43
0.0
 44
0.0
 45
201.393106349011
 50
0.0
 51
0.0
 72
  1000
 90
    32800
  1

281
     0
 71
     1
 74
     0
110
0.0
120
0.0
130
0.0
111
1.0
121
0.0
131
0.0
112
0.0
122
1.0
132
0.0
 79
     0
146
0.0
170
     0
  0
VIEWPORT
  5
224
330
1B
100
AcDbEntity
 67
     1
  8
0
  6
Durchgehend
100
AcDbViewport
 10
140.021884882379
 20
101.902895350416
 30
0.0
 40
280.228395758387
 41
201.393106349011
 68
     2
 69
     2
 12
717.1860259187295
 22
392.4295065236418
 13
0.0
 23
0.0
 14
0.5
 24
0.5
 15
0.0
 25
0.0
 16
0.0
 26
0.0
 36
1.0
 17
0.0
 27
0.0
 37
0.0
 42
50.0
 43
0.0
 44
0.0
 45
201.3931070680141
 50
0.0
 51
0.0
 72
   100
 90
   557152
  1

281
     0
 71
     1
 74
     0
110
0.0
120
0.0
130
0.0
111
1.0
121
0.0
131
0.0
112
0.0
122
1.0
132
0.0
 79
     0
146
0.0
170
     0
  0
ENDSEC
  0
SECTION
  2
OBJECTS
  0
DICTIONARY
  5
C
330
0
100
AcDbDictionary
281
     1
  3
ACAD_GROUP
350
D
  3
ACAD_LAYOUT
350
1A
  3
ACAD_MLINESTYLE
350
17
  3
ACAD_PLOTSETTINGS
350
19
  3
ACAD_PLOTSTYLENAME
350
E
  3
ACAD_TABLESTYLE
350
226
  3
ACAD_VISUALSTYLE
350
2A
  0
DICTIONARY
  5
119
330
11B
100
AcDbDictionary
280
     1
281
     1
  3
TC_OPTIONAL_DATA
360
11A
  0
DICTIONARY
  5
11C
330
11E
100
AcDbDictionary
280
     1
281
     1
  3
TC_OPTIONAL_DATA
360
11D
  0
DICTIONARY
  5
11F
330
121
100
AcDbDictionary
280
     1
281
     1
  3
TC_OPTIONAL_DATA
360
120
  0
DICTIONARY
  5
122
330
124
100
AcDbDictionary
280
     1
281
     1
  3
TC_OPTIONAL_DATA
360
123
  0
DICTIONARY
  5
125
330
127
100
AcDbDictionary
280
     1
281
     1
  3
TC_OPTIONAL_DATA
360
126
  0
DICTIONARY
  5
128
330
12A
100
AcDbDictionary
280
     1
281
     1
  3
TC_OPTIONAL_DATA
360
129
  0
DICTIONARY
  5
12B
330
12D
100
AcDbDictionary
280
     1
281
     1
  3
TC_OPTIONAL_DATA
360
12C
  0
DICTIONARY
  5
12E
330
130
100
AcDbDictionary
280
     1
281
     1
  3
TC_OPTIONAL_DATA
360
12F
  0
DICTIONARY
  5
131
330
133
100
AcDbDictionary
280
     1
281
     1
  3
TC_OPTIONAL_DATA
360
132
  0
DICTIONARY
  5
134
330
136
100
AcDbDictionary
280
     1
281
     1
  3
TC_OPTIONAL_DATA
360
135
  0
DICTIONARY
  5
137
330
139
100
AcDbDictionary
280
     1
281
     1
  3
TC_OPTIONAL_DATA
360
138
  0
DICTIONARY
  5
13A
330
13C
100
AcDbDictionary
280
     1
281
     1
  3
TC_OPTIONAL_DATA
360
13B
  0
DICTIONARY
  5
13D
330
13F
100
AcDbDictionary
280
     1
281
     1
  3
TC_OPTIONAL_DATA
360
13E
  0
DICTIONARY
  5
140
330
142
100
AcDbDictionary
280
     1
281
     1
  3
TC_OPTIONAL_DATA
360
141
  0
DICTIONARY
  5
143
330
145
100
AcDbDictionary
280
     1
281
     1
  3
TC_OPTIONAL_DATA
360
144
  0
DICTIONARY
  5
146
330
148
100
AcDbDictionary
280
     1
281
     1
  3
TC_OPTIONAL_DATA
360
147
  0
DICTIONARY
  5
149
330
14B
100
AcDbDictionary
280
     1
281
     1
  3
TC_OPTIONAL_DATA
360
14A
  0
DICTIONARY
  5
14C
330
14E
100
AcDbDictionary
280
     1
281
     1
  3
TC_OPTIONAL_DATA
360
14D
  0
DICTIONARY
  5
14F
330
151
100
AcDbDictionary
280
     1
281
     1
  3
TC_OPTIONAL_DATA
360
150
  0
DICTIONARY
  5
152
330
154
100
AcDbDictionary
280
     1
281
     1
  3
TC_OPTIONAL_DATA
360
153
  0
DICTIONARY
  5
155
330
157
100
AcDbDictionary
280
     1
281
     1
  3
TC_OPTIONAL_DATA
360
156
  0
DICTIONARY
  5
158
330
15A
100
AcDbDictionary
280
     1
281
     1
  3
TC_OPTIONAL_DATA
360
159
  0
DICTIONARY
  5
15B
330
15D
100
AcDbDictionary
280
     1
281
     1
  3
TC_OPTIONAL_DATA
360
15C
  0
DICTIONARY
  5
15E
330
160
100
AcDbDictionary
280
     1
281
     1
  3
TC_OPTIONAL_DATA
360
15F
  0
DICTIONARY
  5
161
330
163
100
AcDbDictionary
280
     1
281
     1
  3
TC_OPTIONAL_DATA
360
162
  0
DICTIONARY
  5
164
330
166
100
AcDbDictionary
280
     1
281
     1
  3
TC_OPTIONAL_DATA
360
165
  0
DICTIONARY
  5
167
330
169
100
AcDbDictionary
280
     1
281
     1
  3
TC_OPTIONAL_DATA
360
168
  0
DICTIONARY
  5
16A
330
16C
100
AcDbDictionary
280
     1
281
     1
  3
TC_OPTIONAL_DATA
360
16B
  0
DICTIONARY
  5
16D
330
16F
100
AcDbDictionary
280
     1
281
     1
  3
TC_OPTIONAL_DATA
360
16E
  0
DICTIONARY
  5
170
330
172
100
AcDbDictionary
280
     1
281
     1
  3
TC_OPTIONAL_DATA
360
171
  0
DICTIONARY
  5
173
330
175
100
AcDbDictionary
280
     1
281
     1
  3
TC_OPTIONAL_DATA
360
174
  0
DICTIONARY
  5
176
330
178
100
AcDbDictionary
280
     1
281
     1
  3
TC_OPTIONAL_DATA
360
177
  0
DICTIONARY
  5
179
330
17B
100
AcDbDictionary
280
     1
281
     1
  3
TC_OPTIONAL_DATA
360
17A
  0
DICTIONARY
  5
17C
330
17E
100
AcDbDictionary
280
     1
281
     1
  3
TC_OPTIONAL_DATA
360
17D
  0
DICTIONARY
  5
17F
330
181
100
AcDbDictionary
280
     1
281
     1
  3
TC_OPTIONAL_DATA
360
180
  0
DICTIONARY
  5
182
330
184
100
AcDbDictionary
280
     1
281
     1
  3
TC_OPTIONAL_DATA
360
183
  0
DICTIONARY
  5
185
330
187
100
AcDbDictionary
280
     1
281
     1
  3
TC_OPTIONAL_DATA
360
186
  0
DICTIONARY
  5
188
330
18A
100
AcDbDictionary
280
     1
281
     1
  3
TC_OPTIONAL_DATA
360
189
  0
DICTIONARY
  5
18B
330
18D
100
AcDbDictionary
280
     1
281
     1
  3
TC_OPTIONAL_DATA
360
18C
  0
DICTIONARY
  5
18E
330
190
100
AcDbDictionary
280
     1
281
     1
  3
TC_OPTIONAL_DATA
360
18F
  0
DICTIONARY
  5
191
330
193
100
AcDbDictionary
280
     1
281
     1
  3
TC_OPTIONAL_DATA
360
192
  0
DICTIONARY
  5
194
330
196
100
AcDbDictionary
280
     1
281
     1
  3
TC_OPTIONAL_DATA
360
195
  0
DICTIONARY
  5
197
330
199
100
AcDbDictionary
280
     1
281
     1
  3
TC_OPTIONAL_DATA
360
198
  0
DICTIONARY
  5
19A
330
19C
100
AcDbDictionary
280
     1
281
     1
  3
TC_OPTIONAL_DATA
360
19B
  0
DICTIONARY
  5
19D
330
19F
100
AcDbDictionary
280
     1
281
     1
  3
TC_OPTIONAL_DATA
360
19E
  0
DICTIONARY
  5
1A0
330
1A2
100
AcDbDictionary
280
     1
281
     1
  3
TC_OPTIONAL_DATA
360
1A1
  0
DICTIONARY
  5
1A3
330
1A5
100
AcDbDictionary
280
     1
281
     1
  3
TC_OPTIONAL_DATA
360
1A4
  0
DICTIONARY
  5
1A6
330
1A8
100
AcDbDictionary
280
     1
281
     1
  3
TC_OPTIONAL_DATA
360
1A7
  0
DICTIONARY
  5
1A9
330
1AB
100
AcDbDictionary
280
     1
281
     1
  3
TC_OPTIONAL_DATA
360
1AA
  0
DICTIONARY
  5
1AC
330
1AE
100
AcDbDictionary
280
     1
281
     1
  3
TC_OPTIONAL_DATA
360
1AD
  0
DICTIONARY
  5
1AF
330
1B1
100
AcDbDictionary
280
     1
281
     1
  3
TC_OPTIONAL_DATA
360
1B0
  0
DICTIONARY
  5
1B2
330
1B4
100
AcDbDictionary
280
     1
281
     1
  3
TC_OPTIONAL_DATA
360
1B3
  0
DICTIONARY
  5
1B5
330
1B7
100
AcDbDictionary
280
     1
281
     1
  3
TC_OPTIONAL_DATA
360
1B6
  0
DICTIONARY
  5
1B8
330
1BA
100
AcDbDictionary
280
     1
281
     1
  3
TC_OPTIONAL_DATA
360
1B9
  0
DICTIONARY
  5
1BB
330
1BD
100
AcDbDictionary
280
     1
281
     1
  3
TC_OPTIONAL_DATA
360
1BC
  0
DICTIONARY
  5
1BE
330
1C0
100
AcDbDictionary
280
     1
281
     1
  3
TC_OPTIONAL_DATA
360
1BF
  0
DICTIONARY
  5
1C1
330
1C3
100
AcDbDictionary
280
     1
281
     1
  3
TC_OPTIONAL_DATA
360
1C2
  0
DICTIONARY
  5
1C4
330
1C6
100
AcDbDictionary
280
     1
281
     1
  3
TC_OPTIONAL_DATA
360
1C5
  0
DICTIONARY
  5
1C7
330
1C9
100
AcDbDictionary
280
     1
281
     1
  3
TC_OPTIONAL_DATA
360
1C8
  0
DICTIONARY
  5
1CA
330
1CC
100
AcDbDictionary
280
     1
281
     1
  3
TC_OPTIONAL_DATA
360
1CB
  0
DICTIONARY
  5
1CD
330
1CF
100
AcDbDictionary
280
     1
281
     1
  3
TC_OPTIONAL_DATA
360
1CE
  0
DICTIONARY
  5
1D0
330
1D2
100
AcDbDictionary
280
     1
281
     1
  3
TC_OPTIONAL_DATA
360
1D1
  0
DICTIONARY
  5
1D3
330
1D5
100
AcDbDictionary
280
     1
281
     1
  3
TC_OPTIONAL_DATA
360
1D4
  0
DICTIONARY
  5
1D6
330
1D8
100
AcDbDictionary
280
     1
281
     1
  3
TC_OPTIONAL_DATA
360
1D7
  0
DICTIONARY
  5
1D9
330
1DB
100
AcDbDictionary
280
     1
281
     1
  3
TC_OPTIONAL_DATA
360
1DA
  0
DICTIONARY
  5
1DC
330
1DE
100
AcDbDictionary
280
     1
281
     1
  3
TC_OPTIONAL_DATA
360
1DD
  0
DICTIONARY
  5
1DF
330
1E1
100
AcDbDictionary
280
     1
281
     1
  3
TC_OPTIONAL_DATA
360
1E0
  0
DICTIONARY
  5
1E2
330
1E4
100
AcDbDictionary
280
     1
281
     1
  3
TC_OPTIONAL_DATA
360
1E3
  0
DICTIONARY
  5
1E5
330
1E7
100
AcDbDictionary
280
     1
281
     1
  3
TC_OPTIONAL_DATA
360
1E6
  0
DICTIONARY
  5
1E8
330
1EA
100
AcDbDictionary
280
     1
281
     1
  3
TC_OPTIONAL_DATA
360
1E9
  0
DICTIONARY
  5
1EB
330
1ED
100
AcDbDictionary
280
     1
281
     1
  3
TC_OPTIONAL_DATA
360
1EC
  0
DICTIONARY
  5
1EE
330
1F0
100
AcDbDictionary
280
     1
281
     1
  3
TC_OPTIONAL_DATA
360
1EF
  0
DICTIONARY
  5
1F1
330
1F3
100
AcDbDictionary
280
     1
281
     1
  3
TC_OPTIONAL_DATA
360
1F2
  0
DICTIONARY
  5
1F4
330
1F6
100
AcDbDictionary
280
     1
281
     1
  3
TC_OPTIONAL_DATA
360
1F5
  0
DICTIONARY
  5
1F7
330
1F9
100
AcDbDictionary
280
     1
281
     1
  3
TC_OPTIONAL_DATA
360
1F8
  0
DICTIONARY
  5
1FA
330
1FC
100
AcDbDictionary
280
     1
281
     1
  3
TC_OPTIONAL_DATA
360
1FB
  0
DICTIONARY
  5
1FD
330
1FF
100
AcDbDictionary
280
     1
281
     1
  3
TC_OPTIONAL_DATA
360
1FE
  0
DICTIONARY
  5
200
330
202
100
AcDbDictionary
280
     1
281
     1
  3
TC_OPTIONAL_DATA
360
201
  0
DICTIONARY
  5
203
330
205
100
AcDbDictionary
280
     1
281
     1
  3
TC_OPTIONAL_DATA
360
204
  0
DICTIONARY
  5
206
330
208
100
AcDbDictionary
280
     1
281
     1
  3
TC_OPTIONAL_DATA
360
207
  0
DICTIONARY
  5
209
330
20B
100
AcDbDictionary
280
     1
281
     1
  3
TC_OPTIONAL_DATA
360
20A
  0
DICTIONARY
  5
20C
330
20E
100
AcDbDictionary
280
     1
281
     1
  3
TC_OPTIONAL_DATA
360
20D
  0
DICTIONARY
  5
20F
330
211
100
AcDbDictionary
280
     1
281
     1
  3
TC_OPTIONAL_DATA
360
210
  0
DICTIONARY
  5
212
330
214
100
AcDbDictionary
280
     1
281
     1
  3
TC_OPTIONAL_DATA
360
213
  0
DICTIONARY
  5
215
330
217
100
AcDbDictionary
280
     1
281
     1
  3
TC_OPTIONAL_DATA
360
216
  0
DICTIONARY
  5
218
330
21A
100
AcDbDictionary
280
     1
281
     1
  3
TC_OPTIONAL_DATA
360
219
  0
DICTIONARY
  5
21D
330
21F
100
AcDbDictionary
280
     1
281
     1
  3
TC_OPTIONAL_DATA
360
21E
  0
DICTIONARY
  5
220
330
222
100
AcDbDictionary
280
     1
281
     1
  3
TC_OPTIONAL_DATA
360
221
  0
DICTIONARY
  5
D
102
{ACAD_REACTORS
330
C
102
}
330
C
100
AcDbDictionary
281
     1
  0
DICTIONARY
  5
1A
102
{ACAD_REACTORS
330
C
102
}
330
C
100
AcDbDictionary
281
     1
  3
Layout1
350
1E
  3
Layout2
350
3C
  3
Model
350
22
  0
DICTIONARY
  5
17
102
{ACAD_REACTORS
330
C
102
}
330
C
100
AcDbDictionary
281
     1
  3
Standard
350
18
  0
DICTIONARY
  5
19
102
{ACAD_REACTORS
330
C
102
}
330
C
100
AcDbDictionary
281
     1
  0
ACDBDICTIONARYWDFLT
  5
E
102
{ACAD_REACTORS
330
C
102
}
330
C
100
AcDbDictionary
281
     1
  3
Normal
350
F
100
AcDbDictionaryWithDefault
340
F
  0
DICTIONARY
  5
226
102
{ACAD_REACTORS
330
C
102
}
330
C
100
AcDbDictionary
281
     1
  0
DICTIONARY
  5
2A
102
{ACAD_REACTORS
330
C
102
}
330
C
100
AcDbDictionary
281
     1
  3
2dWireframe
350
2F
  3
3D Hidden
350
31
  3
3dWireframe
350
30
  3
Basic
350
32
  3
Brighten
350
36
  3
ColorChange
350
3A
  3
Conceptual
350
34
  3
Dim
350
35
  3
Facepattern
350
39
  3
Flat
350
2B
  3
FlatWithEdges
350
2C
  3
Gouraud
350
2D
  3
GouraudWithEdges
350
2E
  3
Linepattern
350
38
  3
Realistic
350
33
  3
Thicken
350
37
  0
TCOPTIONALDATA
  5
11A
102
{ACAD_REACTORS
330
119
102
}
330
119
100
TcOptionalData
 70
     1
 70
    32
 40
-3.0
  0
TCOPTIONALDATA
  5
11D
102
{ACAD_REACTORS
330
11C
102
}
330
11C
100
TcOptionalData
 70
     1
 70
    32
 40
-3.0
  0
TCOPTIONALDATA
  5
120
102
{ACAD_REACTORS
330
11F
102
}
330
11F
100
TcOptionalData
 70
     1
 70
    32
 40
-3.0
  0
TCOPTIONALDATA
  5
123
102
{ACAD_REACTORS
330
122
102
}
330
122
100
TcOptionalData
 70
     1
 70
    32
 40
-3.0
  0
TCOPTIONALDATA
  5
126
102
{ACAD_REACTORS
330
125
102
}
330
125
100
TcOptionalData
 70
     1
 70
    32
 40
-3.0
  0
TCOPTIONALDATA
  5
129
102
{ACAD_REACTORS
330
128
102
}
330
128
100
TcOptionalData
 70
     1
 70
    32
 40
-3.0
  0
TCOPTIONALDATA
  5
12C
102
{ACAD_REACTORS
330
12B
102
}
330
12B
100
TcOptionalData
 70
     1
 70
    32
 40
-3.0
  0
TCOPTIONALDATA
  5
12F
102
{ACAD_REACTORS
330
12E
102
}
330
12E
100
TcOptionalData
 70
     1
 70
    32
 40
-3.0
  0
TCOPTIONALDATA
  5
132
102
{ACAD_REACTORS
330
131
102
}
330
131
100
TcOptionalData
 70
     1
 70
    32
 40
-3.0
  0
TCOPTIONALDATA
  5
135
102
{ACAD_REACTORS
330
134
102
}
330
134
100
TcOptionalData
 70
     1
 70
    32
 40
-3.0
  0
TCOPTIONALDATA
  5
138
102
{ACAD_REACTORS
330
137
102
}
330
137
100
TcOptionalData
 70
     1
 70
    32
 40
-3.0
  0
TCOPTIONALDATA
  5
13B
102
{ACAD_REACTORS
330
13A
102
}
330
13A
100
TcOptionalData
 70
     1
 70
    32
 40
-3.0
  0
TCOPTIONALDATA
  5
13E
102
{ACAD_REACTORS
330
13D
102
}
330
13D
100
TcOptionalData
 70
     1
 70
    32
 40
-3.0
  0
TCOPTIONALDATA
  5
141
102
{ACAD_REACTORS
330
140
102
}
330
140
100
TcOptionalData
 70
     1
 70
    32
 40
-3.0
  0
TCOPTIONALDATA
  5
144
102
{ACAD_REACTORS
330
143
102
}
330
143
100
TcOptionalData
 70
     1
 70
    32
 40
-3.0
  0
TCOPTIONALDATA
  5
147
102
{ACAD_REACTORS
330
146
102
}
330
146
100
TcOptionalData
 70
     1
 70
    32
 40
-3.0
  0
TCOPTIONALDATA
  5
14A
102
{ACAD_REACTORS
330
149
102
}
330
149
100
TcOptionalData
 70
     1
 70
    32
 40
-3.0
  0
TCOPTIONALDATA
  5
14D
102
{ACAD_REACTORS
330
14C
102
}
330
14C
100
TcOptionalData
 70
     1
 70
    32
 40
-3.0
  0
TCOPTIONALDATA
  5
150
102
{ACAD_REACTORS
330
14F
102
}
330
14F
100
TcOptionalData
 70
     1
 70
    32
 40
-3.0
  0
TCOPTIONALDATA
  5
153
102
{ACAD_REACTORS
330
152
102
}
330
152
100
TcOptionalData
 70
     1
 70
    32
 40
-3.0
  0
TCOPTIONALDATA
  5
156
102
{ACAD_REACTORS
330
155
102
}
330
155
100
TcOptionalData
 70
     1
 70
    32
 40
-3.0
  0
TCOPTIONALDATA
  5
159
102
{ACAD_REACTORS
330
158
102
}
330
158
100
TcOptionalData
 70
     1
 70
    32
 40
-3.0
  0
TCOPTIONALDATA
  5
15C
102
{ACAD_REACTORS
330
15B
102
}
330
15B
100
TcOptionalData
 70
     1
 70
    32
 40
-3.0
  0
TCOPTIONALDATA
  5
15F
102
{ACAD_REACTORS
330
15E
102
}
330
15E
100
TcOptionalData
 70
     1
 70
    32
 40
-3.0
  0
TCOPTIONALDATA
  5
162
102
{ACAD_REACTORS
330
161
102
}
330
161
100
TcOptionalData
 70
     1
 70
    32
 40
-3.0
  0
TCOPTIONALDATA
  5
165
102
{ACAD_REACTORS
330
164
102
}
330
164
100
TcOptionalData
 70
     1
 70
    32
 40
-3.0
  0
TCOPTIONALDATA
  5
168
102
{ACAD_REACTORS
330
167
102
}
330
167
100
TcOptionalData
 70
     1
 70
    32
 40
-3.0
  0
TCOPTIONALDATA
  5
16B
102
{ACAD_REACTORS
330
16A
102
}
330
16A
100
TcOptionalData
 70
     1
 70
    32
 40
-3.0
  0
TCOPTIONALDATA
  5
16E
102
{ACAD_REACTORS
330
16D
102
}
330
16D
100
TcOptionalData
 70
     1
 70
    32
 40
-3.0
  0
TCOPTIONALDATA
  5
171
102
{ACAD_REACTORS
330
170
102
}
330
170
100
TcOptionalData
 70
     1
 70
    32
 40
-3.0
  0
TCOPTIONALDATA
  5
174
102
{ACAD_REACTORS
330
173
102
}
330
173
100
TcOptionalData
 70
     1
 70
    32
 40
-3.0
  0
TCOPTIONALDATA
  5
177
102
{ACAD_REACTORS
330
176
102
}
330
176
100
TcOptionalData
 70
     1
 70
    32
 40
-3.0
  0
TCOPTIONALDATA
  5
17A
102
{ACAD_REACTORS
330
179
102
}
330
179
100
TcOptionalData
 70
     1
 70
    32
 40
-3.0
  0
TCOPTIONALDATA
  5
17D
102
{ACAD_REACTORS
330
17C
102
}
330
17C
100
TcOptionalData
 70
     1
 70
    32
 40
-3.0
  0
TCOPTIONALDATA
  5
180
102
{ACAD_REACTORS
330
17F
102
}
330
17F
100
TcOptionalData
 70
     1
 70
    32
 40
-3.0
  0
TCOPTIONALDATA
  5
183
102
{ACAD_REACTORS
330
182
102
}
330
182
100
TcOptionalData
 70
     1
 70
    32
 40
-3.0
  0
TCOPTIONALDATA
  5
186
102
{ACAD_REACTORS
330
185
102
}
330
185
100
TcOptionalData
 70
     1
 70
    32
 40
-3.0
  0
TCOPTIONALDATA
  5
189
102
{ACAD_REACTORS
330
188
102
}
330
188
100
TcOptionalData
 70
     1
 70
    32
 40
-3.0
  0
TCOPTIONALDATA
  5
18C
102
{ACAD_REACTORS
330
18B
102
}
330
18B
100
TcOptionalData
 70
     1
 70
    32
 40
-3.0
  0
TCOPTIONALDATA
  5
18F
102
{ACAD_REACTORS
330
18E
102
}
330
18E
100
TcOptionalData
 70
     1
 70
    32
 40
-3.0
  0
TCOPTIONALDATA
  5
192
102
{ACAD_REACTORS
330
191
102
}
330
191
100
TcOptionalData
 70
     1
 70
    32
 40
-3.0
  0
TCOPTIONALDATA
  5
195
102
{ACAD_REACTORS
330
194
102
}
330
194
100
TcOptionalData
 70
     1
 70
    32
 40
-3.0
  0
TCOPTIONALDATA
  5
198
102
{ACAD_REACTORS
330
197
102
}
330
197
100
TcOptionalData
 70
     1
 70
    32
 40
-3.0
  0
TCOPTIONALDATA
  5
19B
102
{ACAD_REACTORS
330
19A
102
}
330
19A
100
TcOptionalData
 70
     1
 70
    32
 40
-3.0
  0
TCOPTIONALDATA
  5
19E
102
{ACAD_REACTORS
330
19D
102
}
330
19D
100
TcOptionalData
 70
     1
 70
    32
 40
-3.0
  0
TCOPTIONALDATA
  5
1A1
102
{ACAD_REACTORS
330
1A0
102
}
330
1A0
100
TcOptionalData
 70
     1
 70
    32
 40
-3.0
  0
TCOPTIONALDATA
  5
1A4
102
{ACAD_REACTORS
330
1A3
102
}
330
1A3
100
TcOptionalData
 70
     1
 70
    32
 40
-3.0
  0
TCOPTIONALDATA
  5
1A7
102
{ACAD_REACTORS
330
1A6
102
}
330
1A6
100
TcOptionalData
 70
     1
 70
    32
 40
-3.0
  0
TCOPTIONALDATA
  5
1AA
102
{ACAD_REACTORS
330
1A9
102
}
330
1A9
100
TcOptionalData
 70
     1
 70
    32
 40
-3.0
  0
TCOPTIONALDATA
  5
1AD
102
{ACAD_REACTORS
330
1AC
102
}
330
1AC
100
TcOptionalData
 70
     1
 70
    32
 40
-3.0
  0
TCOPTIONALDATA
  5
1B0
102
{ACAD_REACTORS
330
1AF
102
}
330
1AF
100
TcOptionalData
 70
     1
 70
    32
 40
-3.0
  0
TCOPTIONALDATA
  5
1B3
102
{ACAD_REACTORS
330
1B2
102
}
330
1B2
100
TcOptionalData
 70
     1
 70
    32
 40
-3.0
  0
TCOPTIONALDATA
  5
1B6
102
{ACAD_REACTORS
330
1B5
102
}
330
1B5
100
TcOptionalData
 70
     1
 70
    32
 40
-3.0
  0
TCOPTIONALDATA
  5
1B9
102
{ACAD_REACTORS
330
1B8
102
}
330
1B8
100
TcOptionalData
 70
     1
 70
    32
 40
-3.0
  0
TCOPTIONALDATA
  5
1BC
102
{ACAD_REACTORS
330
1BB
102
}
330
1BB
100
TcOptionalData
 70
     1
 70
    32
 40
-3.0
  0
TCOPTIONALDATA
  5
1BF
102
{ACAD_REACTORS
330
1BE
102
}
330
1BE
100
TcOptionalData
 70
     1
 70
    32
 40
-3.0
  0
TCOPTIONALDATA
  5
1C2
102
{ACAD_REACTORS
330
1C1
102
}
330
1C1
100
TcOptionalData
 70
     1
 70
    32
 40
-3.0
  0
TCOPTIONALDATA
  5
1C5
102
{ACAD_REACTORS
330
1C4
102
}
330
1C4
100
TcOptionalData
 70
     1
 70
    32
 40
-3.0
  0
TCOPTIONALDATA
  5
1C8
102
{ACAD_REACTORS
330
1C7
102
}
330
1C7
100
TcOptionalData
 70
     1
 70
    32
 40
-3.0
  0
TCOPTIONALDATA
  5
1CB
102
{ACAD_REACTORS
330
1CA
102
}
330
1CA
100
TcOptionalData
 70
     1
 70
    32
 40
-3.0
  0
TCOPTIONALDATA
  5
1CE
102
{ACAD_REACTORS
330
1CD
102
}
330
1CD
100
TcOptionalData
 70
     1
 70
    32
 40
-3.0
  0
TCOPTIONALDATA
  5
1D1
102
{ACAD_REACTORS
330
1D0
102
}
330
1D0
100
TcOptionalData
 70
     1
 70
    32
 40
-3.0
  0
TCOPTIONALDATA
  5
1D4
102
{ACAD_REACTORS
330
1D3
102
}
330
1D3
100
TcOptionalData
 70
     1
 70
    32
 40
-3.0
  0
TCOPTIONALDATA
  5
1D7
102
{ACAD_REACTORS
330
1D6
102
}
330
1D6
100
TcOptionalData
 70
     1
 70
    32
 40
-3.0
  0
TCOPTIONALDATA
  5
1DA
102
{ACAD_REACTORS
330
1D9
102
}
330
1D9
100
TcOptionalData
 70
     1
 70
    32
 40
-3.0
  0
TCOPTIONALDATA
  5
1DD
102
{ACAD_REACTORS
330
1DC
102
}
330
1DC
100
TcOptionalData
 70
     1
 70
    32
 40
-3.0
  0
TCOPTIONALDATA
  5
1E0
102
{ACAD_REACTORS
330
1DF
102
}
330
1DF
100
TcOptionalData
 70
     1
 70
    32
 40
-3.0
  0
TCOPTIONALDATA
  5
1E3
102
{ACAD_REACTORS
330
1E2
102
}
330
1E2
100
TcOptionalData
 70
     1
 70
    32
 40
-3.0
  0
TCOPTIONALDATA
  5
1E6
102
{ACAD_REACTORS
330
1E5
102
}
330
1E5
100
TcOptionalData
 70
     1
 70
    32
 40
-3.0
  0
TCOPTIONALDATA
  5
1E9
102
{ACAD_REACTORS
330
1E8
102
}
330
1E8
100
TcOptionalData
 70
     1
 70
    32
 40
-3.0
  0
TCOPTIONALDATA
  5
1EC
102
{ACAD_REACTORS
330
1EB
102
}
330
1EB
100
TcOptionalData
 70
     1
 70
    32
 40
-3.0
  0
TCOPTIONALDATA
  5
1EF
102
{ACAD_REACTORS
330
1EE
102
}
330
1EE
100
TcOptionalData
 70
     1
 70
    32
 40
-3.0
  0
TCOPTIONALDATA
  5
1F2
102
{ACAD_REACTORS
330
1F1
102
}
330
1F1
100
TcOptionalData
 70
     1
 70
    32
 40
-3.0
  0
TCOPTIONALDATA
  5
1F5
102
{ACAD_REACTORS
330
1F4
102
}
330
1F4
100
TcOptionalData
 70
     1
 70
    32
 40
-3.0
  0
TCOPTIONALDATA
  5
1F8
102
{ACAD_REACTORS
330
1F7
102
}
330
1F7
100
TcOptionalData
 70
     1
 70
    32
 40
-3.0
  0
TCOPTIONALDATA
  5
1FB
102
{ACAD_REACTORS
330
1FA
102
}
330
1FA
100
TcOptionalData
 70
     1
 70
    32
 40
-3.0
  0
TCOPTIONALDATA
  5
1FE
102
{ACAD_REACTORS
330
1FD
102
}
330
1FD
100
TcOptionalData
 70
     1
 70
    32
 40
-3.0
  0
TCOPTIONALDATA
  5
201
102
{ACAD_REACTORS
330
200
102
}
330
200
100
TcOptionalData
 70
     1
 70
    32
 40
-3.0
  0
TCOPTIONALDATA
  5
204
102
{ACAD_REACTORS
330
203
102
}
330
203
100
TcOptionalData
 70
     1
 70
    32
 40
-3.0
  0
TCOPTIONALDATA
  5
207
102
{ACAD_REACTORS
330
206
102
}
330
206
100
TcOptionalData
 70
     1
 70
    32
 40
-3.0
  0
TCOPTIONALDATA
  5
20A
102
{ACAD_REACTORS
330
209
102
}
330
209
100
TcOptionalData
 70
     1
 70
    32
 40
-3.0
  0
TCOPTIONALDATA
  5
20D
102
{ACAD_REACTORS
330
20C
102
}
330
20C
100
TcOptionalData
 70
     1
 70
    32
 40
-3.0
  0
TCOPTIONALDATA
  5
210
102
{ACAD_REACTORS
330
20F
102
}
330
20F
100
TcOptionalData
 70
     1
 70
    32
 40
-3.0
  0
TCOPTIONALDATA
  5
213
102
{ACAD_REACTORS
330
212
102
}
330
212
100
TcOptionalData
 70
     1
 70
    32
 40
-3.0
  0
TCOPTIONALDATA
  5
216
102
{ACAD_REACTORS
330
215
102
}
330
215
100
TcOptionalData
 70
     1
 70
    32
 40
-3.0
  0
TCOPTIONALDATA
  5
219
102
{ACAD_REACTORS
330
218
102
}
330
218
100
TcOptionalData
 70
     1
 70
    32
 40
-3.0
  0
TCOPTIONALDATA
  5
21E
102
{ACAD_REACTORS
330
21D
102
}
330
21D
100
TcOptionalData
 70
     1
 70
    32
 40
-3.0
  0
TCOPTIONALDATA
  5
221
102
{ACAD_REACTORS
330
220
102
}
330
220
100
TcOptionalData
 70
     1
 70
    32
 40
-3.0
  0
LAYOUT
  5
1E
102
{ACAD_REACTORS
330
1A
102
}
330
1A
100
AcDbPlotSettings
  1

  2
none_device
  4
ISO_A4_(210.00_x_297.00_MM)
  6

 40
3.174987792969
 41
4.180404663086
 42
13.239753723145
 43
4.180416584015
 44
210.0
 45
297.0
 46
10.15707892699
 47
-1.206330254982
 48
0.0
 49
0.0
140
0.0
141
0.0
142
1.0
143
1.0
 70
   672
 72
     1
 73
     1
 74
     5
  7

 75
    16
 76
     0
 77
     2
 78
   300
147
1.0
148
0.0
149
0.0
100
AcDbLayout
  1
Layout1
 70
     1
 71
     1
 10
-13.332066719959
 20
-2.974074408104
 11
283.593928153088
 21
206.999253228615
 12
0.0
 22
0.0
 32
0.0
 14
-13.332066719959
 24
-2.974074408104
 34
0.0
 15
283.593928153088
 25
206.999253228615
 35
0.0
146
0.0
 13
0.0
 23
0.0
 33
0.0
 16
1.0
 26
0.0
 36
0.0
 17
0.0
 27
1.0
 37
0.0
 76
     0
330
1B
331
223
  0
LAYOUT
  5
3C
102
{ACAD_REACTORS
330
1A
102
}
330
1A
100
AcDbPlotSettings
  1

  2
none_device
  4
ISO_C5_(229.00_x_162.00_MM)
  6

 40
0.0
 41
0.0
 42
0.0
 43
0.0
 44
229.0
 45
162.0
 46
0.0
 47
0.0
 48
0.0
 49
0.0
140
0.0
141
0.0
142
1.0
143
1.0
 70
   672
 72
     1
 73
     0
 74
     5
  7

 75
    16
 76
     0
 77
     2
 78
   300
147
1.0
148
0.0
149
0.0
100
AcDbLayout
  1
Layout2
 70
     1
 71
     2
 10
0.0
 20
0.0
 11
0.0
 21
0.0
 12
0.0
 22
0.0
 32
0.0
 14
0.0
 24
0.0
 34
0.0
 15
0.0
 25
0.0
 35
0.0
146
0.0
 13
0.0
 23
0.0
 33
0.0
 16
1.0
 26
0.0
 36
0.0
 17
0.0
 27
1.0
 37
0.0
 76
     0
330
3B
331
225
  0
LAYOUT
  5
22
102
{ACAD_REACTORS
330
1A
102
}
330
1A
100
AcDbPlotSettings
  1

  2
none_device
  4
ISO_C5_(229.00_x_162.00_MM)
  6

 40
3.174987792969
 41
4.180404663086
 42
13.239753723145
 43
4.180416584015
 44
229.0
 45
162.0
 46
33.50946794972901
 47
-108.3494618695385
 48
0.0
 49
0.0
140
0.0
141
0.0
142
1.0
143
0.5848697867125713
 70
  1712
 72
     1
 73
     1
 74
     0
  7

 75
     0
 76
     0
 77
     2
 78
   300
147
1.709782284396647
148
0.0
149
0.0
100
AcDbLayout
  1
Model
 70
     1
 71
     0
 10
-36.68445574269801
 20
104.1690572064525
 11
90.906447257305
 21
104.1690572064635
 12
0.0
 22
0.0
 32
0.0
 14
-36.68445574269801
 24
104.1690572064525
 34
0.0
 15
90.906447257305
 25
104.1690572064635
 35
0.0
146
0.0
 13
0.0
 23
0.0
 33
0.0
 16
1.0
 26
0.0
 36
0.0
 17
0.0
 27
1.0
 37
0.0
 76
     0
330
1F
331
29
  0
MLINESTYLE
  5
18
102
{ACAD_REACTORS
330
17
102
}
330
17
100
AcDbMlineStyle
  2
Standard
 70
     0
  3

 62
   256
 51
90.0
 52
90.0
 71
     4
 49
0.5
 62
   256
  6
BYLAYER
 49
-0.5
 62
   256
  6
BYLAYER
 49
0.5
 62
   256
  6
BYLAYER
 49
-0.5
 62
   256
  6
BYLAYER
  0
ACDBPLACEHOLDER
  5
F
102
{ACAD_REACTORS
330
E
102
}
330
E
  0
VISUALSTYLE
  5
2F
102
{ACAD_REACTORS
330
2A
102
}
330
2A
100
AcDbVisualStyle
  2
2dWireframe
 70
     4
 71
     0
 72
     2
 73
     0
 90
        0
 40
-0.6
 41
-30.0
 62
     5
 63
     7
421
 16777215
 74
     1
 91
        4
 64
     7
 65
   257
 75
     1
175
     1
 42
1.0
 92
        0
 66
   257
 43
1.0
 76
     1
 77
     6
 78
     2
 67
     7
 79
     5
170
     0
171
     0
290
     0
174
     0
 93
        1
 44
0.0
173
     0
291
     0
 45
0.0
1001
ACAD
1000
AcDbSavedByObjectVersion
1070
     0
  0
VISUALSTYLE
  5
31
102
{ACAD_REACTORS
330
2A
102
}
330
2A
100
AcDbVisualStyle
  2
3D Hidden
 70
     6
 71
     1
 72
     2
 73
     2
 90
        0
 40
-0.6
 41
-30.0
 62
     5
 63
     7
421
 16777215
 74
     2
 91
        2
 64
     7
 65
   257
 75
     2
175
     1
 42
40.0
 92
        0
 66
   257
 43
1.0
 76
     1
 77
     6
 78
     2
 67
     7
 79
     3
170
     0
171
     0
290
     0
174
     0
 93
        1
 44
0.0
173
     0
291
     0
 45
0.0
1001
ACAD
1000
AcDbSavedByObjectVersion
1070
     0
  0
VISUALSTYLE
  5
30
102
{ACAD_REACTORS
330
2A
102
}
330
2A
100
AcDbVisualStyle
  2
3dWireframe
 70
     5
 71
     0
 72
     2
 73
     0
 90
        0
 40
-0.6
 41
-30.0
 62
     5
 63
     7
421
 16777215
 74
     1
 91
        4
 64
     7
 65
   257
 75
     1
175
     1
 42
1.0
 92
        0
 66
   257
 43
1.0
 76
     1
 77
     6
 78
     2
 67
     7
 79
     5
170
     0
171
     0
290
     0
174
     0
 93
        1
 44
0.0
173
     0
291
     0
 45
0.0
1001
ACAD
1000
AcDbSavedByObjectVersion
1070
     0
  0
VISUALSTYLE
  5
32
102
{ACAD_REACTORS
330
2A
102
}
330
2A
100
AcDbVisualStyle
  2
Basic
 70
     7
 71
     1
 72
     0
 73
     1
 90
        0
 40
-0.6
 41
-30.0
 62
     5
 63
     7
421
 16777215
 74
     0
 91
        4
 64
     7
 65
   257
 75
     1
175
     1
 42
1.0
 92
        8
 66
     7
 43
1.0
 76
     1
 77
     6
 78
     2
 67
     7
 79
     5
170
     0
171
     0
290
     0
174
     0
 93
        1
 44
0.0
173
     0
291
     1
 45
0.0
1001
ACAD
1000
AcDbSavedByObjectVersion
1070
     0
  0
VISUALSTYLE
  5
36
102
{ACAD_REACTORS
330
2A
102
}
330
2A
100
AcDbVisualStyle
  2
Brighten
 70
    12
 71
     2
 72
     2
 73
     0
 90
        0
 40
-0.6
 41
-30.0
 62
     5
 63
     7
421
 16777215
 74
     1
 91
        4
 64
     7
 65
   257
 75
     1
175
     1
 42
1.0
 92
        8
 66
     7
 43
1.0
 76
     1
 77
     6
 78
     2
 67
     7
 79
     5
170
     0
171
     0
290
     0
174
     0
 93
        1
 44
50.0
173
     0
291
     1
 45
0.0
1001
ACAD
1000
AcDbSavedByObjectVersion
1070
     0
  0
VISUALSTYLE
  5
3A
102
{ACAD_REACTORS
330
2A
102
}
330
2A
100
AcDbVisualStyle
  2
ColorChange
 70
    16
 71
     2
 72
     2
 73
     3
 90
        0
 40
-0.6
 41
-30.0
 62
     5
 63
     8
421
  8421504
 74
     1
 91
        4
 64
     7
 65
   257
 75
     1
175
     1
 42
1.0
 92
        8
 66
     8
424
  8421504
 43
1.0
 76
     1
 77
     6
 78
     2
 67
     7
 79
     5
170
     0
171
     0
290
     0
174
     0
 93
        1
 44
0.0
173
     0
291
     1
 45
0.0
1001
ACAD
1000
AcDbSavedByObjectVersion
1070
     0
  0
VISUALSTYLE
  5
34
102
{ACAD_REACTORS
330
2A
102
}
330
2A
100
AcDbVisualStyle
  2
Conceptual
 70
     9
 71
     3
 72
     2
 73
     0
 90
        0
 40
-0.6
 41
-30.0
 62
     5
 63
     7
421
 16777215
 74
     2
 91
        2
 64
     7
 65
   257
 75
     1
175
     1
 42
40.0
 92
        8
 66
     7
 43
1.0
 76
     1
 77
     6
 78
     2
 67
     7
 79
     3
170
     0
171
     0
290
     0
174
     0
 93
        1
 44
0.0
173
     0
291
     0
 45
0.0
1001
ACAD
1000
AcDbSavedByObjectVersion
1070
     0
  0
VISUALSTYLE
  5
35
102
{ACAD_REACTORS
330
2A
102
}
330
2A
100
AcDbVisualStyle
  2
Dim
 70
    11
 71
     2
 72
     2
 73
     0
 90
        0
 40
-0.6
 41
-30.0
 62
     5
 63
     7
421
 16777215
 74
     1
 91
        4
 64
     7
 65
   257
 75
     1
175
     1
 42
1.0
 92
        8
 66
     7
 43
1.0
 76
     1
 77
     6
 78
     2
 67
     7
 79
     5
170
     0
171
     0
290
     0
174
     0
 93
        1
 44
-50.0
173
     0
291
     1
 45
0.0
1001
ACAD
1000
AcDbSavedByObjectVersion
1070
     0
  0
VISUALSTYLE
  5
39
102
{ACAD_REACTORS
330
2A
102
}
330
2A
100
AcDbVisualStyle
  2
Facepattern
 70
    15
 71
     2
 72
     2
 73
     0
 90
        0
 40
-0.6
 41
-30.0
 62
     5
 63
     7
421
 16777215
 74
     1
 91
        4
 64
     7
 65
   257
 75
     1
175
     1
 42
1.0
 92
        8
 66
     7
 43
1.0
 76
     1
 77
     6
 78
     2
 67
     7
 79
     5
170
     0
171
     0
290
     0
174
     0
 93
        1
 44
0.0
173
     0
291
     1
 45
0.0
1001
ACAD
1000
AcDbSavedByObjectVersion
1070
     0
  0
VISUALSTYLE
  5
2B
102
{ACAD_REACTORS
330
2A
102
}
330
2A
100
AcDbVisualStyle
  2
Flat
 70
     0
 71
     2
 72
     1
 73
     1
 90
        2
 40
-0.6
 41
30.0
 62
     5
 63
     7
421
 16777215
 74
     0
 91
        4
 64
     7
 65
   257
 75
     1
175
     1
 42
1.0
 92
        8
 66
     7
 43
1.0
 76
     1
 77
     6
 78
     2
 67
     7
 79
     5
170
     0
171
     0
290
     0
174
     0
 93
       13
 44
0.0
173
     0
291
     1
 45
0.0
1001
ACAD
1000
AcDbSavedByObjectVersion
1070
     0
  0
VISUALSTYLE
  5
2C
102
{ACAD_REACTORS
330
2A
102
}
330
2A
100
AcDbVisualStyle
  2
FlatWithEdges
 70
     1
 71
     2
 72
     1
 73
     1
 90
        2
 40
-0.6
 41
30.0
 62
     5
 63
     7
421
 16777215
 74
     1
 91
        4
 64
     7
 65
   257
 75
     1
175
     1
 42
1.0
 92
        0
 66
   257
 43
1.0
 76
     1
 77
     6
 78
     2
 67
     7
 79
     5
170
     0
171
     0
290
     0
174
     0
 93
       13
 44
0.0
173
     0
291
     1
 45
0.0
1001
ACAD
1000
AcDbSavedByObjectVersion
1070
     0
  0
VISUALSTYLE
  5
2D
102
{ACAD_REACTORS
330
2A
102
}
330
2A
100
AcDbVisualStyle
  2
Gouraud
 70
     2
 71
     2
 72
     2
 73
     1
 90
        2
 40
-0.6
 41
30.0
 62
     5
 63
     7
421
 16777215
 74
     0
 91
        4
 64
     7
 65
   257
 75
     1
175
     1
 42
1.0
 92
        0
 66
     7
 43
1.0
 76
     1
 77
     6
 78
     2
 67
     7
 79
     5
170
     0
171
     0
290
     0
174
     0
 93
       13
 44
0.0
173
     0
291
     1
 45
0.0
1001
ACAD
1000
AcDbSavedByObjectVersion
1070
     0
  0
VISUALSTYLE
  5
2E
102
{ACAD_REACTORS
330
2A
102
}
330
2A
100
AcDbVisualStyle
  2
GouraudWithEdges
 70
     3
 71
     2
 72
     2
 73
     1
 90
        2
 40
-0.6
 41
30.0
 62
     5
 63
     7
421
 16777215
 74
     1
 91
        4
 64
     7
 65
   257
 75
     1
175
     1
 42
1.0
 92
        0
 66
   257
 43
1.0
 76
     1
 77
     6
 78
     2
 67
     7
 79
     5
170
     0
171
     0
290
     0
174
     0
 93
       13
 44
0.0
173
     0
291
     1
 45
0.0
1001
ACAD
1000
AcDbSavedByObjectVersion
1070
     0
  0
VISUALSTYLE
  5
38
102
{ACAD_REACTORS
330
2A
102
}
330
2A
100
AcDbVisualStyle
  2
Linepattern
 70
    14
 71
     2
 72
     2
 73
     0
 90
        0
 40
-0.6
 41
-30.0
 62
     5
 63
     7
421
 16777215
 74
     1
 91
        4
 64
     7
 65
   257
 75
     7
175
     7
 42
1.0
 92
        8
 66
     7
 43
1.0
 76
     1
 77
     6
 78
     2
 67
     7
 79
     5
170
     0
171
     0
290
     0
174
     0
 93
        1
 44
0.0
173
     0
291
     1
 45
0.0
1001
ACAD
1000
AcDbSavedByObjectVersion
1070
     0
  0
VISUALSTYLE
  5
33
102
{ACAD_REACTORS
330
2A
102
}
330
2A
100
AcDbVisualStyle
  2
Realistic
 70
     8
 71
     2
 72
     2
 73
     0
 90
        0
 40
-0.6
 41
-30.0
 62
     5
 63
     7
421
 16777215
 74
     1
 91
        0
 64
     7
 65
   257
 75
     1
175
     1
 42
1.0
 92
        8
 66
     8
424
  7895160
 43
1.0
 76
     1
 77
     6
 78
     2
 67
     7
 79
     5
170
     0
171
     0
290
     0
174
     0
 93
       13
 44
0.0
173
     0
291
     0
 45
0.0
1001
ACAD
1000
AcDbSavedByObjectVersion
1070
     0
  0
VISUALSTYLE
  5
37
102
{ACAD_REACTORS
330
2A
102
}
330
2A
100
AcDbVisualStyle
  2
Thicken
 70
    13
 71
     2
 72
     2
 73
     0
 90
        0
 40
-0.6
 41
-30.0
 62
     5
 63
     7
421
 16777215
 74
     1
 91
        4
 64
     7
 65
   257
 75
     1
175
     1
 42
1.0
 92
       12
 66
     7
 43
1.0
 76
     1
 77
     6
 78
     2
 67
     7
 79
     5
170
     0
171
     0
290
     0
174
     0
 93
        1
 44
0.0
173
     0
291
     1
 45
0.0
1001
ACAD
1000
AcDbSavedByObjectVersion
1070
     0
  0
ENDSEC
  0
SECTION
  2
THUMBNAILIMAGE
 90
    16364
310
28000000B40000005500000001000800000000000000000000000000000000000000000000000000FFFFFF000000FF0000FFFF0000FF0000FFFF0000FF000000FF00FF000000000080808000C0C0C0000000FF007F7FFF000000A5005252A50000007F003F3F7F0000004C0026264C000000260013132600003FFF007F9FFF
310
000029A5005267A500001F7F003F4F7F0000134C00262F4C000009260013172600007FFF007FBFFF000052A500527CA500003F7F003F5F7F0000264C0026394C0000132600131C260000BFFF007FDFFF00007CA5005291A500005F7F003F6F7F0000394C0026424C00001C26001321260000FFFF007FFFFF0000A5A50052A5
310
A500007F7F003F7F7F00004C4C00264C4C00002626001326260000FFBF007FFFDF0000A57C0052A59100007F5F003F7F6F00004C3900264C420000261C001326210000FF7F007FFFBF0000A5520052A57C00007F3F003F7F5F00004C2600264C39000026130013261C0000FF3F007FFF9F0000A5290052A56700007F1F003F
310
7F4F00004C1300264C2F00002609001326170000FF00007FFF7F0000A5000052A55200007F00003F7F3F00004C0000264C260000260000132613003FFF00009FFF7F0029A5000067A552001F7F00004F7F3F00134C00002F4C260009260000172613007FFF0000BFFF7F0052A500007CA552003F7F00005F7F3F00264C0000
310
394C2600132600001C261300BFFF0000DFFF7F007CA5000091A552005F7F00006F7F3F00394C0000424C26001C26000021261300FFFF0000FFFF7F00A5A50000A5A552007F7F00007F7F3F004C4C00004C4C26002626000026261300FFBF0000FFDF7F00A57C0000A59152007F5F00007F6F3F004C3900004C422600261C00
310
0026211300FF7F0000FFBF7F00A5520000A57C52007F3F00007F5F3F004C2600004C39260026130000261C1300FF3F0000FF9F7F00A5290000A56752007F1F00007F4F3F004C1300004C2F26002609000026171300FF000000FF7F7F00A5000000A55252007F0000007F3F3F004C0000004C2626002600000026131300FF00
310
3F00FF7F9F00A5002900A55267007F001F007F3F4F004C0013004C262F002600090026131700FF007F00FF7FBF00A5005200A5527C007F003F007F3F5F004C0026004C2639002600130026131C00FF00BF00FF7FDF00A5007C00A55291007F005F007F3F6F004C0039004C26420026001C0026132100FF00FF00FF7FFF00A5
310
00A500A552A5007F007F007F3F7F004C004C004C264C002600260026132600BF00FF00DF7FFF007C00A5009152A5005F007F006F3F7F0039004C0042264C001C002600211326007F00FF00BF7FFF005200A5007C52A5003F007F005F3F7F0026004C0039264C00130026001C1326003F00FF009F7FFF002900A5006752A500
310
1F007F004F3F7F0013004C002F264C000900260017132600000000002D2D2D005B5B5B0089898900B7B7B700B3B3B30000000000000000000000000000000000000000000000000000000000000000000000000000000000000000000000000000000000000000000000000000000000000000000000000000000000000000
310
00000000000000000000000000000000000000000000000000000000000000000000000000000000000000000000000000000000000000000000000000000000000000000000000000000000000000000000000000000000000000000000000000000000000000000000000000000000000000000000000000000000000000
310
00000000000000000000000000000000000000000000000000000000000000000000000000000000000000000000000000000000000000000000000000000000000000000000000000000000000000000000000000000000000000000000000000000000000000000000000000000000000000000000000000000000000000
310
00000000000000000000000000000000000000000000000000000000000000000000000000000000000000000000000000000000000000000000000000000000000000000000000000000000000000000000000000000000000000000000000000000000000000000000000000000000000000000000000000000000000000
310
00000000000000000000000000000000000000000000000000000000000000000000000000000000000000000000000000000000000000000000000000000000000000000000000000000000000000000000000000000000000000000000000000000000000000000000000000000000000000000000000000000000000000
310
00000000000000000000000000000000000000000000000000000000000000000000000000000000000000000000000000000000000000000000000000000000000000000000000000000000000000000000000000000000000000000000000000000000000000000000000000000000000000000000000000000000000000
310
00000000000000000000000000000000000000000000000000000000000000000000000000000000000000000000000000000000000000000000000000000000000000000000000000000000000000000000000000000000000000000000000000000000000000000000000000000000000000000000000000000000000000
310
00000000000000000000000000000000000000000000000000000000000000000000000000000000000000000000000000000000000000000000000000000000000000000000000000000000000000000000000000000000000000000000000000000000000000000000000000000000000000000000000000000000000001
310
01010101010101010101010000000000000000000000000000000000000000000000000000000000000000000000000000000000000000000000000000010101010101010101010101010101010101010101010101010101010101010101010101010101010100000000000000000000000000000000000000000000000000
310
00000000000000000000000000000000000000000000000000000000000000000000000000000000000000000000000001010101000000000000000000000001000000000000000000000000000000000000000000000000000000000000000000000000000000000000000000000000000001000000000000000000000000
310
00000000000000000000000000000000000000000000000000010000010100000000000000000000000000000000000000000000000000000000000000000000000000000000000000000000000000000000000000000000000000000000000000010101010000000000000000000000000000000100000000000000000000
310
00000000000000000000000000000000000000000000000000000000000000000000000000000000010000000000000000000000000000000000000000000000000000000000000000000000000001000000010000000000000000000000000000000000000000000000000000000000000000000000000000000000000000
310
00000000000000000000000000000000000000010101010000000000000000000000000000000000000001000000000000000000000000000000000000000000000000000000000000000000000000000000000000000000000000000001000000000000000000000000000000000000000000000000000000000000000000
310
00000000010000000001000000000000000000000000000000010101010101010101010100000000000000000000000000000000000000000000000000000000000000000101010101010101010101010101010101010101010101010101010100000000000000000000000000000000000000000000000000000000000000
310
00000000000000000000000000000000000000010000000101010101010101010101010101010101010101010101010101010101010101010101010101010100000000000000000000000000000001000000000000000000010000000000000000000000000000000000000000000000000000000001010101000000000000
310
00000000000000000000000000010000000100000001000000000000000000000000000000000000000000000000000000000000000000000000000000000000000000000000000001000000010000010100000000010101010000000000000000000000000000000000000000000100000000010000000000000000000000
310
00000000010000000000000000000001000000000000000000000000000000000000000000000000000101000000000000000000000000000000000000000000000001000000010000000100000000000000000000000000000000000000000000000000000000000000000000000000000000000000000000000000000100
310
00000101010000000000000000000001000000000000000000000000000000000000000001010101010100000000000000000000000000000001000000000000000000000100000000000000000000000000000000000000000000000001000000000000000000000000000000000000000000010101010100000001010101
310
01000000000000000000000000000000000000000000000000000000000000000000000000000000000000000000000000000001000001010000000000000000000000000001010000000101010101010101010101010101010100000000010000000000000000000000000000000100000000000000000000010000000000
310
00000000000000000000000000000000000001000000000000000000000000000000000000000000000100000001000000010000000100000000000000000000000000000000000000000000000000000000000000000000000000000000000000000000000000000100010001000000000000000000000000000000010000
310
01000000000000000000000000010001000000000100000000000000000000000000000001000000000000000000000100000000000000000000000000000000000000000000010000000000000000000000000000000000000000000001000000000100000001000000010000000000000000000000000000000000000000
310
00000000000000000000000000000000000000000000000000000000000001000100010000000000000000000000000000000001000100000000000000000000000001000100000000010000000000000000000000000000000100000000000000000000000100000000000000000000000000000000000000000001000000
310
00000000000000000000000000000000000000010000000001000000010000000100000000000000000000000000000000000000000000000000000000000000000000000000000000000000000000000000000101000001000000000001010100000000000000000100010000000000000000000000000100010101010101
310
00000000000000000000000000000001000000000000000000000001000000000000000000000000000000000000000000010000000000000000000000000000000000000000000100000000000100000001000000010000000000000000000000000000000000000000000000000000000000000000000000000000000000
310
00000000000000000001010000010000000101000000010101000000000000010100000000000000000000000001000100000000010000000000000000000000000000000100000000000000000000000100000000000000000000000000000000000000000001000000000000000000000000000000000000000000010000
310
00000001000000010000000100000000000000000000000000000000000000000000000000000000000000000000000000000000000000000000000000000100000001000001000000000000000100000000000001010000000000000000000000000100010000000001000000000000000000000000000000010000000000
310
00000000000000010000000000000000000000000000000000000000010000000000000000000000000000000000000000000100000000000100000001000000010000000000000000000000000000000000000000000000000000000000000000000000000000000000000000000000000000010000000100000100000000
310
00000001000000000000010100000000000000000000000001000100000000010000000000000000000000000000000100000000000000000000000001000000000000000000000000000000000000000001000000000000000000000000000000000000000001000000000000010000000100000001000000000000000000
310
00000000000000000000000000000000000000000000000000000000000000000000000000000000000100000001000100000000000000000001000000000000010000000000000000000000000100010000000001000000000000000000000000000000010001000000000000000000000100000000000000000000000000
310
00000000000000010000000000000000000000000000000000000000010000000000000100000001000000010000000000000000000000000000000000000000000000000000000000000000000000000000000000000000000000000000010000000100010000000000000000000100000000000001000000000000000000
310
00000001000100000000010000000000000000000000000000000100010100000000000000000000010000000000000000000000000000000000000001000000000000000000000000000000000000000001000000000000010000000100000001000000000000000000000000000000000000000000000000000000000000
310
00000000000000000000000000000000000000000100000001000100000000000000000001000000000000010000000000000000000000000100010000000001000000000000000000000000000000010000010100000000000000000001000000000000000000000000000000000000000100000000000000000000000000
310
00000000000000000100000000000100000001000000010000000000000000000000000000000000000000000000000000000000000000000000000000000000000000000000000000010100000100000100000000000000010000000000000101000000000000000000000000010001000000000100000000000000000000
310
00000000000100000101000000000000000000010000000000000000000000000000000000000001000000000000000000000000000000000000000000010000000000010000000100000001000000000000000000000000000000000000000000000000000000000000000000000000000000000000000000000000000001
310
01000001000001000000000000000100000000000001010000000000000000000000000100010101010101000000000000000000000000000000010000010100000000000000000001000000000000000000000000000000000000000100000000000000000000000000000000000000000001000000000001000000010000
310
00010000000000000000000000000000000000000000000000000000000000000000000000000000000000000000000000000000010100000100000001010000000001010000000000000101000000000000000000000000010001000000000100000000000000000000000000000001000000010100000000000000000001
310
00000000000000000000000000000000000000010000000000000000000000000000000000000000000100000000010000000100000001000000000000000000000000000000000000000000000000000000000000000000000000000000000000000000000000000001000100010000000000010101010000000000000001
310
00010000000000000000000000000100010000000001000000000000000000000000000000010000000100010000000000000000010000000000000000000000000000000000000000010101000000000000000000000000000000000000010000000001000000010000000100000000000000000000000000000000000000
310
00000000000000000000000000000000000000000000000000000000000000010000010100000000000000000000000000000000010001000000000000000000000000010001010101010100000000000000000000000000000001000000000101000000000000000001000000000000000000000000000000000000000000
310
00000101000000000000000000000000000000000001000000010000000100000001000000000000000000000000000000000000000000000000000000000000000000000000000000000000000000000000000001000001010000000000000000000000000000000100010100000000000000000000000001000100000000
310
01000000000000000000000000000000010000000001010000000000000000000100000000000000000000000000000000000000000000000001010100000000000000000000000000000101010101000000010101010100000000000000000000000000000000000000000000000000000000000000000000000000000000
310
00000000000000000000010100000100000000000000000000000000000100010001010101010101010101010101010101000000000100000000000000000000000000000001000000000100010000000000000000010000000000000000000000000000000000000000000000000000000101000000000000000000000000
310
00000000010000000100000001000000000000000000000000000000000000000000000000000000000000000000000000000000000000000000000000000001000101010101000000000000000000000001000100000100000000000000000000000000000100000000010000000000000000000000000000000100000000
310
00010100000000000000000100000000000000000000000000000000000000000000000000000000000101010000000000000000000000000001000000010000000100000000000000000000000000000000000000000000000000000000000000000000000000000000000000000000000000000100000001000001010100
310
00000000010101000100000001000000000000000000000000000001000000000100000000000000000000000000000001010101010101010000000000000000010000000000000000000000000000000000000000000000000000000000000000010101010101010101010101010101010101010101010000000000000000
310
00000000000000000000000000000000000000000000000000000000000000000000000000000000000001000000010101010101010101010101010101010101010101010101010101010101010101010101010101010000000000000000000000000000000000000000000001000000000000000000010000000000000000
310
00000000000000000000000000000000000000000000000000010101000000000000000000000000000000000100000000000000000000000000000000000000000000000000000000000000000000000000000000000000000000000000000100000000000101010101010101010101010000000000010000000000000000
310
00000000000001000000000100000000000000000000000000000000000000000000000100000000000000000100000000000000000000000000000000000000000000000000000000000000000001000001010100000000000000000000000000010000000000000000000000000000000000000000000000000000000000
310
00000000000000000000000000000000000000000001000000000000000000000000000000000000000000000100000000000000000000000000000100000001000000000000000000000000000000000000000000000000010000000000000000010000000000000000000000000000000000000000000000000000000000
310
00000001000000000000010100000000000000000000000100000000000000000000000000000000000000000000000000000000000000000000000000000000000000000000000000000100000000000000000000000000000000000000000000010000000000000000000000000000010000010100000000000000000000
310
00000000000000000000000000000001000000000000000001000000000000000000000000000000000000000000000000000000000000000100000000000000000101010101010101010101010000000000000000000000000000000000000000000000000000000000000000000000000000000000000000000000000000
310
01000000000000000000000000000000000000000000000101010101010101010101010101010101010000000000000000000000000000000000000000000000000000000100000000000000000100000000000000000000000000000000000000000000000000000000000000010000000000000001010000000000000000
310
00000000000000000000000000000000000000000000000000000000000000000000000000000000000000000000000000000000000100000000000000000000000000000000000000000000010000000000000000000000000000000000000000000000000000000000000000000000000000000000000000010000000000
310
00000001000000000000000000000000000000000000000000000000000000000000010000000000000001000000000000000000000000000000000000000000000000000000000000000000000000000000000000000000000000000000000000000000000000000000010000000000000000000000000000000000000000
310
00000100000000000000000000000000000000000000000000000000000000000000000000000000000000000000000001000000000000000001000000000000000000000000000000000000000000000000000000000001000000000000000100000000000000000000000000000000000000000000000000000000000000
310
00000000000000000000000000000000000000000000000000000000000000000100000000000000000000000000000000000000000000010000000000000000000000000000000000000000000000000000000000000000000000000000000000000000000100000000000000000100000000000000000000000000000000
310
00000000000000000000000000010000000000000001000000000000000000000000000000000000000000000000000000000000000000000000000000000000000000000000000000000000000000000000000000010000000000000000000000000000000000000000000001000000000000000000000000000000000000
310
00000000000000000000000000000000000000000000000000000001000000000000000001000000000000000000000000000000000000000000000000000000000100000000000000010000000000000000000000000000000000000000000000000000000000000000000000000000000000000000000000000000000000
310
00000000000000000000000100000000000000000000000000000000000000000000010000000000000000000000000000000000000000000000000000000000000000000000000000000000000000000001000000000000000100000000000000000000000000000000000000000000000000000000010000000000000001
310
00000000000000000000000000000000000000000000000000000000000000000000000000000000000000000000000000000000000000000000000000000000010000000000000000000000000000000000000000000001000000000000000000000000000000000000000000000000000000000000000000000000000000
310
00000000000000010000000000000000010000000000000000000000000000000000000000000000000000000100000000000000010000000000000000000000000000000000000000000000000000000000000000000000000000000000000000000000000000000000000000000000000000000001000000000000000000
310
00000000000000000000000000010000000000000000000000000000000000000000000000000000000000000000000000000000000000000000000001000000000000000001000000000000000000000000000000000000000000000000000001000000000000000001000000000000000000000000000000000000000000
310
00000000000000000000000000000000000000000000000000000000000000000000000000000000000000010000000000000000000000000000000000000000000001000000000000000000000000000000000000000000000000000000000000000000000000000000000000000000000001000000000000000100000000
310
00000000000000000000000000000000000000000000010000000000000001000000000000000000000000000000000000000000000000000000000000000000000000000000000000000000000000000000000000000000000000000000000001000000000000000000000000000000000000000000000100000000000000
310
00000000000000000000000000000000000000000000000000000000000000000000000000000000010000000000000000010000000000000000000000000000000000000000000000010100000000000000000100000000000000000000000000000000000000000000000000000000000000000000000000000000000000
310
00000000000000000000000000000000000000000000010000000000000000000000000000000000000000000001000000000000000000000000000000000000000000000000000000000000000000000000000000000000000000000001000000000000000000010101010101010101010101010101010101010101010100
310
00000000000000000001000000000000000000000000000000000000000000000000000000000000000000000000000000000000000000000000000000000000000000000000000000000001000000000000000000000000000000000000000000000100000000000000000000000000000000000000000000000000000000
310
00000000000000000000000000000000000000000100000000000000000000000000000000000000000000000000000000000000000000000000000000010000000000000000000000000000000000000000000000000000000000000000000000000000000000000000000000000000000000000000000000000000000000
310
00010000000000000000000001000000000000000000000001000000000000000000000000000000000000000000000000000000000000000000000000000000000000000000000000010000000000000000000000000000000000000000000000000000000000000000000000000000000001000000000000000000000000
310
00000000000000000000000000000000000000000000000000000000000000000000000000000000000000000000000000000000000001000000000000000001010001010000000000000000000100000000000000000000000000000000000000000000000000000000000000000000000000000000000000000000000001
310
00000000000000000000000000000000000000000000000000000000000000000000000000000000010000000000000000000000000000000000000000000000000000000000000000000000000000000000000000000000000000000000000000000000000000000000000100000000000000010000000000010100000000
310
00000001000000000000000000000000000000000000000000000000000000000000000000000000000000000000000000000000000100000000000000000000000000000000000000000000000000000000000000000000000000000100000000000000000000000000000000000000000000000000000000000000000000
310
00000000000000000000000000000000000000000000000000000000000000000001000000000000010000000000000001000000000000000100000000000000000000000000000000000000000000000000000000000000000000000000000000000000000000000000010000000000000000000000000000000000000000
310
00000000000000000000000000000000000001000000000000000000000000000000000000000000000000000000000000000000000000000000000000000000000000000000000000000000000000000000000000000100000000000001000000000000000001000000000000010000000000000000000000000000000000
310
00000000000000000000000000000000000000000000000000000000000000000100000000000000000000000000000000000000000000000000000000000000000000000000000100000000000000000000000000000000000000000000000000000000000000000000000000000000000000000000000000000000000000
310
00000000000000000000000001000000000001000000000000000000010000000000000100000000000000000000000000000000000000000000000000000000000000000000000000000000000000000000000000000100000000000000000000000000000000000000000000000000000000000000000000000000010000
310
00000000000000000000000000000000000000000000000000000000000000000000000000000000000000000000000000000000000000000000000000000000000100000000000100000000000000000001000000000000010000000000000000000000000000000000000000000000000000000000000000000000000000
310
00000000000000000000000001000000000000000000000000000000000000000000000000000000000000000000000000010000000000000000000000000000000000000000000000000000000000000000000000000000000000000000000000000000000000000000000000000000000000000000010000000000010000
310
00000000000000010000000000000100000000000000000000000000000000000000000000000000000000000000000000000000000000000000000000000000000100000000000000000000000000000000000000000000000000000000000000000000000001000000000000000000000000000000000000000000000000
310
00000000000000000000000000000000000000000000000000000000000000000000000000000000000000000100000000000100000000000000000001000000000000010000000000000000000000000000000000000000000000000000000000000000000000000000000000000000000000000000000100000000000000
310
00000000000000000000000000000000000000000000000000000000010000000000000000000000000000000000000000000000000000000000000000000000000000000000000000000000000000000000000000000000000000000000000000010000000000010000000000000000000100000000000001000000000000
310
00000000000000000000000000000000000000000000000000000000000000000000000000000000000000000001000000000000000000000000000000000000000000000000000000000000000000000100000000000000000000000000000000000000000000000000000000000000000000000000000000000000000000
310
00000000000000000000000000000000000000000000000100000000000100000000000000000001000000000000010000000000000000000000000000000000000000000000000000000000000000000000000000000000000000000000000000000100000000000000000000000000000000000000000000000000000000
310
00000000000001000000000000000000000000000000000000000000000000000000000000000000000000000000000000000000000000000000000000000000000000000000000000000000010000000000010000000000000000000100000000000001000000000000000000000000000000000000000000000000000000
310
00000000000000000000000000000000000000000000000000010000000000000000000000000000000000000000000000000000000000000000000100000000000000000000000000000000000000000000000000000000000000000000000000000000000000000000000000000000000000000000000000000000000000
310
00000100000000000100000000000000000001000000000000010000000000000000000000000000000000000000000000000000000000000000000000000000000000000000000000000000000001000000000000000000000000000000000000000000000000000000000000000001000000000000000000000000000000
310
00000000000000000000000000000000000000000000000000000000000000000000000000000000000000000000000000000000000000010000000000010000000000000000000100000000000001000000000000000000000000000000000000000000000000000000000000000000000000000000000000000000000000
310
00000000010000000000000000000000000000000000000000000000000000000000000000010000000000000000000000000000000000000000000000000000000000000000000000000000000000000000000000000000000000000000000000000000000000000000000001000000000001000000000000000000010000
310
00000000010000000000000000000000000000000000000000000000000000000000000000000000000000000000000000000000000000000000010000000000000000000000000000000000000000000000000000000000000001000000000000000000000000000000000000000000000000000000000000000000000000
310
00000000000000000000000000000000000000000000000000000000000000000000010000000000010000000000000000000100000000000001000000000000000000000000000000000000000000000000000000000000000000000000000000000000000000000000000000000001000000000000000000000000000000
310
00000000000000000000000000000000010000000000000000000000000000000000000000000000000000000000000000000000000000000000000000000000000000000000000000000000000000000000000000000001000000000001000000000000000000010000000000000100000000000000000000000000000000
310
00000000000000000000000000000000000000000000000000000000000000000000000000010000000000000000000000000000000000000000000000000000000000000100000000000000000000000000000000000000000000000000000000000000000000000000000000000000000000000000000000000000000000
310
00000000000000000000000000010000000000010000000000000000000100000000000001000000000000000000000000000000000000000000000000000000000000000000000000000000000000000000000000000000000000010000000000000000000000000000000000000000000000000000000000010000000000
310
00000000000000000000000000000000000000000000000000000000000000000000000000000000000000000000000000000000000000000000000000000000000001000000000001000000000000000000010000000000000100000000000000000000000000000000000000000000000000000000000000000000000000
310
00000000000000000000000000000000000100000000000000000000000000000000000000000000000000000000000100000000000000000000000000000000000000000000000000000000000000000000000000000000000000000000000000000000000000000000000000000000000000000000000100000000000100
310
00000000000000000100000000000001000000000000000000000000000000000000000000000000000000000000000000000000000000000000000000000000000000000000010000000000000000000000000000000000000000000000000000000001000000000000000000000000000000000000000000000000000000
310
00000000000000000000000000000000000000000000000000000000000000000000000000000000000000000001000000000001000000000000000000010000000000000100000000000000000000000000000000000000000000000000000000000000000000000000000000000000000000000000000000000000010000
310
00000000000000000000000000000000000000000000000000010000000000000000000000000000000000000000000000000000000000000000000000000000000000000000000000000000000000000000000000000000000000000000000000000100000000000001000000000000000100000000000000010000000000
310
00000000000000000000000000000000000000000000000000000000000000000000000000000000000000000000000000000100000000000000000000000000000000000000000000000000000001000000000000000000000000000000000000000000000000000000000000000000000000000000000000000000000000
310
00000000000000000000000000000000000000000000000001000000000000010000000000000001000000000000000100000000000000000000000000000000000000000000000000000000000000000000000000000000000000000000000000000000000000010000000000000000000000000000000000000000000000
310
00000001000000000000000000000000000000000000000000000000000000000000000000000000000000000000000000000000000000000000000000000000000000000000000000000000000100000000000000010100000000010100000000000000010000000000000000000000000000000000000000000000000000
310
00000000000000000000000000000000000000000000000000000000000001000000000000000000000000000000000000000000000000000100000000000000000000000000000000000000000000000000000000000000000000000000000000000000000000000000000000000000000000000000000000000000000000
310
00000001000000000000000000010101010000000000000000000100000000000000000000000000000000000000000000000000000000000000000000000000000000000000000000000000000000000000000100000000000000000000000000000000000000000000000000010000000000000000000000000000000000
310
00000000000000000000000000000000000000000000000000000000000000000000000000000000000000000000000000000000000000000100000000000000000000000000000000000000000000010000000000000000000000000000000000000000000000000000000000000000000000000000000000000000000000
310
00000000000000000001000000000000000000000000000000000000000000000000000100000000000000000000000000000000000000000000000000000000000000000000000000000000000000000000000000000000000000000000000000000000000000000000000000010000000000000000000000000000000000
310
00000000000100000000000000000000000000000000000000000000000000000000000000000000000000000000000000000000000000000000000000000101010101010101010101010101010101010101010101010101010000000000000000000000000000000000000000000000000000000000000000000000000000
310
00000000000000000000000000000000000000000000000000000000000000000000000100000000000000000000000000000000000000000000010000000000000000000000000000000000000000000000000000000000000000000000000000000000000000000000000000000000000000000100000000000000000000
310
00000000000000000000000000010000000000000000000000000000000000000000000000000000000000000000000000000000000000000000000000000000000000000000000000000000000000000000000000000000010101010101010101010101010101010101010101010100000000000000000000000000000000
310
00000000000000000000000000000000000000000000000000000000000000000000000000000000000001000000000000000000000000000000000000000000000100000000000000000000000000000000000000000000000000000000000000000000000000000000000000000000000000000000000000000000000000
310
00000000000000000000000000000001000000000000000000000000000000000000000001000000000000000000000000000000000000000000000000000000000000000000000000000000000000000000000000000000000000000000000001000000000000000000000000000000000000000000010000000000000000
310
00000000000000000000000000000000000000000000000000000000000000000000000000000000000000000000000000000000000000000000000000000000000000000101000000000000000000000000000000000000010000000000000000000000000000000000000000000000000000000000000000000000000000
310
00000000000000000000000000000000000000000000000101010101010101010101010101010101010101010000000000000000000000000000000000000000000000000000000000000000000000000000000000000000000000000000000000000000000000000000000000000000000000000000000000000001010101
310
01010101010101010101010101010000000000000000000000000000000000000000000000000000000000000000000000000000000000000000000000000000000000000000000000000000000000000000000000000000000000000000000000000000000000000000000000000000000000000000000000000000000000
310
00000000000000000000000000000000000000000000000000000000000000000000000000000000000000000000000000000000000000000000000000000000000000000000000000000000000000000000000000000000000000000000000000000000000000000000000000000000000000000000000000000000000000
310
00000000000000000000000000000000000000000000000000000000000000000000000000000000000000000000000000000000000000000000000000000000000000000000000000000000000000000000000000000000000000000000000000000000000000000000000000000000000000000000000000000000000000
310
00000000000000000000000000000000000000000000000000000000000000000000000000000000000000000000000000000000000000000000000000000000000000000000000000000000000000000000000000000000000000000000000000000000000000000000000000000000000000000000000000000000000000
310
00000000000000000000000000000000000000000000000000000000000000000000000000000000000000000000000000000000000000000000000000000000000000000000000000000000000000000000000000000000000000000000000000000000000000000000000000000000000000000000000000000000000000
310
00000000000000000000000000000000000000000000000000000000000000000000000000000000000000000000000000000000000000000000000000000000000000000000000000000000000000000000000000000000000000000000000000000000000000000000000000000000000000000000000000000000000000
310
00000000000000000000000000000000000000000000000000000000000000000000000000000000000000000000000000000000000000000000000000000000000000000000000000000000000000000000000000000000000000000000000000000000000000000000000000000000000000000000000000000000000000
310
00000000000000000000000000000000000000000000000000000000000000000000000000000000000000000000000000000000000000000000000000000000000000000000000000000000000000000000000000000000000000000000000000000000000000000000000000000000000000000000000000000000000000
310
000000000000000000000000000000000000000000000000000000000000000000000000000000000000000000000000000000000000000000000000000000000000000000000000000000000000000000000000000000000000000000000000000000000000000000000000
  0
ENDSEC
  0
EOF
