999
DXF file: S:\Prolink\03_Konstruktion\CAD-Plots\Internet\2D_neu\S5\s5-45_grt_w50.dxf
999
Pro/ENGINEER 2012230 by Parametric Technology Corporation
  0
SECTION
  2
HEADER
  9
$ACADVER
  1
AC1021
  9
$DWGCODEPAGE
  3
ANSI_1252
  9
$EXTMAX
 10
297.0
 20
210.0
 30
0.0
  9
$EXTMIN
 10
0.0
 20
0.0
 30
0.0
  9
$LIMMIN
 10
0.0
 20
0.0
  9
$LIMMAX
 10
297.0
 20
210.0
  9
$VIEWCTR
 10
148.5
 20
105.0
  9
$VIEWSIZE
 40
210.0
  9
$CLAYER
  8
0
  9
$LTSCALE
 40
16.335
  9
$CELTYPE
  6
BYLAYER
  9
$DIMSCALE
 40
1.0
  9
$DIMASZ
 40
3.5
  9
$DIMEXO
 40
0.0
  9
$DIMDLI
 40
11.286
  9
$DIMEXE
 40
1.5
  9
$DIMCEN
 40
2.673
  9
$DIMLFAC
 40
1.0
  9
$DIMBLK
  1
_FILLED
  9
$DIMTXT
 40
3.5
  9
$DIMTOL
 70
1
  9
$DIMLIM
 70
0
  9
$DIMTFAC
 40
1.0
  9
$DIMTP
 40
0.005
  9
$DIMTM
 40
0.005
  9
$DIMGAP
 40
0.625
  9
$DIMDSEP
 70
46
  9
$PDMODE
 70
3
  9
$PDSIZE
 40
0.3125
  9
$HANDSEED
  5
3EB
  9
$TILEMODE
 70
1
  9
$MEASUREMENT
 70
1
  9
$INSUNITS
 70
4
  0
ENDSEC
  0
SECTION
  2
CLASSES
  0
CLASS
  1
ACDBDICTIONARYWDFLT
  2
AcDbDictionaryWithDefault
  3
AutoCAD 2000
 90
0
 91
1
280
0
281
0
  0
CLASS
  1
ACDBPLACEHOLDER
  2
AcDbPlaceHolder
  3
AutoCAD 2000
 90
0
 91
1
280
0
281
0
  0
CLASS
  1
LAYOUT
  2
AcDbLayout
  3
AutoCAD 2000
 90
0
 91
0
280
0
281
0
  0
ENDSEC
  0
SECTION
  2
TABLES
  0
TABLE
  2
VPORT
  5
8
100
AcDbSymbolTable
 70
2
  0
VPORT
  5
1F4
100
AcDbSymbolTableRecord
100
AcDbViewportTableRecord
  2
*ACTIVE
 70
0
 10
0.0
 20
0.0
 11
1.0
 21
1.0
 12
148.5
 22
105.0
 13
0.0
 23
0.0
 14
1.0
 24
1.0
 15
0.0
 25
0.0
 16
0.0
 26
0.0
 36
1.0
 17
0.0
 27
0.0
 37
0.0
 40
210.0
 41
1.4142857143
 42
50.0
 43
0.0
 44
0.0
 50
0.0
 51
0.0
 71
0
 72
100
 73
1
 74
1
 75
0
 76
0
 77
0
 78
0
  0
ENDTAB
  0
TABLE
  2
LTYPE
  5
5
100
AcDbSymbolTable
 70
6
  0
LTYPE
  5
14
100
AcDbSymbolTableRecord
100
AcDbLinetypeTableRecord
  2
BYBLOCK
 70
0
  3

 72
65
 73
0
 40
0.0
  0
LTYPE
  5
15
100
AcDbSymbolTableRecord
100
AcDbLinetypeTableRecord
  2
BYLAYER
 70
0
  3

 72
65
 73
0
 40
0.0
  0
LTYPE
  5
16
100
AcDbSymbolTableRecord
100
AcDbLinetypeTableRecord
  2
CONTINUOUS
 70
64
  3
Solid line
 72
65
 73
0
 40
0.0
  0
LTYPE
  5
1F5
100
AcDbSymbolTableRecord
100
AcDbLinetypeTableRecord
  2
CENTER
 70
64
  3
____ _ ____ _ ____ _ ____ _ ____ _ ____ _ ____
 72
65
 73
4
 40
0.6
 49
0.375
 74
0
 49
-0.075
 74
0
 49
0.075
 74
0
 49
-0.075
 74
0
  0
LTYPE
  5
1F6
100
AcDbSymbolTableRecord
100
AcDbLinetypeTableRecord
  2
HIDDEN
 70
64
  3
- - - - - - - - - - - - - - - - - - - -
 72
65
 73
2
 40
0.2
 49
0.1
 74
0
 49
-0.1
 74
0
  0
LTYPE
  5
1F7
100
AcDbSymbolTableRecord
100
AcDbLinetypeTableRecord
  2
PHANTOM
 70
64
  3
_____ _ _ _____ _ _ _____ _ _ _____
 72
65
 73
6
 40
0.8
 49
0.45
 74
0
 49
-0.05
 74
0
 49
0.1
 74
0
 49
-0.05
 74
0
 49
0.1
 74
0
 49
-0.05
 74
0
  0
LTYPE
  5
1F8
100
AcDbSymbolTableRecord
100
AcDbLinetypeTableRecord
  2
DOT
 70
64
  3
. . . . . . . . . . . . . . . . . . . .
 72
65
 73
2
 40
0.2
 49
0.1
 74
0
 49
-0.1
 74
0
  0
LTYPE
  5
1F9
100
AcDbSymbolTableRecord
100
AcDbLinetypeTableRecord
  2
DASHED
 70
64
  3
- - - - - - - - - - - - - - - - - - - -
 72
65
 73
2
 40
0.2
 49
0.1
 74
0
 49
-0.1
 74
0
  0
ENDTAB
  0
TABLE
  2
LAYER
  5
2
100
AcDbSymbolTable
 70
36
  0
LAYER
  5
10
100
AcDbSymbolTableRecord
100
AcDbLayerTableRecord
  2
0
 70
0
 62
7
  6
CONTINUOUS
370
-3
390
F
  0
LAYER
  5
1FA
100
AcDbSymbolTableRecord
100
AcDbLayerTableRecord
  2
DEFAULT_1
 70
0
 62
7
  6
CENTER
370
-3
390
F
  0
LAYER
  5
1FB
100
AcDbSymbolTableRecord
100
AcDbLayerTableRecord
  2
DEFAULT_2
 70
0
 62
8
  6
HIDDEN
370
-3
390
F
  0
LAYER
  5
1FC
100
AcDbSymbolTableRecord
100
AcDbLayerTableRecord
  2
DEFAULT_3
 70
0
 62
7
  6
PHANTOM
370
-3
390
F
  0
LAYER
  5
1FD
100
AcDbSymbolTableRecord
100
AcDbLayerTableRecord
  2
01___PRT_ALL_DTM_PLN
 70
0
 62
7
  6
CONTINUOUS
370
-3
390
F
  0
LAYER
  5
1FE
100
AcDbSymbolTableRecord
100
AcDbLayerTableRecord
  2
01___PRT_DEF_DTM_PLN
 70
0
 62
7
  6
CONTINUOUS
370
-3
390
F
  0
LAYER
  5
1FF
100
AcDbSymbolTableRecord
100
AcDbLayerTableRecord
  2
02___PRT_ALL_AXES
 70
0
 62
7
  6
CONTINUOUS
370
-3
390
F
  0
LAYER
  5
200
100
AcDbSymbolTableRecord
100
AcDbLayerTableRecord
  2
03___PRT_ALL_CURVES
 70
0
 62
7
  6
CONTINUOUS
370
-3
390
F
  0
LAYER
  5
201
100
AcDbSymbolTableRecord
100
AcDbLayerTableRecord
  2
04___PRT_ALL_DTM_PNT
 70
0
 62
7
  6
CONTINUOUS
370
-3
390
F
  0
LAYER
  5
202
100
AcDbSymbolTableRecord
100
AcDbLayerTableRecord
  2
05___PRT_ALL_DTM_CSYS
 70
0
 62
7
  6
CONTINUOUS
370
-3
390
F
  0
LAYER
  5
203
100
AcDbSymbolTableRecord
100
AcDbLayerTableRecord
  2
05___PRT_DEF_DTM_CSYS
 70
0
 62
7
  6
CONTINUOUS
370
-3
390
F
  0
LAYER
  5
204
100
AcDbSymbolTableRecord
100
AcDbLayerTableRecord
  2
06___PRT_ALL_SURFS
 70
0
 62
7
  6
CONTINUOUS
370
-3
390
F
  0
LAYER
  5
205
100
AcDbSymbolTableRecord
100
AcDbLayerTableRecord
  2
AUSFORMSCHRAEGEN
 70
0
 62
7
  6
CONTINUOUS
370
-3
390
F
  0
LAYER
  5
206
100
AcDbSymbolTableRecord
100
AcDbLayerTableRecord
  2
BEZUGSACHSEN
 70
0
 62
7
  6
CONTINUOUS
370
-3
390
F
  0
LAYER
  5
207
100
AcDbSymbolTableRecord
100
AcDbLayerTableRecord
  2
BEZUGSEBENE
 70
0
 62
7
  6
CONTINUOUS
370
-3
390
F
  0
LAYER
  5
208
100
AcDbSymbolTableRecord
100
AcDbLayerTableRecord
  2
BEZUGSEBENEN
 70
0
 62
7
  6
CONTINUOUS
370
-3
390
F
  0
LAYER
  5
209
100
AcDbSymbolTableRecord
100
AcDbLayerTableRecord
  2
BEZUGSEBENEN-KES
 70
0
 62
7
  6
CONTINUOUS
370
-3
390
F
  0
LAYER
  5
20A
100
AcDbSymbolTableRecord
100
AcDbLayerTableRecord
  2
RUNDUNGEN
 70
0
 62
7
  6
CONTINUOUS
370
-3
390
F
  0
LAYER
  5
20B
100
AcDbSymbolTableRecord
100
AcDbLayerTableRecord
  2
ZEICHNUNGSBEMASSUNGEN
 70
0
 62
7
  6
CONTINUOUS
370
-3
390
F
  0
LAYER
  5
20C
100
AcDbSymbolTableRecord
100
AcDbLayerTableRecord
  2
ZEICHNUNGSNOTIZEN
 70
0
 62
7
  6
CONTINUOUS
370
-3
390
F
  0
ENDTAB
  0
TABLE
  2
STYLE
  5
3
100
AcDbSymbolTable
 70
1
  0
STYLE
  5
11
100
AcDbSymbolTableRecord
100
AcDbTextStyleTableRecord
  2
STANDARD
 70
0
 40
0.0
 41
0.7
 50
0.0
 71
0
 42
0.2
  3
txt
  4

  0
STYLE
  5
20D
100
AcDbSymbolTableRecord
100
AcDbTextStyleTableRecord
  2
TEXTSTYLE_1
 70
0
 40
0.0
 41
0.8
 50
0.0
 71
0
 42
0.2
  3
gdt
  4

  0
ENDTAB
  0
TABLE
  2
VIEW
  5
6
100
AcDbSymbolTable
 70
0
  0
ENDTAB
  0
TABLE
  2
UCS
  5
7
100
AcDbSymbolTable
 70
0
  0
ENDTAB
  0
TABLE
  2
APPID
  5
9
100
AcDbSymbolTable
 70
1
  0
APPID
  5
20E
100
AcDbSymbolTableRecord
100
AcDbRegAppTableRecord
  2
ACAD
 70
0
  0
ENDTAB
  0
TABLE
  2
BLOCK_RECORD
  5
1
100
AcDbSymbolTable
 70
0
  0
BLOCK_RECORD
  5
20F
100
AcDbSymbolTableRecord
100
AcDbBlockTableRecord
  2
*Model_Space
  0
BLOCK_RECORD
  5
210
100
AcDbSymbolTableRecord
100
AcDbBlockTableRecord
  2
*Paper_Space
  0
ENDTAB
  0
TABLE
  2
DIMSTYLE
  5
A
100
AcDbSymbolTable
 70
1
100
AcDbDimStyleTable
 71
0
  0
DIMSTYLE
105
211
100
AcDbSymbolTableRecord
100
AcDbDimStyleTableRecord
  2
STANDARD
 70
0
  3

  4

 40
1.0
 41
3.5
 42
0.0
 43
0.38
 44
1.5
 45
0.0
 46
0.0
 47
0.005
 48
0.005
140
3.5
141
0.09
142
0.0
143
25.4
144
1.0
145
0.0
146
1.0
147
0.625
 71
1.0
 72
0.0
 73
0
 74
0
 75
0
 76
0
 77
1
 78
8
170
0
171
2
172
0
173
0
174
0
175
0
176
0
177
0
178
5
270
2
271
3
272
3
273
2
274
2
275
0
280
0
281
0
282
0
283
1
284
8
285
0
286
0
287
3
288
0
340
11
278
46
  0
ENDTAB
  0
ENDSEC
  0
SECTION
  2
BLOCKS
  0
BLOCK
  5
20
100
AcDbEntity
  8
0
100
AcDbBlockBegin
  2
*Model_Space
 70
0
 10
0.0
 20
0.0
 30
0.0
  3
*Model_Space
  1

  0
ENDBLK
  5
21
100
AcDbEntity
  8
0
100
AcDbBlockEnd
  0
BLOCK
  5
1C
100
AcDbEntity
  8
0
100
AcDbBlockBegin
  2
*Paper_Space
 70
0
 10
0.0
 20
0.0
 30
0.0
  3
*Paper_Space
  1

  0
ENDBLK
  5
1D
100
AcDbEntity
  8
0
100
AcDbBlockEnd
  0
ENDSEC
  0
SECTION
  2
ENTITIES
  0
LINE
  5
212
100
AcDbEntity
  8
0
100
AcDbLine
 62
7
  6
CONTINUOUS
 10
0.0
 20
0.0
 11
0.0
 21
210.0
  0
LINE
  5
213
100
AcDbEntity
  8
0
100
AcDbLine
 62
7
  6
CONTINUOUS
 10
0.0
 20
0.0
 11
297.0
 21
0.0
  0
LINE
  5
214
100
AcDbEntity
  8
0
100
AcDbLine
 62
7
  6
CONTINUOUS
 10
0.0
 20
210.0
 11
297.0
 21
210.0
  0
LINE
  5
215
100
AcDbEntity
  8
0
100
AcDbLine
 62
7
  6
CONTINUOUS
 10
297.0
 20
0.0
 11
297.0
 21
210.0
  0
LINE
  5
216
100
AcDbEntity
  8
0
100
AcDbLine
 62
7
  6
CONTINUOUS
 10
79.4140625
 20
149.8406234906
 11
79.4140625
 21
161.8406234906
  0
LINE
  5
217
100
AcDbEntity
  8
RUNDUNGEN
100
AcDbLine
 62
7
  6
CONTINUOUS
 10
81.3140625
 20
149.8406234906
 11
81.3140625
 21
153.1899322778
  0
LINE
  5
218
100
AcDbEntity
  8
RUNDUNGEN
100
AcDbLine
 62
7
  6
CONTINUOUS
 10
81.3140625
 20
158.4913147034
 11
81.3140625
 21
161.8406234906
  0
LINE
  5
219
100
AcDbEntity
  8
RUNDUNGEN
100
AcDbLine
 62
7
  6
CONTINUOUS
 10
81.9140625
 20
150.4406234906
 11
81.9140625
 21
152.9248631566
  0
LINE
  5
21A
100
AcDbEntity
  8
RUNDUNGEN
100
AcDbLine
 62
7
  6
CONTINUOUS
 10
81.9140625
 20
158.7563838247
 11
81.9140625
 21
161.2406234906
  0
LINE
  5
21B
100
AcDbEntity
  8
RUNDUNGEN
100
AcDbLine
 62
7
  6
CONTINUOUS
 10
81.9345070042
 20
161.2406234906
 11
81.9345070042
 21
158.0148519002
  0
LINE
  5
21C
100
AcDbEntity
  8
RUNDUNGEN
100
AcDbLine
 62
7
  6
CONTINUOUS
 10
81.9345070042
 20
153.666395081
 11
81.9345070042
 21
150.4406234906
  0
LINE
  5
21D
100
AcDbEntity
  8
RUNDUNGEN
100
AcDbLine
 62
7
  6
CONTINUOUS
 10
85.3936179958
 20
161.2406234906
 11
85.3936179958
 21
158.5356234906
  0
LINE
  5
21E
100
AcDbEntity
  8
RUNDUNGEN
100
AcDbLine
 62
7
  6
CONTINUOUS
 10
85.3936179958
 20
153.1456234906
 11
85.3936179958
 21
150.4406234906
  0
LINE
  5
21F
100
AcDbEntity
  8
0
100
AcDbLine
 62
7
  6
CONTINUOUS
 10
85.4140625
 20
150.4406234906
 11
85.4140625
 21
153.1456234906
  0
LINE
  5
220
100
AcDbEntity
  8
RUNDUNGEN
100
AcDbLine
 62
7
  6
CONTINUOUS
 10
85.4140625
 20
150.4406234906
 11
85.4140625
 21
153.1456234906
  0
LINE
  5
221
100
AcDbEntity
  8
0
100
AcDbLine
 62
7
  6
CONTINUOUS
 10
85.4140625
 20
158.5356234906
 11
85.4140625
 21
161.2406234906
  0
LINE
  5
222
100
AcDbEntity
  8
RUNDUNGEN
100
AcDbLine
 62
7
  6
CONTINUOUS
 10
85.4140625
 20
158.5356234906
 11
85.4140625
 21
161.2406234906
  0
LINE
  5
223
100
AcDbEntity
  8
RUNDUNGEN
100
AcDbLine
 62
7
  6
CONTINUOUS
 10
98.4140625
 20
150.4406234906
 11
98.4140625
 21
153.1456234906
  0
LINE
  5
224
100
AcDbEntity
  8
RUNDUNGEN
100
AcDbLine
 62
7
  6
CONTINUOUS
 10
98.4140625
 20
158.5356234906
 11
98.4140625
 21
161.2406234906
  0
LINE
  5
225
100
AcDbEntity
  8
RUNDUNGEN
100
AcDbLine
 62
7
  6
CONTINUOUS
 10
98.4345070042
 20
150.4406234906
 11
98.4345070042
 21
153.1456234906
  0
LINE
  5
226
100
AcDbEntity
  8
RUNDUNGEN
100
AcDbLine
 62
7
  6
CONTINUOUS
 10
98.4345070042
 20
158.5356234906
 11
98.4345070042
 21
161.2406234906
  0
LINE
  5
227
100
AcDbEntity
  8
0
100
AcDbLine
 62
7
  6
CONTINUOUS
 10
129.4140625
 20
149.8406234906
 11
126.3140625
 21
149.8406234906
  0
LINE
  5
228
100
AcDbEntity
  8
0
100
AcDbLine
 62
7
  6
CONTINUOUS
 10
107.5140625
 20
149.8406234906
 11
101.3140625
 21
149.8406234906
  0
LINE
  5
229
100
AcDbEntity
  8
0
100
AcDbLine
 62
7
  6
CONTINUOUS
 10
82.5140625
 20
149.8406234906
 11
79.4140625
 21
149.8406234906
  0
LINE
  5
22A
100
AcDbEntity
  8
RUNDUNGEN
100
AcDbLine
 62
7
  6
CONTINUOUS
 10
81.3140625
 20
149.8406234906
 11
102.5140625
 21
149.8406234906
  0
LINE
  5
22B
100
AcDbEntity
  8
RUNDUNGEN
100
AcDbLine
 62
7
  6
CONTINUOUS
 10
106.3140625
 20
149.8406234906
 11
127.5140625
 21
149.8406234906
  0
LINE
  5
22C
100
AcDbEntity
  8
RUNDUNGEN
100
AcDbLine
 62
7
  6
CONTINUOUS
 10
81.9140625
 20
150.4406234906
 11
87.7102626293
 21
150.4406234906
  0
LINE
  5
22D
100
AcDbEntity
  8
RUNDUNGEN
100
AcDbLine
 62
7
  6
CONTINUOUS
 10
96.1178623707
 20
150.4406234906
 11
101.9140625
 21
150.4406234906
  0
LINE
  5
22E
100
AcDbEntity
  8
RUNDUNGEN
100
AcDbLine
 62
7
  6
CONTINUOUS
 10
106.9140625
 20
150.4406234906
 11
112.7102626293
 21
150.4406234906
  0
LINE
  5
22F
100
AcDbEntity
  8
RUNDUNGEN
100
AcDbLine
 62
7
  6
CONTINUOUS
 10
121.1178623707
 20
150.4406234906
 11
126.9140625
 21
150.4406234906
  0
LINE
  5
230
100
AcDbEntity
  8
RUNDUNGEN
100
AcDbLine
 62
7
  6
CONTINUOUS
 10
101.8936179958
 20
150.4406234906
 11
101.8936179958
 21
153.666395081
  0
LINE
  5
231
100
AcDbEntity
  8
RUNDUNGEN
100
AcDbLine
 62
7
  6
CONTINUOUS
 10
101.8936179958
 20
158.0148519002
 11
101.8936179958
 21
161.2406234906
  0
LINE
  5
232
100
AcDbEntity
  8
RUNDUNGEN
100
AcDbLine
 62
7
  6
CONTINUOUS
 10
101.9140625
 20
161.2406234906
 11
101.9140625
 21
158.7563838247
  0
LINE
  5
233
100
AcDbEntity
  8
RUNDUNGEN
100
AcDbLine
 62
7
  6
CONTINUOUS
 10
101.9140625
 20
152.9248631566
 11
101.9140625
 21
150.4406234906
  0
LINE
  5
234
100
AcDbEntity
  8
RUNDUNGEN
100
AcDbLine
 62
7
  6
CONTINUOUS
 10
102.5140625
 20
161.8406234906
 11
102.5140625
 21
158.4913147034
  0
LINE
  5
235
100
AcDbEntity
  8
RUNDUNGEN
100
AcDbLine
 62
7
  6
CONTINUOUS
 10
102.5140625
 20
153.1899322778
 11
102.5140625
 21
149.8406234906
  0
LINE
  5
236
100
AcDbEntity
  8
RUNDUNGEN
100
AcDbLine
 62
7
  6
CONTINUOUS
 10
110.3998446246
 20
153.1456234906
 11
109.9137537093
 21
153.1456234906
  0
LINE
  5
237
100
AcDbEntity
  8
RUNDUNGEN
100
AcDbLine
 62
7
  6
CONTINUOUS
 10
85.3998446246
 20
153.1456234906
 11
84.9137537093
 21
153.1456234906
  0
LINE
  5
238
100
AcDbEntity
  8
0
100
AcDbLine
 62
7
  6
CONTINUOUS
 10
85.4140625
 20
153.1456234906
 11
85.4513250769
 21
153.1456234906
  0
LINE
  5
239
100
AcDbEntity
  8
0
100
AcDbLine
 62
7
  6
CONTINUOUS
 10
98.3767999231
 20
153.1456234906
 11
98.4140625
 21
153.1456234906
  0
LINE
  5
23A
100
AcDbEntity
  8
RUNDUNGEN
100
AcDbLine
 62
7
  6
CONTINUOUS
 10
98.4140625
 20
153.1456234906
 11
98.9143712907
 21
153.1456234906
  0
LINE
  5
23B
100
AcDbEntity
  8
0
100
AcDbLine
 62
7
  6
CONTINUOUS
 10
110.4140625
 20
153.1456234906
 11
110.4513250769
 21
153.1456234906
  0
LINE
  5
23C
100
AcDbEntity
  8
0
100
AcDbLine
 62
7
  6
CONTINUOUS
 10
123.3767999231
 20
153.1456234906
 11
123.4140625
 21
153.1456234906
  0
LINE
  5
23D
100
AcDbEntity
  8
RUNDUNGEN
100
AcDbLine
 62
7
  6
CONTINUOUS
 10
123.4140625
 20
153.1456234906
 11
123.9143712907
 21
153.1456234906
  0
LINE
  5
23E
100
AcDbEntity
  8
RUNDUNGEN
100
AcDbLine
 62
7
  6
CONTINUOUS
 10
106.3140625
 20
149.8406234906
 11
106.3140625
 21
153.1899322778
  0
LINE
  5
23F
100
AcDbEntity
  8
RUNDUNGEN
100
AcDbLine
 62
7
  6
CONTINUOUS
 10
106.3140625
 20
158.4913147034
 11
106.3140625
 21
161.8406234906
  0
LINE
  5
240
100
AcDbEntity
  8
RUNDUNGEN
100
AcDbLine
 62
7
  6
CONTINUOUS
 10
106.9140625
 20
150.4406234906
 11
106.9140625
 21
152.9248631566
  0
LINE
  5
241
100
AcDbEntity
  8
RUNDUNGEN
100
AcDbLine
 62
7
  6
CONTINUOUS
 10
106.9140625
 20
158.7563838247
 11
106.9140625
 21
161.2406234906
  0
LINE
  5
242
100
AcDbEntity
  8
RUNDUNGEN
100
AcDbLine
 62
7
  6
CONTINUOUS
 10
106.9345070042
 20
161.2406234906
 11
106.9345070042
 21
158.0148519002
  0
LINE
  5
243
100
AcDbEntity
  8
RUNDUNGEN
100
AcDbLine
 62
7
  6
CONTINUOUS
 10
106.9345070042
 20
153.666395081
 11
106.9345070042
 21
150.4406234906
  0
LINE
  5
244
100
AcDbEntity
  8
0
100
AcDbLine
 62
7
  6
CONTINUOUS
 10
85.4140625
 20
158.5356234906
 11
85.4513250769
 21
158.5356234906
  0
LINE
  5
245
100
AcDbEntity
  8
RUNDUNGEN
100
AcDbLine
 62
7
  6
CONTINUOUS
 10
84.9137537093
 20
158.5356234906
 11
85.4140625
 21
158.5356234906
  0
LINE
  5
246
100
AcDbEntity
  8
0
100
AcDbLine
 62
7
  6
CONTINUOUS
 10
98.3767999231
 20
158.5356234906
 11
98.4140625
 21
158.5356234906
  0
LINE
  5
247
100
AcDbEntity
  8
RUNDUNGEN
100
AcDbLine
 62
7
  6
CONTINUOUS
 10
98.4282803754
 20
158.5356234906
 11
98.9143712907
 21
158.5356234906
  0
LINE
  5
248
100
AcDbEntity
  8
0
100
AcDbLine
 62
7
  6
CONTINUOUS
 10
110.4140625
 20
158.5356234906
 11
110.4513250769
 21
158.5356234906
  0
LINE
  5
249
100
AcDbEntity
  8
RUNDUNGEN
100
AcDbLine
 62
7
  6
CONTINUOUS
 10
109.9137537093
 20
158.5356234906
 11
110.4140625
 21
158.5356234906
  0
LINE
  5
24A
100
AcDbEntity
  8
0
100
AcDbLine
 62
7
  6
CONTINUOUS
 10
123.3767999231
 20
158.5356234906
 11
123.4140625
 21
158.5356234906
  0
LINE
  5
24B
100
AcDbEntity
  8
RUNDUNGEN
100
AcDbLine
 62
7
  6
CONTINUOUS
 10
123.4282803754
 20
158.5356234906
 11
123.9143712907
 21
158.5356234906
  0
LINE
  5
24C
100
AcDbEntity
  8
RUNDUNGEN
100
AcDbLine
 62
7
  6
CONTINUOUS
 10
110.3936179958
 20
161.2406234906
 11
110.3936179958
 21
158.5356234906
  0
LINE
  5
24D
100
AcDbEntity
  8
RUNDUNGEN
100
AcDbLine
 62
7
  6
CONTINUOUS
 10
110.3936179958
 20
153.1456234906
 11
110.3936179958
 21
150.4406234906
  0
LINE
  5
24E
100
AcDbEntity
  8
0
100
AcDbLine
 62
7
  6
CONTINUOUS
 10
110.4140625
 20
150.4406234906
 11
110.4140625
 21
153.1456234906
  0
LINE
  5
24F
100
AcDbEntity
  8
RUNDUNGEN
100
AcDbLine
 62
7
  6
CONTINUOUS
 10
110.4140625
 20
150.4406234906
 11
110.4140625
 21
153.1456234906
  0
LINE
  5
250
100
AcDbEntity
  8
0
100
AcDbLine
 62
7
  6
CONTINUOUS
 10
110.4140625
 20
158.5356234906
 11
110.4140625
 21
161.2406234906
  0
LINE
  5
251
100
AcDbEntity
  8
RUNDUNGEN
100
AcDbLine
 62
7
  6
CONTINUOUS
 10
110.4140625
 20
158.5356234906
 11
110.4140625
 21
161.2406234906
  0
LINE
  5
252
100
AcDbEntity
  8
RUNDUNGEN
100
AcDbLine
 62
7
  6
CONTINUOUS
 10
126.9140625
 20
161.2406234906
 11
121.1178623707
 21
161.2406234906
  0
LINE
  5
253
100
AcDbEntity
  8
RUNDUNGEN
100
AcDbLine
 62
7
  6
CONTINUOUS
 10
112.7102626293
 20
161.2406234906
 11
106.9140625
 21
161.2406234906
  0
LINE
  5
254
100
AcDbEntity
  8
RUNDUNGEN
100
AcDbLine
 62
7
  6
CONTINUOUS
 10
101.9140625
 20
161.2406234906
 11
96.1178623707
 21
161.2406234906
  0
LINE
  5
255
100
AcDbEntity
  8
RUNDUNGEN
100
AcDbLine
 62
7
  6
CONTINUOUS
 10
87.7102626293
 20
161.2406234906
 11
81.9140625
 21
161.2406234906
  0
LINE
  5
256
100
AcDbEntity
  8
0
100
AcDbLine
 62
7
  6
CONTINUOUS
 10
129.4140625
 20
161.8406234906
 11
127.5140625
 21
161.8406234906
  0
LINE
  5
257
100
AcDbEntity
  8
0
100
AcDbLine
 62
7
  6
CONTINUOUS
 10
106.3140625
 20
161.8406234906
 11
102.5140625
 21
161.8406234906
  0
LINE
  5
258
100
AcDbEntity
  8
0
100
AcDbLine
 62
7
  6
CONTINUOUS
 10
81.3140625
 20
161.8406234906
 11
79.4140625
 21
161.8406234906
  0
LINE
  5
259
100
AcDbEntity
  8
RUNDUNGEN
100
AcDbLine
 62
7
  6
CONTINUOUS
 10
81.3140625
 20
161.8406234906
 11
102.5140625
 21
161.8406234906
  0
LINE
  5
25A
100
AcDbEntity
  8
RUNDUNGEN
100
AcDbLine
 62
7
  6
CONTINUOUS
 10
106.3140625
 20
161.8406234906
 11
127.5140625
 21
161.8406234906
  0
LINE
  5
25B
100
AcDbEntity
  8
RUNDUNGEN
100
AcDbLine
 62
7
  6
CONTINUOUS
 10
123.4140625
 20
150.4406234906
 11
123.4140625
 21
153.1456234906
  0
LINE
  5
25C
100
AcDbEntity
  8
RUNDUNGEN
100
AcDbLine
 62
7
  6
CONTINUOUS
 10
123.4140625
 20
158.5356234906
 11
123.4140625
 21
161.2406234906
  0
LINE
  5
25D
100
AcDbEntity
  8
RUNDUNGEN
100
AcDbLine
 62
7
  6
CONTINUOUS
 10
123.4345070042
 20
150.4406234906
 11
123.4345070042
 21
153.1456234906
  0
LINE
  5
25E
100
AcDbEntity
  8
RUNDUNGEN
100
AcDbLine
 62
7
  6
CONTINUOUS
 10
123.4345070042
 20
158.5356234906
 11
123.4345070042
 21
161.2406234906
  0
LINE
  5
25F
100
AcDbEntity
  8
RUNDUNGEN
100
AcDbLine
 62
7
  6
CONTINUOUS
 10
126.8936179958
 20
150.4406234906
 11
126.8936179958
 21
153.666395081
  0
LINE
  5
260
100
AcDbEntity
  8
RUNDUNGEN
100
AcDbLine
 62
7
  6
CONTINUOUS
 10
126.8936179958
 20
158.0148519002
 11
126.8936179958
 21
161.2406234906
  0
LINE
  5
261
100
AcDbEntity
  8
RUNDUNGEN
100
AcDbLine
 62
7
  6
CONTINUOUS
 10
126.9140625
 20
161.2406234906
 11
126.9140625
 21
158.7563838247
  0
LINE
  5
262
100
AcDbEntity
  8
RUNDUNGEN
100
AcDbLine
 62
7
  6
CONTINUOUS
 10
126.9140625
 20
152.9248631566
 11
126.9140625
 21
150.4406234906
  0
LINE
  5
263
100
AcDbEntity
  8
RUNDUNGEN
100
AcDbLine
 62
7
  6
CONTINUOUS
 10
127.5140625
 20
161.8406234906
 11
127.5140625
 21
158.4913147034
  0
LINE
  5
264
100
AcDbEntity
  8
RUNDUNGEN
100
AcDbLine
 62
7
  6
CONTINUOUS
 10
127.5140625
 20
153.1899322778
 11
127.5140625
 21
149.8406234906
  0
LINE
  5
265
100
AcDbEntity
  8
0
100
AcDbLine
 62
7
  6
CONTINUOUS
 10
129.4140625
 20
149.8407283623
 11
129.4140625
 21
161.840518619
  0
LINE
  5
266
100
AcDbEntity
  8
RUNDUNGEN
100
AcDbLine
 62
7
  6
CONTINUOUS
 10
208.9395644642
 20
150.4406234906
 11
208.9395644642
 21
149.8406234906
  0
LINE
  5
267
100
AcDbEntity
  8
RUNDUNGEN
100
AcDbLine
 62
7
  6
CONTINUOUS
 10
208.9395644642
 20
161.2406234906
 11
208.9395644587
 21
161.8406234906
  0
LINE
  5
268
100
AcDbEntity
  8
RUNDUNGEN
100
AcDbLine
 62
7
  6
CONTINUOUS
 10
211.0658397734
 20
149.8406234906
 11
211.0658397734
 21
152.9248631566
  0
LINE
  5
269
100
AcDbEntity
  8
RUNDUNGEN
100
AcDbLine
 62
7
  6
CONTINUOUS
 10
211.0658397734
 20
158.7563838247
 11
211.0658397734
 21
161.8406234906
  0
LINE
  5
26A
100
AcDbEntity
  8
RUNDUNGEN
100
AcDbLine
 62
7
  6
CONTINUOUS
 10
211.2211312005
 20
161.2406234906
 11
211.2211312005
 21
158.0148519002
  0
LINE
  5
26B
100
AcDbEntity
  8
RUNDUNGEN
100
AcDbLine
 62
7
  6
CONTINUOUS
 10
211.2211312005
 20
153.666395081
 11
211.2211312005
 21
150.4406234906
  0
LINE
  5
26C
100
AcDbEntity
  8
RUNDUNGEN
100
AcDbLine
 62
7
  6
CONTINUOUS
 10
211.0658397734
 20
158.7563838247
 11
210.5275662733
 21
158.4913147035
  0
LINE
  5
26D
100
AcDbEntity
  8
RUNDUNGEN
100
AcDbLine
 62
7
  6
CONTINUOUS
 10
205.144831272
 20
149.8406234906
 11
234.1448908344
 21
149.8406234906
  0
LINE
  5
26E
100
AcDbEntity
  8
RUNDUNGEN
100
AcDbLine
 62
7
  6
CONTINUOUS
 10
208.9396290504
 20
150.4406234906
 11
234.6024583906
 21
150.4406234906
  0
LINE
  5
26F
100
AcDbEntity
  8
RUNDUNGEN
100
AcDbLine
 62
7
  6
CONTINUOUS
 10
211.0658397734
 20
152.9248631566
 11
210.5275662734
 21
153.1899322779
  0
LINE
  5
270
100
AcDbEntity
  8
RUNDUNGEN
100
AcDbLine
 62
7
  6
CONTINUOUS
 10
229.644831272
 20
153.1456234906
 11
222.339831272
 21
153.1456234906
  0
LINE
  5
271
100
AcDbEntity
  8
0
100
AcDbLine
 62
7
  6
CONTINUOUS
 10
229.644831272
 20
153.1456234906
 11
230.339831272
 21
153.1456234906
  0
LINE
  5
272
100
AcDbEntity
  8
RUNDUNGEN
100
AcDbLine
 62
7
  6
CONTINUOUS
 10
222.339831272
 20
158.5356234906
 11
229.644831272
 21
158.5356234906
  0
LINE
  5
273
100
AcDbEntity
  8
0
100
AcDbLine
 62
7
  6
CONTINUOUS
 10
229.644831272
 20
158.5356234906
 11
230.339831272
 21
158.5356234906
  0
LINE
  5
274
100
AcDbEntity
  8
RUNDUNGEN
100
AcDbLine
 62
7
  6
CONTINUOUS
 10
224.13070917
 20
161.2406234906
 11
224.13070917
 21
158.5356234906
  0
LINE
  5
275
100
AcDbEntity
  8
RUNDUNGEN
100
AcDbLine
 62
7
  6
CONTINUOUS
 10
224.13070917
 20
153.1456234906
 11
224.13070917
 21
150.4406234906
  0
LINE
  5
276
100
AcDbEntity
  8
RUNDUNGEN
100
AcDbLine
 62
7
  6
CONTINUOUS
 10
224.286000597
 20
153.1456234906
 11
224.286000597
 21
149.8406234906
  0
LINE
  5
277
100
AcDbEntity
  8
RUNDUNGEN
100
AcDbLine
 62
7
  6
CONTINUOUS
 10
224.286000597
 20
158.5356234906
 11
224.2860005963
 21
161.8406234906
  0
LINE
  5
278
100
AcDbEntity
  8
RUNDUNGEN
100
AcDbLine
 62
7
  6
CONTINUOUS
 10
234.6024583906
 20
161.2406234906
 11
208.9396272267
 21
161.2406234906
  0
LINE
  5
279
100
AcDbEntity
  8
RUNDUNGEN
100
AcDbLine
 62
7
  6
CONTINUOUS
 10
234.144840502
 20
161.8406234906
 11
205.144831272
 21
161.8406234906
  0
LINE
  5
27A
100
AcDbEntity
  8
RUNDUNGEN
100
AcDbLine
 62
7
  6
CONTINUOUS
 10
229.644831272
 20
149.8406234906
 11
229.644831272
 21
153.1456234906
  0
LINE
  5
27B
100
AcDbEntity
  8
RUNDUNGEN
100
AcDbLine
 62
7
  6
CONTINUOUS
 10
229.644831272
 20
158.5356234906
 11
229.644831272
 21
161.8406234906
  0
LINE
  5
27C
100
AcDbEntity
  8
0
100
AcDbLine
 62
7
  6
CONTINUOUS
 10
236.144831272
 20
151.8406234906
 11
236.144831272
 21
159.8406234906
  0
LINE
  5
27D
100
AcDbEntity
  8
0
100
AcDbLine
 62
7
  6
CONTINUOUS
 10
79.4140625
 20
78.306969096
 11
79.4140625
 21
90.306969096
  0
LINE
  5
27E
100
AcDbEntity
  8
RUNDUNGEN
100
AcDbLine
 62
7
  6
CONTINUOUS
 10
81.3140625
 20
78.9242340947
 11
81.3140625
 21
84.306969096
  0
LINE
  5
27F
100
AcDbEntity
  8
RUNDUNGEN
100
AcDbLine
 62
7
  6
CONTINUOUS
 10
81.9140625
 20
78.3859605946
 11
81.9140625
 21
80.5122359038
  0
LINE
  5
280
100
AcDbEntity
  8
RUNDUNGEN
100
AcDbLine
 62
7
  6
CONTINUOUS
 10
82.5140625
 20
78.3859605946
 11
82.5140625
 21
80.5122359038
  0
LINE
  5
281
100
AcDbEntity
  8
RUNDUNGEN
100
AcDbLine
 62
7
  6
CONTINUOUS
 10
81.9140625
 20
78.3859605943
 11
81.9345070041
 21
78.2306691678
  0
LINE
  5
282
100
AcDbEntity
  8
RUNDUNGEN
100
AcDbLine
 62
7
  6
CONTINUOUS
 10
84.3140625
 20
77.306969096
 11
84.3140625
 21
84.1306421153
  0
LINE
  5
283
100
AcDbEntity
  8
RUNDUNGEN
100
AcDbLine
 62
7
  6
CONTINUOUS
 10
84.9140625
 20
77.306969096
 11
84.9140625
 21
84.1306421154
  0
LINE
  5
284
100
AcDbEntity
  8
RUNDUNGEN
100
AcDbLine
 62
7
  6
CONTINUOUS
 10
85.4140625
 20
59.806969096
 11
85.4140625
 21
65.165799771
  0
LINE
  5
285
100
AcDbEntity
  8
RUNDUNGEN
100
AcDbLine
 62
7
  6
CONTINUOUS
 10
86.0140625
 20
59.806969096
 11
86.0140625
 21
65.165799771
  0
LINE
  5
286
100
AcDbEntity
  8
RUNDUNGEN
100
AcDbLine
 62
7
  6
CONTINUOUS
 10
84.2755558365
 20
84.306969096
 11
84.839371409
 21
84.512181182
  0
LINE
  5
287
100
AcDbEntity
  8
RUNDUNGEN
100
AcDbLine
 62
7
  6
CONTINUOUS
 10
84.2899395483
 20
84.2674501726
 11
84.8537551208
 21
84.4726622586
  0
LINE
  5
288
100
AcDbEntity
  8
RUNDUNGEN
100
AcDbLine
 62
7
  6
CONTINUOUS
 10
85.3936179958
 20
65.321091198
 11
81.9345070042
 21
78.2306691675
  0
LINE
  5
289
100
AcDbEntity
  8
RUNDUNGEN
100
AcDbLine
 62
7
  6
CONTINUOUS
 10
85.9731734915
 20
65.4763826251
 11
82.5140625
 21
78.3859605946
  0
LINE
  5
28A
100
AcDbEntity
  8
RUNDUNGEN
100
AcDbLine
 62
7
  6
CONTINUOUS
 10
85.3936179958
 20
65.3210911978
 11
85.4140625
 21
65.1657997714
  0
LINE
  5
28B
100
AcDbEntity
  8
RUNDUNGEN
100
AcDbLine
 62
7
  6
CONTINUOUS
 10
113.0983148397
 20
55.306959866
 11
120.7298112224
 21
55.306960938
  0
LINE
  5
28C
100
AcDbEntity
  8
RUNDUNGEN
100
AcDbLine
 62
7
  6
CONTINUOUS
 10
88.0983148397
 20
55.306959866
 11
95.7298112224
 21
55.306960938
  0
LINE
  5
28D
100
AcDbEntity
  8
RUNDUNGEN
100
AcDbLine
 62
7
  6
CONTINUOUS
 10
96.1178623706
 20
54.8493419773
 11
95.7298193057
 21
55.306969096
  0
LINE
  5
28E
100
AcDbEntity
  8
0
100
AcDbLine
 62
7
  6
CONTINUOUS
 10
89.4140625
 20
66.806969096
 11
89.4140625
 21
59.306969096
  0
LINE
  5
28F
100
AcDbEntity
  8
RUNDUNGEN
100
AcDbLine
 62
7
  6
CONTINUOUS
 10
84.2899395483
 20
84.2674501726
 11
84.2756226465
 21
84.3067855372
  0
LINE
  5
290
100
AcDbEntity
  8
RUNDUNGEN
100
AcDbLine
 62
7
  6
CONTINUOUS
 10
84.8537551208
 20
84.4726622586
 11
82.8739321439
 21
89.912181182
  0
LINE
  5
291
100
AcDbEntity
  8
RUNDUNGEN
100
AcDbLine
 62
7
  6
CONTINUOUS
 10
123.4140625
 20
59.806969096
 11
122.8140625
 21
59.806969096
  0
LINE
  5
292
100
AcDbEntity
  8
RUNDUNGEN
100
AcDbLine
 62
7
  6
CONTINUOUS
 10
98.4140625
 20
59.806969096
 11
97.8140625
 21
59.806969096
  0
LINE
  5
293
100
AcDbEntity
  8
RUNDUNGEN
100
AcDbLine
 62
7
  6
CONTINUOUS
 10
85.4140625
 20
59.806969096
 11
86.0140625
 21
59.806969096
  0
LINE
  5
294
100
AcDbEntity
  8
RUNDUNGEN
100
AcDbLine
 62
7
  6
CONTINUOUS
 10
110.4140625
 20
59.806969096
 11
111.0140625
 21
59.806969096
  0
LINE
  5
295
100
AcDbEntity
  8
0
100
AcDbLine
 62
7
  6
CONTINUOUS
 10
94.4140625
 20
66.806969096
 11
94.4140625
 21
59.306969096
  0
LINE
  5
296
100
AcDbEntity
  8
RUNDUNGEN
100
AcDbLine
 62
7
  6
CONTINUOUS
 10
100.9541928561
 20
89.912181182
 11
98.9743698792
 21
84.4726622586
  0
LINE
  5
297
100
AcDbEntity
  8
RUNDUNGEN
100
AcDbLine
 62
7
  6
CONTINUOUS
 10
99.5525019454
 20
84.3067844157
 11
99.5381854517
 21
84.2674501726
  0
LINE
  5
298
100
AcDbEntity
  8
RUNDUNGEN
100
AcDbLine
 62
7
  6
CONTINUOUS
 10
109.2755558365
 20
84.306969096
 11
109.839371409
 21
84.512181182
  0
LINE
  5
299
100
AcDbEntity
  8
RUNDUNGEN
100
AcDbLine
 62
7
  6
CONTINUOUS
 10
109.2899395483
 20
84.2674501726
 11
109.8537551208
 21
84.4726622586
  0
LINE
  5
29A
100
AcDbEntity
  8
RUNDUNGEN
100
AcDbLine
 62
7
  6
CONTINUOUS
 10
97.8140625
 20
65.165799771
 11
97.8140625
 21
59.806969096
  0
LINE
  5
29B
100
AcDbEntity
  8
RUNDUNGEN
100
AcDbLine
 62
7
  6
CONTINUOUS
 10
98.4140625
 20
65.165799771
 11
98.4140625
 21
59.806969096
  0
LINE
  5
29C
100
AcDbEntity
  8
RUNDUNGEN
100
AcDbLine
 62
7
  6
CONTINUOUS
 10
110.3936179958
 20
65.321091198
 11
110.9731734915
 21
65.4763826251
  0
LINE
  5
29D
100
AcDbEntity
  8
RUNDUNGEN
100
AcDbLine
 62
7
  6
CONTINUOUS
 10
123.4140625
 20
65.165799771
 11
122.8140625
 21
65.165799771
  0
LINE
  5
29E
100
AcDbEntity
  8
RUNDUNGEN
100
AcDbLine
 62
7
  6
CONTINUOUS
 10
98.4140625
 20
65.165799771
 11
97.8140625
 21
65.165799771
  0
LINE
  5
29F
100
AcDbEntity
  8
RUNDUNGEN
100
AcDbLine
 62
7
  6
CONTINUOUS
 10
85.4140625
 20
65.165799771
 11
86.0140624999
 21
65.1657997717
  0
LINE
  5
2A0
100
AcDbEntity
  8
RUNDUNGEN
100
AcDbLine
 62
7
  6
CONTINUOUS
 10
110.4140625
 20
65.165799771
 11
111.0140624999
 21
65.1657997717
  0
LINE
  5
2A1
100
AcDbEntity
  8
RUNDUNGEN
100
AcDbLine
 62
7
  6
CONTINUOUS
 10
98.4345070042
 20
65.321091198
 11
97.8549515084
 21
65.4763826246
  0
LINE
  5
2A2
100
AcDbEntity
  8
RUNDUNGEN
100
AcDbLine
 62
7
  6
CONTINUOUS
 10
98.9140625
 20
84.1306421153
 11
98.9140625
 21
77.306969096
  0
LINE
  5
2A3
100
AcDbEntity
  8
RUNDUNGEN
100
AcDbLine
 62
7
  6
CONTINUOUS
 10
99.5140625
 20
84.1306421153
 11
99.5140625
 21
77.306969096
  0
LINE
  5
2A4
100
AcDbEntity
  8
RUNDUNGEN
100
AcDbLine
 62
7
  6
CONTINUOUS
 10
101.3140625
 20
78.3859605946
 11
97.8549515085
 21
65.4763826251
  0
LINE
  5
2A5
100
AcDbEntity
  8
RUNDUNGEN
100
AcDbLine
 62
7
  6
CONTINUOUS
 10
101.8936179958
 20
78.2306691675
 11
98.4345070042
 21
65.321091198
  0
LINE
  5
2A6
100
AcDbEntity
  8
RUNDUNGEN
100
AcDbLine
 62
7
  6
CONTINUOUS
 10
101.3140625
 20
80.5122359038
 11
101.3140625
 21
78.3859605946
  0
LINE
  5
2A7
100
AcDbEntity
  8
RUNDUNGEN
100
AcDbLine
 62
7
  6
CONTINUOUS
 10
101.9140625
 20
80.5122359038
 11
101.9140625
 21
78.3859605946
  0
LINE
  5
2A8
100
AcDbEntity
  8
RUNDUNGEN
100
AcDbLine
 62
7
  6
CONTINUOUS
 10
102.5140625
 20
84.306969096
 11
102.5140625
 21
78.9242340947
  0
LINE
  5
2A9
100
AcDbEntity
  8
RUNDUNGEN
100
AcDbLine
 62
7
  6
CONTINUOUS
 10
101.8936179959
 20
78.2306691678
 11
101.9140625
 21
78.3859605943
  0
LINE
  5
2AA
100
AcDbEntity
  8
RUNDUNGEN
100
AcDbLine
 62
7
  6
CONTINUOUS
 10
87.7102626294
 20
54.8493419773
 11
88.0983056943
 21
55.306969096
  0
LINE
  5
2AB
100
AcDbEntity
  8
RUNDUNGEN
100
AcDbLine
 62
7
  6
CONTINUOUS
 10
85.3936179958
 20
65.321091198
 11
85.9731734915
 21
65.4763826251
  0
LINE
  5
2AC
100
AcDbEntity
  8
RUNDUNGEN
100
AcDbLine
 62
7
  6
CONTINUOUS
 10
123.4345070042
 20
65.321091198
 11
122.8549515084
 21
65.4763826246
  0
LINE
  5
2AD
100
AcDbEntity
  8
RUNDUNGEN
100
AcDbLine
 62
7
  6
CONTINUOUS
 10
106.3140625
 20
78.9242340947
 11
106.3140625
 21
84.306969096
  0
LINE
  5
2AE
100
AcDbEntity
  8
RUNDUNGEN
100
AcDbLine
 62
7
  6
CONTINUOUS
 10
121.1178623706
 20
54.8493419773
 11
120.7298193057
 21
55.306969096
  0
LINE
  5
2AF
100
AcDbEntity
  8
RUNDUNGEN
100
AcDbLine
 62
7
  6
CONTINUOUS
 10
106.9140625
 20
78.3859605946
 11
106.9140625
 21
80.5122359038
  0
LINE
  5
2B0
100
AcDbEntity
  8
RUNDUNGEN
100
AcDbLine
 62
7
  6
CONTINUOUS
 10
107.5140625
 20
78.3859605946
 11
107.5140625
 21
80.5122359038
  0
LINE
  5
2B1
100
AcDbEntity
  8
RUNDUNGEN
100
AcDbLine
 62
7
  6
CONTINUOUS
 10
110.3936179958
 20
65.321091198
 11
106.9345070042
 21
78.2306691675
  0
LINE
  5
2B2
100
AcDbEntity
  8
RUNDUNGEN
100
AcDbLine
 62
7
  6
CONTINUOUS
 10
106.9140625
 20
78.3859605943
 11
106.9345070041
 21
78.2306691678
  0
LINE
  5
2B3
100
AcDbEntity
  8
RUNDUNGEN
100
AcDbLine
 62
7
  6
CONTINUOUS
 10
109.3140625
 20
77.306969096
 11
109.3140625
 21
84.1306421153
  0
LINE
  5
2B4
100
AcDbEntity
  8
RUNDUNGEN
100
AcDbLine
 62
7
  6
CONTINUOUS
 10
109.9140625
 20
77.306969096
 11
109.9140625
 21
84.1306421153
  0
LINE
  5
2B5
100
AcDbEntity
  8
RUNDUNGEN
100
AcDbLine
 62
7
  6
CONTINUOUS
 10
110.4140625
 20
59.806969096
 11
110.4140625
 21
65.165799771
  0
LINE
  5
2B6
100
AcDbEntity
  8
RUNDUNGEN
100
AcDbLine
 62
7
  6
CONTINUOUS
 10
106.9345070042
 20
78.2306691675
 11
107.5140625
 21
78.3859605946
  0
LINE
  5
2B7
100
AcDbEntity
  8
RUNDUNGEN
100
AcDbLine
 62
7
  6
CONTINUOUS
 10
124.5140625
 20
77.306969096
 11
123.9140625
 21
77.306969096
  0
LINE
  5
2B8
100
AcDbEntity
  8
RUNDUNGEN
100
AcDbLine
 62
7
  6
CONTINUOUS
 10
99.5140625
 20
77.306969096
 11
98.9140625
 21
77.306969096
  0
LINE
  5
2B9
100
AcDbEntity
  8
RUNDUNGEN
100
AcDbLine
 62
7
  6
CONTINUOUS
 10
84.3140625
 20
77.306969096
 11
84.9140625
 21
77.306969096
  0
LINE
  5
2BA
100
AcDbEntity
  8
RUNDUNGEN
100
AcDbLine
 62
7
  6
CONTINUOUS
 10
109.3140625
 20
77.306969096
 11
109.9140625
 21
77.306969096
  0
LINE
  5
2BB
100
AcDbEntity
  8
RUNDUNGEN
100
AcDbLine
 62
7
  6
CONTINUOUS
 10
101.8936179958
 20
78.2306691675
 11
101.3140625
 21
78.3859605946
  0
LINE
  5
2BC
100
AcDbEntity
  8
RUNDUNGEN
100
AcDbLine
 62
7
  6
CONTINUOUS
 10
110.9731734915
 20
65.4763826251
 11
107.5140625
 21
78.3859605946
  0
LINE
  5
2BD
100
AcDbEntity
  8
RUNDUNGEN
100
AcDbLine
 62
7
  6
CONTINUOUS
 10
110.3936179958
 20
65.3210911978
 11
110.4140625
 21
65.1657997714
  0
LINE
  5
2BE
100
AcDbEntity
  8
RUNDUNGEN
100
AcDbLine
 62
7
  6
CONTINUOUS
 10
111.0140625
 20
59.806969096
 11
111.0140625
 21
65.165799771
  0
LINE
  5
2BF
100
AcDbEntity
  8
0
100
AcDbLine
 62
7
  6
CONTINUOUS
 10
129.4140625
 20
78.306969096
 11
127.3744586928
 21
78.306969096
  0
LINE
  5
2C0
100
AcDbEntity
  8
0
100
AcDbLine
 62
7
  6
CONTINUOUS
 10
106.4536663072
 20
78.306969096
 11
102.3744586928
 21
78.306969096
  0
LINE
  5
2C1
100
AcDbEntity
  8
0
100
AcDbLine
 62
7
  6
CONTINUOUS
 10
81.4536663072
 20
78.306969096
 11
79.4140625
 21
78.306969096
  0
LINE
  5
2C2
100
AcDbEntity
  8
RUNDUNGEN
100
AcDbLine
 62
7
  6
CONTINUOUS
 10
81.4536663072
 20
78.306969096
 11
79.4140625
 21
78.306969096
  0
LINE
  5
2C3
100
AcDbEntity
  8
RUNDUNGEN
100
AcDbLine
 62
7
  6
CONTINUOUS
 10
102.3744586928
 20
78.306969096
 11
106.4536663072
 21
78.306969096
  0
LINE
  5
2C4
100
AcDbEntity
  8
RUNDUNGEN
100
AcDbLine
 62
7
  6
CONTINUOUS
 10
127.3744586928
 20
78.306969096
 11
129.4140625
 21
78.306969096
  0
LINE
  5
2C5
100
AcDbEntity
  8
RUNDUNGEN
100
AcDbLine
 62
7
  6
CONTINUOUS
 10
126.9140625
 20
78.3859605946
 11
126.3140625
 21
78.3859605946
  0
LINE
  5
2C6
100
AcDbEntity
  8
RUNDUNGEN
100
AcDbLine
 62
7
  6
CONTINUOUS
 10
101.9140625
 20
78.3859605946
 11
101.3140625
 21
78.3859605946
  0
LINE
  5
2C7
100
AcDbEntity
  8
RUNDUNGEN
100
AcDbLine
 62
7
  6
CONTINUOUS
 10
81.9140625
 20
78.3859605946
 11
82.5140625
 21
78.3859605946
  0
LINE
  5
2C8
100
AcDbEntity
  8
RUNDUNGEN
100
AcDbLine
 62
7
  6
CONTINUOUS
 10
106.9140625
 20
78.3859605946
 11
107.5140625
 21
78.3859605946
  0
LINE
  5
2C9
100
AcDbEntity
  8
0
100
AcDbLine
 62
7
  6
CONTINUOUS
 10
114.4140625
 20
66.806969096
 11
114.4140625
 21
59.306969096
  0
LINE
  5
2CA
100
AcDbEntity
  8
RUNDUNGEN
100
AcDbLine
 62
7
  6
CONTINUOUS
 10
126.9140625
 20
80.5122359038
 11
126.3140625
 21
80.5122359038
  0
LINE
  5
2CB
100
AcDbEntity
  8
RUNDUNGEN
100
AcDbLine
 62
7
  6
CONTINUOUS
 10
101.9140625
 20
80.5122359038
 11
101.3140625
 21
80.5122359038
  0
LINE
  5
2CC
100
AcDbEntity
  8
RUNDUNGEN
100
AcDbLine
 62
7
  6
CONTINUOUS
 10
81.9140625
 20
80.5122359038
 11
82.5140624976
 21
80.5122359093
  0
LINE
  5
2CD
100
AcDbEntity
  8
RUNDUNGEN
100
AcDbLine
 62
7
  6
CONTINUOUS
 10
106.9140625
 20
80.5122359038
 11
107.5140624976
 21
80.5122359093
  0
LINE
  5
2CE
100
AcDbEntity
  8
RUNDUNGEN
100
AcDbLine
 62
7
  6
CONTINUOUS
 10
99.5381854517
 20
84.2674501726
 11
98.9743698792
 21
84.4726622586
  0
LINE
  5
2CF
100
AcDbEntity
  8
RUNDUNGEN
100
AcDbLine
 62
7
  6
CONTINUOUS
 10
99.5525691635
 20
84.306969096
 11
98.988753591
 21
84.512181182
  0
LINE
  5
2D0
100
AcDbEntity
  8
RUNDUNGEN
100
AcDbLine
 62
7
  6
CONTINUOUS
 10
109.2899395483
 20
84.2674501726
 11
109.2756226465
 21
84.3067855372
  0
LINE
  5
2D1
100
AcDbEntity
  8
RUNDUNGEN
100
AcDbLine
 62
7
  6
CONTINUOUS
 10
109.8537551208
 20
84.4726622586
 11
107.8739321439
 21
89.912181182
  0
LINE
  5
2D2
100
AcDbEntity
  8
RUNDUNGEN
100
AcDbLine
 62
7
  6
CONTINUOUS
 10
81.9345070042
 20
78.2306691675
 11
82.5140625
 21
78.3859605946
  0
LINE
  5
2D3
100
AcDbEntity
  8
RUNDUNGEN
100
AcDbLine
 62
7
  6
CONTINUOUS
 10
124.5140625
 20
84.1306421153
 11
123.9140625
 21
84.1306421153
  0
LINE
  5
2D4
100
AcDbEntity
  8
RUNDUNGEN
100
AcDbLine
 62
7
  6
CONTINUOUS
 10
99.5140625
 20
84.1306421153
 11
98.9140625
 21
84.1306421153
  0
LINE
  5
2D5
100
AcDbEntity
  8
RUNDUNGEN
100
AcDbLine
 62
7
  6
CONTINUOUS
 10
84.3140625
 20
84.1306421153
 11
84.9140625
 21
84.1306421154
  0
LINE
  5
2D6
100
AcDbEntity
  8
RUNDUNGEN
100
AcDbLine
 62
7
  6
CONTINUOUS
 10
109.3140625
 20
84.1306421153
 11
109.9140625
 21
84.1306421154
  0
LINE
  5
2D7
100
AcDbEntity
  8
RUNDUNGEN
100
AcDbLine
 62
7
  6
CONTINUOUS
 10
124.5525019454
 20
84.3067844157
 11
127.5140625
 21
84.306969096
  0
LINE
  5
2D8
100
AcDbEntity
  8
RUNDUNGEN
100
AcDbLine
 62
7
  6
CONTINUOUS
 10
99.5525019454
 20
84.3067844157
 11
102.5140625
 21
84.306969096
  0
LINE
  5
2D9
100
AcDbEntity
  8
RUNDUNGEN
100
AcDbLine
 62
7
  6
CONTINUOUS
 10
81.3140625
 20
84.306969096
 11
84.2756226465
 21
84.3067855372
  0
LINE
  5
2DA
100
AcDbEntity
  8
RUNDUNGEN
100
AcDbLine
 62
7
  6
CONTINUOUS
 10
106.3140625
 20
84.306969096
 11
109.2756226465
 21
84.3067855372
  0
LINE
  5
2DB
100
AcDbEntity
  8
RUNDUNGEN
100
AcDbLine
 62
7
  6
CONTINUOUS
 10
126.8936179958
 20
78.2306691675
 11
126.3140625
 21
78.3859605946
  0
LINE
  5
2DC
100
AcDbEntity
  8
RUNDUNGEN
100
AcDbLine
 62
7
  6
CONTINUOUS
 10
125.9541928561
 20
89.912181182
 11
123.9743698792
 21
84.4726622586
  0
LINE
  5
2DD
100
AcDbEntity
  8
RUNDUNGEN
100
AcDbLine
 62
7
  6
CONTINUOUS
 10
124.5525019454
 20
84.3067844157
 11
124.5381854517
 21
84.2674501726
  0
LINE
  5
2DE
100
AcDbEntity
  8
0
100
AcDbLine
 62
7
  6
CONTINUOUS
 10
119.4140625
 20
66.806969096
 11
119.4140625
 21
59.306969096
  0
LINE
  5
2DF
100
AcDbEntity
  8
RUNDUNGEN
100
AcDbLine
 62
7
  6
CONTINUOUS
 10
122.8140625
 20
65.165799771
 11
122.8140625
 21
59.806969096
  0
LINE
  5
2E0
100
AcDbEntity
  8
RUNDUNGEN
100
AcDbLine
 62
7
  6
CONTINUOUS
 10
112.7102626294
 20
54.8493419773
 11
113.0983056943
 21
55.306969096
  0
LINE
  5
2E1
100
AcDbEntity
  8
0
100
AcDbLine
 62
7
  6
CONTINUOUS
 10
129.4140625
 20
90.306969096
 11
126.5180084285
 21
90.306969096
  0
LINE
  5
2E2
100
AcDbEntity
  8
0
100
AcDbLine
 62
7
  6
CONTINUOUS
 10
107.3101165715
 20
90.306969096
 11
101.5180084285
 21
90.306969096
  0
LINE
  5
2E3
100
AcDbEntity
  8
RUNDUNGEN
100
AcDbLine
 62
7
  6
CONTINUOUS
 10
107.3101165715
 20
90.306969096
 11
101.5180084285
 21
90.306969096
  0
LINE
  5
2E4
100
AcDbEntity
  8
0
100
AcDbLine
 62
7
  6
CONTINUOUS
 10
82.3101165715
 20
90.306969096
 11
79.4140625
 21
90.306969096
  0
LINE
  5
2E5
100
AcDbEntity
  8
RUNDUNGEN
100
AcDbLine
 62
7
  6
CONTINUOUS
 10
82.3101165715
 20
90.306969096
 11
79.4140625
 21
90.306969096
  0
LINE
  5
2E6
100
AcDbEntity
  8
RUNDUNGEN
100
AcDbLine
 62
7
  6
CONTINUOUS
 10
126.5180084285
 20
90.306969096
 11
129.4140625
 21
90.306969096
  0
LINE
  5
2E7
100
AcDbEntity
  8
RUNDUNGEN
100
AcDbLine
 62
7
  6
CONTINUOUS
 10
124.5381854517
 20
84.2674501726
 11
123.9743698792
 21
84.4726622586
  0
LINE
  5
2E8
100
AcDbEntity
  8
RUNDUNGEN
100
AcDbLine
 62
7
  6
CONTINUOUS
 10
124.5525691635
 20
84.306969096
 11
123.988753591
 21
84.512181182
  0
LINE
  5
2E9
100
AcDbEntity
  8
RUNDUNGEN
100
AcDbLine
 62
7
  6
CONTINUOUS
 10
123.4140625
 20
65.165799771
 11
123.4140625
 21
59.806969096
  0
LINE
  5
2EA
100
AcDbEntity
  8
RUNDUNGEN
100
AcDbLine
 62
7
  6
CONTINUOUS
 10
123.9140625
 20
84.1306421153
 11
123.9140625
 21
77.306969096
  0
LINE
  5
2EB
100
AcDbEntity
  8
RUNDUNGEN
100
AcDbLine
 62
7
  6
CONTINUOUS
 10
124.5140625
 20
84.1306421153
 11
124.5140625
 21
77.306969096
  0
LINE
  5
2EC
100
AcDbEntity
  8
RUNDUNGEN
100
AcDbLine
 62
7
  6
CONTINUOUS
 10
126.3140625
 20
78.3859605946
 11
122.8549515085
 21
65.4763826251
  0
LINE
  5
2ED
100
AcDbEntity
  8
RUNDUNGEN
100
AcDbLine
 62
7
  6
CONTINUOUS
 10
126.8936179958
 20
78.2306691675
 11
123.4345070042
 21
65.321091198
  0
LINE
  5
2EE
100
AcDbEntity
  8
RUNDUNGEN
100
AcDbLine
 62
7
  6
CONTINUOUS
 10
126.3140625
 20
80.5122359038
 11
126.3140625
 21
78.3859605946
  0
LINE
  5
2EF
100
AcDbEntity
  8
RUNDUNGEN
100
AcDbLine
 62
7
  6
CONTINUOUS
 10
126.9140625
 20
80.5121851015
 11
126.9140625
 21
78.3859605946
  0
LINE
  5
2F0
100
AcDbEntity
  8
RUNDUNGEN
100
AcDbLine
 62
7
  6
CONTINUOUS
 10
126.8936179959
 20
78.2306691678
 11
126.9140625
 21
78.3859605943
  0
LINE
  5
2F1
100
AcDbEntity
  8
RUNDUNGEN
100
AcDbLine
 62
7
  6
CONTINUOUS
 10
127.5140625
 20
84.306969096
 11
127.5140625
 21
78.9242340947
  0
LINE
  5
2F2
100
AcDbEntity
  8
0
100
AcDbLine
 62
7
  6
CONTINUOUS
 10
129.4140625
 20
78.306969096
 11
129.4140625
 21
90.306969096
  0
ARC
  5
2F3
100
AcDbEntity
  8
RUNDUNGEN
100
AcDbCircle
 62
7
  6
CONTINUOUS
 10
97.8133194806
 20
150.4408684785
 40
0.6211875719
100
AcDbArc
 50
351.2870438507
 51
359.977403328
  0
ARC
  5
2F4
100
AcDbEntity
  8
RUNDUNGEN
100
AcDbCircle
 62
7
  6
CONTINUOUS
 10
86.0148055191
 20
150.4408684783
 40
0.6211875717
100
AcDbArc
 50
180.0225966542
 51
188.7129538992
  0
ARC
  5
2F5
100
AcDbEntity
  8
RUNDUNGEN
100
AcDbCircle
 62
7
  6
CONTINUOUS
 10
97.8140625
 20
150.4406234906
 40
0.6
100
AcDbArc
 50
270.0
 51
360.0
  0
ARC
  5
2F6
100
AcDbEntity
  8
RUNDUNGEN
100
AcDbCircle
 62
7
  6
CONTINUOUS
 10
101.3140625
 20
150.4406234906
 40
0.6
100
AcDbArc
 50
270.0
 51
360.0
  0
ARC
  5
2F7
100
AcDbEntity
  8
RUNDUNGEN
100
AcDbCircle
 62
7
  6
CONTINUOUS
 10
82.5140625
 20
150.4406234906
 40
0.6
100
AcDbArc
 50
180.0
 51
270.0
  0
ARC
  5
2F8
100
AcDbEntity
  8
RUNDUNGEN
100
AcDbCircle
 62
7
  6
CONTINUOUS
 10
86.0140625
 20
150.4406234906
 40
0.6
100
AcDbArc
 50
180.0
 51
270.0
  0
ARC
  5
2F9
100
AcDbEntity
  8
RUNDUNGEN
100
AcDbCircle
 62
7
  6
CONTINUOUS
 10
97.8546662057
 20
150.4015257036
 40
0.5609022855
100
AcDbArc
 50
270.0291434787
 51
279.3309005495
  0
ARC
  5
2FA
100
AcDbEntity
  8
RUNDUNGEN
100
AcDbCircle
 62
7
  6
CONTINUOUS
 10
85.9734587942
 20
150.4015257038
 40
0.5609022858
100
AcDbArc
 50
260.66910134
 51
269.9708565382
  0
ARC
  5
2FB
100
AcDbEntity
  8
RUNDUNGEN
100
AcDbCircle
 62
7
  6
CONTINUOUS
 10
97.8133194809
 20
161.2403785029
 40
0.6211875717
100
AcDbArc
 50
0.0225966542
 51
8.7129538992
  0
ARC
  5
2FC
100
AcDbEntity
  8
RUNDUNGEN
100
AcDbCircle
 62
7
  6
CONTINUOUS
 10
86.0148055194
 20
161.2403785028
 40
0.6211875719
100
AcDbArc
 50
171.2870438507
 51
179.977403328
  0
ARC
  5
2FD
100
AcDbEntity
  8
RUNDUNGEN
100
AcDbCircle
 62
7
  6
CONTINUOUS
 10
101.3140625
 20
161.2406234906
 40
0.6
100
AcDbArc
 50
0.0
 51
90.0
  0
ARC
  5
2FE
100
AcDbEntity
  8
RUNDUNGEN
100
AcDbCircle
 62
7
  6
CONTINUOUS
 10
97.8140625
 20
161.2406234906
 40
0.6
100
AcDbArc
 50
0.0
 51
90.0
  0
ARC
  5
2FF
100
AcDbEntity
  8
RUNDUNGEN
100
AcDbCircle
 62
7
  6
CONTINUOUS
 10
86.0140625
 20
161.2406234906
 40
0.6
100
AcDbArc
 50
90.0
 51
180.0
  0
ARC
  5
300
100
AcDbEntity
  8
RUNDUNGEN
100
AcDbCircle
 62
7
  6
CONTINUOUS
 10
82.5140625
 20
161.2406234906
 40
0.6
100
AcDbArc
 50
90.0
 51
180.0
  0
ARC
  5
301
100
AcDbEntity
  8
RUNDUNGEN
100
AcDbCircle
 62
7
  6
CONTINUOUS
 10
97.8546662058
 20
161.2797212774
 40
0.5609022858
100
AcDbArc
 50
80.66910134
 51
89.9708565382
  0
ARC
  5
302
100
AcDbEntity
  8
RUNDUNGEN
100
AcDbCircle
 62
7
  6
CONTINUOUS
 10
85.9734587943
 20
161.2797212776
 40
0.5609022855
100
AcDbArc
 50
90.0291434787
 51
99.3309005496
  0
ARC
  5
303
100
AcDbEntity
  8
RUNDUNGEN
100
AcDbCircle
 62
7
  6
CONTINUOUS
 10
122.8133194806
 20
150.4408684785
 40
0.6211875719
100
AcDbArc
 50
351.2870438507
 51
359.977403328
  0
ARC
  5
304
100
AcDbEntity
  8
RUNDUNGEN
100
AcDbCircle
 62
7
  6
CONTINUOUS
 10
111.0148055191
 20
150.4408684783
 40
0.6211875717
100
AcDbArc
 50
180.0225966542
 51
188.7129538992
  0
ARC
  5
305
100
AcDbEntity
  8
RUNDUNGEN
100
AcDbCircle
 62
7
  6
CONTINUOUS
 10
126.2724305224
 20
150.4408683779
 40
0.6211875217
100
AcDbArc
 50
351.2881068619
 51
359.9774126093
  0
ARC
  5
306
100
AcDbEntity
  8
RUNDUNGEN
100
AcDbCircle
 62
7
  6
CONTINUOUS
 10
122.8140625
 20
150.4406234906
 40
0.6
100
AcDbArc
 50
270.0
 51
360.0
  0
ARC
  5
307
100
AcDbEntity
  8
RUNDUNGEN
100
AcDbCircle
 62
7
  6
CONTINUOUS
 10
126.3140625
 20
150.4406234906
 40
0.6
100
AcDbArc
 50
270.0
 51
360.0
  0
ARC
  5
308
100
AcDbEntity
  8
RUNDUNGEN
100
AcDbCircle
 62
7
  6
CONTINUOUS
 10
107.5140625
 20
150.4406234906
 40
0.6
100
AcDbArc
 50
180.0
 51
270.0
  0
ARC
  5
309
100
AcDbEntity
  8
RUNDUNGEN
100
AcDbCircle
 62
7
  6
CONTINUOUS
 10
111.0140625
 20
150.4406234906
 40
0.6
100
AcDbArc
 50
180.0
 51
270.0
  0
ARC
  5
30A
100
AcDbEntity
  8
RUNDUNGEN
100
AcDbCircle
 62
7
  6
CONTINUOUS
 10
122.8546662057
 20
150.4015257036
 40
0.5609022855
100
AcDbArc
 50
270.0291434787
 51
279.3309005496
  0
ARC
  5
30B
100
AcDbEntity
  8
RUNDUNGEN
100
AcDbCircle
 62
7
  6
CONTINUOUS
 10
110.9734587942
 20
150.4015257038
 40
0.5609022858
100
AcDbArc
 50
260.66910134
 51
269.9708565382
  0
ARC
  5
30C
100
AcDbEntity
  8
RUNDUNGEN
100
AcDbCircle
 62
7
  6
CONTINUOUS
 10
122.8133194809
 20
161.2403785029
 40
0.6211875717
100
AcDbArc
 50
0.0225966541
 51
8.7129538992
  0
ARC
  5
30D
100
AcDbEntity
  8
RUNDUNGEN
100
AcDbCircle
 62
7
  6
CONTINUOUS
 10
111.0148055194
 20
161.2403785028
 40
0.6211875719
100
AcDbArc
 50
171.2870438507
 51
179.977403328
  0
ARC
  5
30E
100
AcDbEntity
  8
RUNDUNGEN
100
AcDbCircle
 62
7
  6
CONTINUOUS
 10
126.3140625
 20
161.2406234906
 40
0.6
100
AcDbArc
 50
0.0
 51
90.0
  0
ARC
  5
30F
100
AcDbEntity
  8
RUNDUNGEN
100
AcDbCircle
 62
7
  6
CONTINUOUS
 10
122.8140625
 20
161.2406234906
 40
0.6
100
AcDbArc
 50
0.0
 51
90.0
  0
ARC
  5
310
100
AcDbEntity
  8
RUNDUNGEN
100
AcDbCircle
 62
7
  6
CONTINUOUS
 10
111.0140625
 20
161.2406234906
 40
0.6
100
AcDbArc
 50
90.0
 51
180.0
  0
ARC
  5
311
100
AcDbEntity
  8
RUNDUNGEN
100
AcDbCircle
 62
7
  6
CONTINUOUS
 10
107.5140625
 20
161.2406234906
 40
0.6
100
AcDbArc
 50
90.0
 51
180.0
  0
ARC
  5
312
100
AcDbEntity
  8
RUNDUNGEN
100
AcDbCircle
 62
7
  6
CONTINUOUS
 10
122.8546662058
 20
161.2797212774
 40
0.5609022858
100
AcDbArc
 50
80.66910134
 51
89.9708565382
  0
ARC
  5
313
100
AcDbEntity
  8
RUNDUNGEN
100
AcDbCircle
 62
7
  6
CONTINUOUS
 10
110.9734587943
 20
161.2797212776
 40
0.5609022855
100
AcDbArc
 50
90.0291434787
 51
99.3309005496
  0
ARC
  5
314
100
AcDbEntity
  8
RUNDUNGEN
100
AcDbCircle
 62
7
  6
CONTINUOUS
 10
200.3530692993
 20
155.555355333
 40
11.0309990627
100
AcDbArc
 50
346.2041191876
 51
350.1400137851
  0
ARC
  5
315
100
AcDbEntity
  8
RUNDUNGEN
100
AcDbCircle
 62
7
  6
CONTINUOUS
 10
200.3536396885
 20
156.126011099
 40
11.0304166438
100
AcDbArc
 50
9.8598822641
 51
13.7959847632
  0
ARC
  5
316
100
AcDbEntity
  8
RUNDUNGEN
100
AcDbCircle
 62
7
  6
CONTINUOUS
 10
205.144831272
 20
155.8406234906
 40
6.6
100
AcDbArc
 50
305.0972599668
 51
333.7823732492
  0
ARC
  5
317
100
AcDbEntity
  8
RUNDUNGEN
100
AcDbCircle
 62
7
  6
CONTINUOUS
 10
205.144831272
 20
155.8406234906
 40
6.6
100
AcDbArc
 50
26.2176267508
 51
54.9027529868
  0
ARC
  5
318
100
AcDbEntity
  8
RUNDUNGEN
100
AcDbCircle
 62
7
  6
CONTINUOUS
 10
204.9899973816
 20
155.8405459641
 40
6.5995424638
100
AcDbArc
 50
340.7652326366
 51
19.2346681685
  0
CIRCLE
  5
319
100
AcDbEntity
  8
0
100
AcDbCircle
 62
7
  6
CONTINUOUS
 10
205.144831272
 20
155.8406234906
 40
6.0
  0
CIRCLE
  5
31A
100
AcDbEntity
  8
0
100
AcDbCircle
 62
7
  6
CONTINUOUS
 10
205.144831272
 20
155.8406234906
 40
2.7
  0
ARC
  5
31B
100
AcDbEntity
  8
0
100
AcDbCircle
 62
7
  6
CONTINUOUS
 10
230.339831272
 20
155.8406234906
 40
2.695
100
AcDbArc
 50
270.0
 51
90.0
  0
ARC
  5
31C
100
AcDbEntity
  8
0
100
AcDbCircle
 62
7
  6
CONTINUOUS
 10
222.339831272
 20
155.8406234906
 40
2.695
100
AcDbArc
 50
90.0
 51
270.0
  0
ARC
  5
31D
100
AcDbEntity
  8
RUNDUNGEN
100
AcDbCircle
 62
7
  6
CONTINUOUS
 10
234.144831272
 20
159.8406234906
 40
2.0
100
AcDbArc
 50
0.0
 51
89.9997355797
  0
ARC
  5
31E
100
AcDbEntity
  8
RUNDUNGEN
100
AcDbCircle
 62
7
  6
CONTINUOUS
 10
234.144831272
 20
151.8406234906
 40
2.0
100
AcDbArc
 50
270.001706338
 51
360.0
  0
ARC
  5
31F
100
AcDbEntity
  8
RUNDUNGEN
100
AcDbCircle
 62
7
  6
CONTINUOUS
 10
91.9140625
 20
59.806969096
 40
6.5
100
AcDbArc
 50
180.0
 51
360.0
  0
ARC
  5
320
100
AcDbEntity
  8
0
100
AcDbCircle
 62
7
  6
CONTINUOUS
 10
91.9140625
 20
59.806969096
 40
6.5
100
AcDbArc
 50
184.8963947798
 51
186.1379745931
  0
ARC
  5
321
100
AcDbEntity
  8
RUNDUNGEN
100
AcDbCircle
 62
7
  6
CONTINUOUS
 10
91.9140625
 20
59.806969096
 40
5.9
100
AcDbArc
 50
310.296032223
 51
360.0
  0
ARC
  5
322
100
AcDbEntity
  8
RUNDUNGEN
100
AcDbCircle
 62
7
  6
CONTINUOUS
 10
91.9140625
 20
59.806969096
 40
5.9
100
AcDbArc
 50
180.0
 51
229.703982377
  0
ARC
  5
323
100
AcDbEntity
  8
0
100
AcDbCircle
 62
7
  6
CONTINUOUS
 10
91.9140625
 20
66.806969096
 40
2.5
100
AcDbArc
 50
0.0
 51
180.0
  0
ARC
  5
324
100
AcDbEntity
  8
0
100
AcDbCircle
 62
7
  6
CONTINUOUS
 10
91.9140625
 20
59.306969096
 40
2.5
100
AcDbArc
 50
180.0
 51
360.0
  0
ARC
  5
325
100
AcDbEntity
  8
RUNDUNGEN
100
AcDbCircle
 62
7
  6
CONTINUOUS
 10
99.0140625
 20
65.165799771
 40
1.2
100
AcDbArc
 50
165.0
 51
180.0
  0
ARC
  5
326
100
AcDbEntity
  8
RUNDUNGEN
100
AcDbCircle
 62
7
  6
CONTINUOUS
 10
84.8140625
 20
65.165799771
 40
1.2
100
AcDbArc
 50
0.0
 51
15.0
  0
ARC
  5
327
100
AcDbEntity
  8
RUNDUNGEN
100
AcDbCircle
 62
7
  6
CONTINUOUS
 10
84.8140625
 20
65.165799771
 40
0.6
100
AcDbArc
 50
0.0
 51
15.0
  0
ARC
  5
328
100
AcDbEntity
  8
RUNDUNGEN
100
AcDbCircle
 62
7
  6
CONTINUOUS
 10
99.0140625
 20
65.165799771
 40
0.6
100
AcDbArc
 50
165.0
 51
180.0
  0
ARC
  5
329
100
AcDbEntity
  8
RUNDUNGEN
100
AcDbCircle
 62
7
  6
CONTINUOUS
 10
82.3139019818
 20
78.9248938445
 40
0.9998396995
100
AcDbArc
 50
180.037806943
 51
196.442512427
  0
ARC
  5
32A
100
AcDbEntity
  8
RUNDUNGEN
100
AcDbCircle
 62
7
  6
CONTINUOUS
 10
82.5140625
 20
78.3859605946
 40
0.6
100
AcDbArc
 50
180.0
 51
195.0
  0
ARC
  5
32B
100
AcDbEntity
  8
RUNDUNGEN
100
AcDbCircle
 62
7
  6
CONTINUOUS
 10
81.4536656035
 20
77.7069717224
 40
0.5999997612
100
AcDbArc
 50
14.9997403536
 51
89.9999327983
  0
ARC
  5
32C
100
AcDbEntity
  8
RUNDUNGEN
100
AcDbCircle
 62
7
  6
CONTINUOUS
 10
81.4138230317
 20
78.0896359211
 40
0.5395318273
100
AcDbArc
 50
25.079031849
 51
35.0361730881
  0
ARC
  5
32D
100
AcDbEntity
  8
RUNDUNGEN
100
AcDbCircle
 62
7
  6
CONTINUOUS
 10
81.4202800563
 20
78.0925293141
 40
0.5324571413
100
AcDbArc
 50
15.0367071554
 51
25.0915476097
  0
ARC
  5
32E
100
AcDbEntity
  8
RUNDUNGEN
100
AcDbCircle
 62
7
  6
CONTINUOUS
 10
83.9140625
 20
84.1306421153
 40
1.0
100
AcDbArc
 50
0.0
 51
20.0
  0
ARC
  5
32F
100
AcDbEntity
  8
RUNDUNGEN
100
AcDbCircle
 62
7
  6
CONTINUOUS
 10
82.3101167148
 20
89.7069687021
 40
0.6
100
AcDbArc
 50
20.000040026
 51
90.0000136897
  0
ARC
  5
330
100
AcDbEntity
  8
RUNDUNGEN
100
AcDbCircle
 62
7
  6
CONTINUOUS
 10
83.9140625
 20
84.1306421153
 40
0.4
100
AcDbArc
 50
0.0
 51
20.0
  0
ARC
  5
331
100
AcDbEntity
  8
RUNDUNGEN
100
AcDbCircle
 62
7
  6
CONTINUOUS
 10
91.9140625
 20
77.306969096
 40
7.6
100
AcDbArc
 50
180.0
 51
360.0
  0
ARC
  5
332
100
AcDbEntity
  8
RUNDUNGEN
100
AcDbCircle
 62
7
  6
CONTINUOUS
 10
91.9140625
 20
77.306969096
 40
7.0
100
AcDbArc
 50
180.0
 51
360.0
  0
ARC
  5
333
100
AcDbEntity
  8
RUNDUNGEN
100
AcDbCircle
 62
7
  6
CONTINUOUS
 10
101.5176073711
 20
78.9244037301
 40
0.9964551434
100
AcDbArc
 50
343.529434602
 51
359.990246028
  0
ARC
  5
334
100
AcDbEntity
  8
RUNDUNGEN
100
AcDbCircle
 62
7
  6
CONTINUOUS
 10
101.3140625
 20
78.3859605946
 40
0.6
100
AcDbArc
 50
345.0
 51
360.0
  0
ARC
  5
335
100
AcDbEntity
  8
RUNDUNGEN
100
AcDbCircle
 62
7
  6
CONTINUOUS
 10
102.374459956
 20
77.7069738104
 40
0.5999995714
100
AcDbArc
 50
90.0001206289
 51
165.0004660707
  0
ARC
  5
336
100
AcDbEntity
  8
RUNDUNGEN
100
AcDbCircle
 62
7
  6
CONTINUOUS
 10
102.4142996218
 20
78.089646232
 40
0.5395265214
100
AcDbArc
 50
144.9645085712
 51
154.9218040412
  0
ARC
  5
337
100
AcDbEntity
  8
RUNDUNGEN
100
AcDbCircle
 62
7
  6
CONTINUOUS
 10
102.4078428996
 20
78.092539365
 40
0.5324522179
100
AcDbArc
 50
154.9092877191
 51
164.9642802622
  0
ARC
  5
338
100
AcDbEntity
  8
RUNDUNGEN
100
AcDbCircle
 62
7
  6
CONTINUOUS
 10
99.9140625
 20
84.1306421153
 40
1.0
100
AcDbArc
 50
160.0
 51
180.0
  0
ARC
  5
339
100
AcDbEntity
  8
RUNDUNGEN
100
AcDbCircle
 62
7
  6
CONTINUOUS
 10
101.5180082985
 20
89.7069687387
 40
0.6
100
AcDbArc
 50
89.9999875806
 51
159.999963688
  0
ARC
  5
33A
100
AcDbEntity
  8
RUNDUNGEN
100
AcDbCircle
 62
7
  6
CONTINUOUS
 10
99.9140625
 20
84.1306421153
 40
0.4
100
AcDbArc
 50
160.0
 51
180.0
  0
ARC
  5
33B
100
AcDbEntity
  8
RUNDUNGEN
100
AcDbCircle
 62
7
  6
CONTINUOUS
 10
116.9140625
 20
59.806969096
 40
6.5
100
AcDbArc
 50
180.0
 51
360.0
  0
ARC
  5
33C
100
AcDbEntity
  8
RUNDUNGEN
100
AcDbCircle
 62
7
  6
CONTINUOUS
 10
116.9140625
 20
59.806969096
 40
5.9
100
AcDbArc
 50
310.2960322227
 51
360.0
  0
ARC
  5
33D
100
AcDbEntity
  8
RUNDUNGEN
100
AcDbCircle
 62
7
  6
CONTINUOUS
 10
116.9140625
 20
59.806969096
 40
5.9
100
AcDbArc
 50
180.0
 51
229.7039823773
  0
ARC
  5
33E
100
AcDbEntity
  8
0
100
AcDbCircle
 62
7
  6
CONTINUOUS
 10
116.9140625
 20
66.806969096
 40
2.5
100
AcDbArc
 50
0.0
 51
180.0
  0
ARC
  5
33F
100
AcDbEntity
  8
0
100
AcDbCircle
 62
7
  6
CONTINUOUS
 10
116.9140625
 20
59.306969096
 40
2.5
100
AcDbArc
 50
180.0
 51
360.0
  0
ARC
  5
340
100
AcDbEntity
  8
RUNDUNGEN
100
AcDbCircle
 62
7
  6
CONTINUOUS
 10
124.0140625
 20
65.165799771
 40
1.2
100
AcDbArc
 50
165.0
 51
180.0
  0
ARC
  5
341
100
AcDbEntity
  8
RUNDUNGEN
100
AcDbCircle
 62
7
  6
CONTINUOUS
 10
109.8140625
 20
65.165799771
 40
1.2
100
AcDbArc
 50
0.0
 51
15.0
  0
ARC
  5
342
100
AcDbEntity
  8
RUNDUNGEN
100
AcDbCircle
 62
7
  6
CONTINUOUS
 10
124.0140625
 20
65.165799771
 40
0.6
100
AcDbArc
 50
165.0
 51
180.0
  0
ARC
  5
343
100
AcDbEntity
  8
RUNDUNGEN
100
AcDbCircle
 62
7
  6
CONTINUOUS
 10
109.8140625
 20
65.165799771
 40
0.6
100
AcDbArc
 50
0.0
 51
15.0
  0
ARC
  5
344
100
AcDbEntity
  8
RUNDUNGEN
100
AcDbCircle
 62
7
  6
CONTINUOUS
 10
107.3139071143
 20
78.9248945878
 40
0.9998448325
100
AcDbArc
 50
180.0378493424
 51
196.4424700275
  0
ARC
  5
345
100
AcDbEntity
  8
RUNDUNGEN
100
AcDbCircle
 62
7
  6
CONTINUOUS
 10
107.5140625
 20
78.3859605946
 40
0.6
100
AcDbArc
 50
180.0
 51
195.0
  0
ARC
  5
346
100
AcDbEntity
  8
RUNDUNGEN
100
AcDbCircle
 62
7
  6
CONTINUOUS
 10
106.4536656085
 20
77.7069717037
 40
0.5999997629
100
AcDbArc
 50
14.9997421965
 51
89.9999332752
  0
ARC
  5
347
100
AcDbEntity
  8
RUNDUNGEN
100
AcDbCircle
 62
7
  6
CONTINUOUS
 10
106.4138230571
 20
78.0896359334
 40
0.5395318037
100
AcDbArc
 50
25.079031644
 51
35.0361732501
  0
ARC
  5
348
100
AcDbEntity
  8
RUNDUNGEN
100
AcDbCircle
 62
7
  6
CONTINUOUS
 10
106.4202800835
 20
78.0925293273
 40
0.5324571157
100
AcDbArc
 50
15.0367065508
 51
25.0915474064
  0
ARC
  5
349
100
AcDbEntity
  8
RUNDUNGEN
100
AcDbCircle
 62
7
  6
CONTINUOUS
 10
108.9140625
 20
84.1306421153
 40
1.0
100
AcDbArc
 50
0.0
 51
20.0
  0
ARC
  5
34A
100
AcDbEntity
  8
RUNDUNGEN
100
AcDbCircle
 62
7
  6
CONTINUOUS
 10
107.3101167148
 20
89.7069687021
 40
0.6
100
AcDbArc
 50
20.000040026
 51
90.0000136897
  0
ARC
  5
34B
100
AcDbEntity
  8
RUNDUNGEN
100
AcDbCircle
 62
7
  6
CONTINUOUS
 10
108.9140625
 20
84.1306421153
 40
0.4
100
AcDbArc
 50
0.0
 51
20.0
  0
ARC
  5
34C
100
AcDbEntity
  8
RUNDUNGEN
100
AcDbCircle
 62
7
  6
CONTINUOUS
 10
116.9140625
 20
77.306969096
 40
7.6
100
AcDbArc
 50
180.0
 51
360.0
  0
ARC
  5
34D
100
AcDbEntity
  8
RUNDUNGEN
100
AcDbCircle
 62
7
  6
CONTINUOUS
 10
116.9140625
 20
77.306969096
 40
7.0
100
AcDbArc
 50
180.0
 51
360.0
  0
ARC
  5
34E
100
AcDbEntity
  8
RUNDUNGEN
100
AcDbCircle
 62
7
  6
CONTINUOUS
 10
126.5176082827
 20
78.9244035981
 40
0.9964542317
100
AcDbArc
 50
343.5294270198
 51
359.9902536103
  0
ARC
  5
34F
100
AcDbEntity
  8
RUNDUNGEN
100
AcDbCircle
 62
7
  6
CONTINUOUS
 10
126.3140625
 20
78.3859605946
 40
0.6
100
AcDbArc
 50
345.0
 51
360.0
  0
ARC
  5
350
100
AcDbEntity
  8
RUNDUNGEN
100
AcDbCircle
 62
7
  6
CONTINUOUS
 10
127.3744599472
 20
77.7069737776
 40
0.5999995744
100
AcDbArc
 50
90.0001197891
 51
165.0004628261
  0
ARC
  5
351
100
AcDbEntity
  8
RUNDUNGEN
100
AcDbCircle
 62
7
  6
CONTINUOUS
 10
127.4142996054
 20
78.0896461827
 40
0.5395265278
100
AcDbArc
 50
144.9645040875
 51
154.9217990581
  0
ARC
  5
352
100
AcDbEntity
  8
RUNDUNGEN
100
AcDbCircle
 62
7
  6
CONTINUOUS
 10
127.40784288
 20
78.0925393179
 40
0.5324522203
100
AcDbArc
 50
154.9092827368
 51
164.9642748243
  0
ARC
  5
353
100
AcDbEntity
  8
RUNDUNGEN
100
AcDbCircle
 62
7
  6
CONTINUOUS
 10
124.9140625
 20
84.1306421153
 40
1.0
100
AcDbArc
 50
160.0
 51
180.0
  0
ARC
  5
354
100
AcDbEntity
  8
RUNDUNGEN
100
AcDbCircle
 62
7
  6
CONTINUOUS
 10
126.5180082985
 20
89.7069687387
 40
0.6
100
AcDbArc
 50
89.9999875806
 51
159.999963688
  0
ARC
  5
355
100
AcDbEntity
  8
RUNDUNGEN
100
AcDbCircle
 62
7
  6
CONTINUOUS
 10
124.9140625
 20
84.1306421153
 40
0.4
100
AcDbArc
 50
160.0
 51
180.0
  0
SPLINE
  5
356
100
AcDbEntity
  8
0
100
AcDbSpline
 62
7
  6
CONTINUOUS
 70
0
 71
3
 72
9
 73
5
 74
0
 42
0.0000001
 43
0.0000001
 44
0.0000000001
 40
0.0
 40
0.0
 40
0.0
 40
0.0
 40
0.2037071153
 40
1.0
 40
1.0
 40
1.0
 40
1.0
 10
98.3767999231
 20
153.1456234906
 30
0.0
 10
98.3742163935
 20
153.1456234906
 30
0.0
 10
98.3615283191
 20
153.1472590956
 30
0.0
 10
98.3500718447
 20
153.1537764789
 30
0.0
 10
98.3416994081
 20
153.1594238595
 30
0.0
  0
SPLINE
  5
357
100
AcDbEntity
  8
0
100
AcDbSpline
 62
7
  6
CONTINUOUS
 70
0
 71
3
 72
28
 73
24
 74
0
 42
0.0000001
 43
0.0000001
 44
0.0000000001
 40
0.0
 40
0.0
 40
0.0
 40
0.0
 40
0.0100831186
 40
0.0242416162
 40
0.0423660408
 40
0.0642378909
 40
0.1181247841
 40
0.1837047522
 40
0.2588997301
 40
0.3417061378
 40
0.4298536058
 40
0.5204660022
 40
0.6101930758
 40
0.6958663473
 40
0.7749509273
 40
0.8453686569
 40
0.9051069864
 40
0.9303060739
 40
0.9520137545
 40
0.9699629463
 40
0.9839378469
 40
0.9938388034
 40
1.0
 40
1.0
 40
1.0
 40
1.0
 10
98.3416994081
 20
153.1594238595
 30
0.0
 10
98.3255704714
 20
153.170303159
 30
0.0
 10
98.2913474204
 20
153.2028195853
 30
0.0
 10
98.2392644608
 20
153.2657903415
 30
0.0
 10
98.1790118664
 20
153.3513107408
 30
0.0
 10
98.0827833701
 20
153.5048270703
 30
0.0
 10
97.9539600014
 20
153.7455781135
 30
0.0
 10
97.8011013197
 20
154.0890006338
 30
0.0
 10
97.6570525012
 20
154.4961882669
 30
0.0
 10
97.5395520114
 20
154.9571401566
 30
0.0
 10
97.4666337674
 20
155.457598127
 30
0.0
 10
97.4518129841
 20
155.9766639294
 30
0.0
 10
97.4981478735
 20
156.4890091579
 30
0.0
 10
97.5965015977
 20
156.9709986451
 30
0.0
 10
97.7301874775
 20
157.4052781965
 30
0.0
 10
97.8809650534
 20
157.7802083073
 30
0.0
 10
98.0132973621
 20
158.0495354699
 30
0.0
 10
98.1151468297
 20
158.2283689208
 30
0.0
 10
98.1819403746
 20
158.3343027728
 30
0.0
 10
98.2416933198
 20
158.4187067791
 30
0.0
 10
98.2937737588
 20
158.4809797748
 30
0.0
 10
98.3356069476
 20
158.5202210379
 30
0.0
 10
98.3649120505
 20
158.5356234906
 30
0.0
 10
98.3767999231
 20
158.5356234906
 30
0.0
  0
SPLINE
  5
358
100
AcDbEntity
  8
0
100
AcDbSpline
 62
7
  6
CONTINUOUS
 70
0
 71
3
 72
9
 73
5
 74
0
 42
0.0000001
 43
0.0000001
 44
0.0000000001
 40
0.0
 40
0.0
 40
0.0
 40
0.0
 40
0.2034741377
 40
1.0
 40
1.0
 40
1.0
 40
1.0
 10
110.4513250769
 20
158.5356234906
 30
0.0
 10
110.4539225787
 20
158.5356234906
 30
0.0
 10
110.4666937127
 20
158.5339677711
 30
0.0
 10
110.4782137865
 20
158.5273823676
 30
0.0
 10
110.486633956
 20
158.5216819994
 30
0.0
  0
SPLINE
  5
359
100
AcDbEntity
  8
0
100
AcDbSpline
 62
7
  6
CONTINUOUS
 70
0
 71
3
 72
28
 73
24
 74
0
 42
0.0000001
 43
0.0000001
 44
0.0000000001
 40
0.0
 40
0.0
 40
0.0
 40
0.0
 40
0.0101031472
 40
0.0242803194
 40
0.0424212631
 40
0.0643071828
 40
0.1182153246
 40
0.1838097463
 40
0.259013279
 40
0.3418221303
 40
0.4299648136
 40
0.5205634966
 40
0.6102733948
 40
0.6959312364
 40
0.7749999107
 40
0.8454034416
 40
0.9051282674
 40
0.9303213279
 40
0.9520237279
 40
0.9699687577
 40
0.9839404233
 40
0.9938395197
 40
1.0
 40
1.0
 40
1.0
 40
1.0
 10
110.486633956
 20
158.5216819994
 30
0.0
 10
110.5027757321
 20
158.5107541827
 30
0.0
 10
110.5370218927
 20
158.4781614167
 30
0.0
 10
110.5891408977
 20
158.4150855311
 30
0.0
 10
110.6494193973
 20
158.3294735788
 30
0.0
 10
110.7456623002
 20
158.1758572772
 30
0.0
 10
110.8744867587
 20
157.9350118081
 30
0.0
 10
111.0273206153
 20
157.5915022645
 30
0.0
 10
111.1713152468
 20
157.1842629608
 30
0.0
 10
111.2887322061
 20
156.723298489
 30
0.0
 10
111.3615580714
 20
156.2228805285
 30
0.0
 10
111.3762863446
 20
155.7039036936
 30
0.0
 10
111.3298871183
 20
155.1916774666
 30
0.0
 10
111.231508628
 20
154.7098109757
 30
0.0
 10
111.0978198994
 20
154.2756451591
 30
0.0
 10
110.9470596836
 20
153.9008178997
 30
0.0
 10
110.8147507618
 20
153.6315663139
 30
0.0
 10
110.7129223877
 20
153.4527861972
 30
0.0
 10
110.6461445377
 20
153.3468841542
 30
0.0
 10
110.5864051437
 20
153.2625059593
 30
0.0
 10
110.5343360142
 20
153.2002514818
 30
0.0
 10
110.492510421
 20
153.1610218632
 30
0.0
 10
110.4632110543
 20
153.1456234906
 30
0.0
 10
110.4513250769
 20
153.1456234906
 30
0.0
  0
SPLINE
  5
35A
100
AcDbEntity
  8
0
100
AcDbSpline
 62
7
  6
CONTINUOUS
 70
0
 71
3
 72
9
 73
5
 74
0
 42
0.0000001
 43
0.0000001
 44
0.0000000001
 40
0.0
 40
0.0
 40
0.0
 40
0.0
 40
0.2061455394
 40
1.0
 40
1.0
 40
1.0
 40
1.0
 10
123.3767999231
 20
153.1456234906
 30
0.0
 10
123.3743606856
 20
153.1456234906
 30
0.0
 10
123.3625216778
 20
153.1470599001
 30
0.0
 10
123.3517233907
 20
153.1528920388
 30
0.0
 10
123.3438421268
 20
153.1580029015
 30
0.0
  0
SPLINE
  5
35B
100
AcDbEntity
  8
0
100
AcDbSpline
 62
7
  6
CONTINUOUS
 70
0
 71
3
 72
29
 73
25
 74
0
 42
0.0000001
 43
0.0000001
 44
0.0000000001
 40
0.0
 40
0.0
 40
0.0
 40
0.0
 40
0.0098766042
 40
0.0238390943
 40
0.0417887552
 40
0.0635111433
 40
0.0887359363
 40
0.1171809049
 40
0.1826192229
 40
0.2577444358
 40
0.3405382358
 40
0.4287255577
 40
0.5194255815
 40
0.6092853702
 40
0.6951240493
 40
0.7743868469
 40
0.8449760651
 40
0.9048672651
 40
0.9301317829
 40
0.9518973015
 40
0.969893073
 40
0.9839038467
 40
0.9938284023
 40
1.0
 40
1.0
 40
1.0
 40
1.0
 10
123.3438421268
 20
153.1580029015
 30
0.0
 10
123.327845893
 20
153.1683761812
 30
0.0
 10
123.2938634677
 20
153.2000986044
 30
0.0
 10
123.2421648941
 20
153.2619737004
 30
0.0
 10
123.1821940229
 20
153.3465308538
 30
0.0
 10
123.1153674243
 20
153.4525209749
 30
0.0
 10
123.0432860832
 20
153.5790075609
 30
0.0
 10
122.9373680156
 20
153.7831279546
 30
0.0
 10
122.8042019013
 20
154.0813386374
 30
0.0
 10
122.6595305614
 20
154.4880163691
 30
0.0
 10
122.5411942505
 20
154.9489016547
 30
0.0
 10
122.4672929709
 20
155.4496672502
 30
0.0
 10
122.4515520292
 20
155.9694493906
 30
0.0
 10
122.4972102327
 20
156.4828431346
 30
0.0
 10
122.5952094889
 20
156.9660772808
 30
0.0
 10
122.7288656167
 20
157.4016268328
 30
0.0
 10
122.8798370312
 20
157.7777247074
 30
0.0
 10
123.0124362518
 20
158.0479120926
 30
0.0
 10
123.1145220033
 20
158.2273314599
 30
0.0
 10
123.181480031
 20
158.3336166526
 30
0.0
 10
123.2413835101
 20
158.4183022231
 30
0.0
 10
123.2935884127
 20
158.4807883138
 30
0.0
 10
123.3355115819
 20
158.5201628311
 30
0.0
 10
123.3648866015
 20
158.5356234906
 30
0.0
 10
123.3767999231
 20
158.5356234906
 30
0.0
  0
SPLINE
  5
35C
100
AcDbEntity
  8
0
100
AcDbSpline
 62
7
  6
CONTINUOUS
 70
0
 71
3
 72
29
 73
25
 74
0
 42
0.0000001
 43
0.0000001
 44
0.0000000001
 40
0.0
 40
0.0
 40
0.0
 40
0.0
 40
0.0063751528
 40
0.0167353162
 40
0.0314118581
 40
0.050279184
 40
0.0730939892
 40
0.099558972
 40
0.1622035598
 40
0.2358782299
 40
0.3183898406
 40
0.4074061343
 40
0.500000681
 40
0.5925945743
 40
0.6816095303
 40
0.7641201588
 40
0.8377946254
 40
0.9004396023
 40
0.9269049298
 40
0.949720037
 40
0.9685876861
 40
0.9832644655
 40
0.9936247627
 40
1.0
 40
1.0
 40
1.0
 40
1.0
 10
85.4513250769
 20
158.5356234906
 30
0.0
 10
85.463705671
 20
158.5356234906
 30
0.0
 10
85.4942916273
 20
158.5190058487
 30
0.0
 10
85.5378459106
 20
158.4773162973
 30
0.0
 10
85.5923326084
 20
158.4110376055
 30
0.0
 10
85.6548546637
 20
158.3213086778
 30
0.0
 10
85.7246930614
 20
158.2087695856
 30
0.0
 10
85.8308702897
 20
158.0190702672
 30
0.0
 10
85.9680129533
 20
157.7338332917
 30
0.0
 10
86.1221298043
 20
157.3373070865
 30
0.0
 10
86.2549439391
 20
156.8792497293
 30
0.0
 10
86.3463470437
 20
156.373453805
 30
0.0
 10
86.3791637703
 20
155.8406207882
 30
0.0
 10
86.3463462763
 20
155.3077904686
 30
0.0
 10
86.2549444821
 20
154.8020002246
 30
0.0
 10
86.1221323209
 20
154.3439474155
 30
0.0
 10
85.9680168129
 20
153.94742235
 30
0.0
 10
85.8308741766
 20
153.6621842187
 30
0.0
 10
85.7246963816
 20
153.472482912
 30
0.0
 10
85.6548571833
 20
153.359942097
 30
0.0
 10
85.5923345105
 20
153.2702115734
 30
0.0
 10
85.5378469117
 20
153.2039318042
 30
0.0
 10
85.4942920592
 20
153.1622417159
 30
0.0
 10
85.4637058351
 20
153.1456234906
 30
0.0
 10
85.4513250769
 20
153.1456234906
 30
0.0
  0
SPLINE
  5
35D
100
AcDbEntity
  8
RUNDUNGEN
100
AcDbSpline
 62
7
  6
CONTINUOUS
 70
0
 71
3
 72
14
 73
10
 74
0
 42
0.0000001
 43
0.0000001
 44
0.0000000001
 40
0.0
 40
0.0
 40
0.0
 40
0.0
 40
0.0957184128
 40
0.2028933423
 40
0.3205886454
 40
0.4468778852
 40
0.5797430096
 40
0.7173069521
 40
1.0
 40
1.0
 40
1.0
 40
1.0
 10
120.7298121653
 20
161.8406234906
 30
0.0
 10
120.5908718539
 20
161.8406238351
 30
0.0
 10
120.296455153
 20
161.7962865335
 30
0.0
 10
119.8546458637
 20
161.6469382436
 30
0.0
 10
119.3917114797
 20
161.4318598642
 30
0.0
 10
118.9129265364
 20
161.1667754811
 30
0.0
 10
118.4224119524
 20
160.8648421557
 30
0.0
 10
117.7514739181
 20
160.4237306758
 30
0.0
 10
117.2509128099
 20
160.0749606996
 30
0.0
 10
116.9140625
 20
159.8406234906
 30
0.0
  0
SPLINE
  5
35E
100
AcDbEntity
  8
RUNDUNGEN
100
AcDbSpline
 62
7
  6
CONTINUOUS
 70
0
 71
3
 72
14
 73
10
 74
0
 42
0.0000001
 43
0.0000001
 44
0.0000000001
 40
0.0
 40
0.0
 40
0.0
 40
0.0
 40
0.0957289349
 40
0.2029078511
 40
0.3206063367
 40
0.4468967755
 40
0.5797583344
 40
0.7173157087
 40
1.0
 40
1.0
 40
1.0
 40
1.0
 10
113.0983583749
 20
149.8406234915
 30
0.0
 10
113.2373125262
 20
149.8406209815
 30
0.0
 10
113.531746507
 20
149.8849775721
 30
0.0
 10
113.9735692283
 20
150.0343462895
 30
0.0
 10
114.4365092934
 20
150.2494296278
 30
0.0
 10
114.9152819633
 20
150.5145271349
 30
0.0
 10
115.4057777074
 20
150.8164543664
 30
0.0
 10
116.0766952585
 20
151.2575321547
 30
0.0
 10
116.5772241082
 20
151.6062988201
 30
0.0
 10
116.9140625
 20
151.8406234906
 30
0.0
  0
SPLINE
  5
35F
100
AcDbEntity
  8
RUNDUNGEN
100
AcDbSpline
 62
7
  6
CONTINUOUS
 70
0
 71
3
 72
9
 73
5
 74
0
 42
0.0000001
 43
0.0000001
 44
0.0000000001
 40
0.0
 40
0.0
 40
0.0
 40
0.0
 40
0.2547781732
 40
1.0
 40
1.0
 40
1.0
 40
1.0
 10
106.3549515085
 20
157.8171947721
 30
0.0
 10
106.3490833754
 20
157.8742610111
 30
0.0
 10
106.3275495248
 20
158.0983602171
 30
0.0
 10
106.3140585831
 20
158.3235167464
 30
0.0
 10
106.3140625
 20
158.4913147034
 30
0.0
  0
SPLINE
  5
360
100
AcDbEntity
  8
RUNDUNGEN
100
AcDbSpline
 62
7
  6
CONTINUOUS
 70
0
 71
3
 72
9
 73
5
 74
0
 42
0.0000001
 43
0.0000001
 44
0.0000000001
 40
0.0
 40
0.0
 40
0.0
 40
0.0
 40
0.254464433
 40
1.0
 40
1.0
 40
1.0
 40
1.0
 10
106.4536663072
 20
155.8406234906
 30
0.0
 10
106.4536643165
 20
156.0085284395
 30
0.0
 10
106.4454703953
 20
156.6683241901
 30
0.0
 10
106.4052691647
 20
157.3278432698
 30
0.0
 10
106.3549515085
 20
157.8171947721
 30
0.0
  0
SPLINE
  5
361
100
AcDbEntity
  8
RUNDUNGEN
100
AcDbSpline
 62
7
  6
CONTINUOUS
 70
0
 71
3
 72
9
 73
5
 74
0
 42
0.0000001
 43
0.0000001
 44
0.0000000001
 40
0.0
 40
0.0
 40
0.0
 40
0.0
 40
0.243855561
 40
1.0
 40
1.0
 40
1.0
 40
1.0
 10
102.4731734915
 20
157.8171947721
 30
0.0
 10
102.4567151029
 20
157.6571329588
 30
0.0
 10
102.3983350902
 20
156.9998388016
 30
0.0
 10
102.3744646278
 20
156.3395581586
 30
0.0
 10
102.3744586928
 20
155.8406234906
 30
0.0
  0
SPLINE
  5
362
100
AcDbEntity
  8
RUNDUNGEN
100
AcDbSpline
 62
7
  6
CONTINUOUS
 70
0
 71
3
 72
11
 73
7
 74
0
 42
0.0000001
 43
0.0000001
 44
0.0000000001
 40
0.0
 40
0.0
 40
0.0
 40
0.0
 40
0.2536111736
 40
0.5048434575
 40
0.7534033023
 40
1.0
 40
1.0
 40
1.0
 40
1.0
 10
123.4273383351
 20
150.3467682879
 30
0.0
 10
123.4178964785
 20
150.2850862961
 30
0.0
 10
123.3802521264
 20
150.1643127556
 30
0.0
 10
123.272194626
 20
150.0101372492
 30
0.0
 10
123.1233506078
 20
149.8975202875
 30
0.0
 10
123.0054827737
 20
149.8578681859
 30
0.0
 10
122.9456086727
 20
149.848045043
 30
0.0
  0
SPLINE
  5
363
100
AcDbEntity
  8
RUNDUNGEN
100
AcDbSpline
 62
7
  6
CONTINUOUS
 70
0
 71
3
 72
9
 73
5
 74
0
 42
0.0000001
 43
0.0000001
 44
0.0000000001
 40
0.0
 40
0.0
 40
0.0
 40
0.0
 40
0.2450572808
 40
1.0
 40
1.0
 40
1.0
 40
1.0
 10
102.5140625
 20
158.4913147034
 30
0.0
 10
102.5140642448
 20
158.4361318238
 30
0.0
 10
102.5094907629
 20
158.2109392665
 30
0.0
 10
102.4905628614
 20
157.9863037705
 30
0.0
 10
102.4731734915
 20
157.8171947721
 30
0.0
  0
SPLINE
  5
364
100
AcDbEntity
  8
RUNDUNGEN
100
AcDbSpline
 62
7
  6
CONTINUOUS
 70
0
 71
3
 72
13
 73
9
 74
0
 42
0.0000001
 43
0.0000001
 44
0.0000000001
 40
0.0
 40
0.0
 40
0.0
 40
0.0
 40
0.2958615793
 40
0.5667836985
 40
0.6881883699
 40
0.7993900069
 40
0.9022242922
 40
1.0
 40
1.0
 40
1.0
 40
1.0
 10
96.1178623706
 20
150.4406234906
 30
0.0
 10
96.1178623706
 20
150.3634471168
 30
0.0
 10
96.0997252506
 20
150.2149966886
 30
0.0
 10
96.0304384906
 20
150.0459873156
 30
0.0
 10
95.9496244474
 20
149.9414671004
 30
0.0
 10
95.8821420211
 20
149.8845120293
 30
0.0
 10
95.8079468331
 20
149.8488976022
 30
0.0
 10
95.7553243902
 20
149.8406234906
 30
0.0
 10
95.7298193057
 20
149.8406234906
 30
0.0
  0
SPLINE
  5
365
100
AcDbEntity
  8
RUNDUNGEN
100
AcDbSpline
 62
7
  6
CONTINUOUS
 70
0
 71
3
 72
11
 73
7
 74
0
 42
0.0000001
 43
0.0000001
 44
0.0000000001
 40
0.0
 40
0.0
 40
0.0
 40
0.0
 40
0.2540157727
 40
0.5053041443
 40
0.7536149903
 40
1.0
 40
1.0
 40
1.0
 40
1.0
 10
126.8864510729
 20
150.3467795868
 30
0.0
 10
126.8758453286
 20
150.2774855635
 30
0.0
 10
126.8308451176
 20
150.142061522
 30
0.0
 10
126.6992387792
 20
149.9756729946
 30
0.0
 10
126.5198627579
 20
149.8660922346
 30
0.0
 10
126.3820575839
 20
149.8406234906
 30
0.0
 10
126.3140625
 20
149.8406234906
 30
0.0
  0
SPLINE
  5
366
100
AcDbEntity
  8
RUNDUNGEN
100
AcDbSpline
 62
7
  6
CONTINUOUS
 70
0
 71
3
 72
14
 73
10
 74
0
 42
0.0000001
 43
0.0000001
 44
0.0000000001
 40
0.0
 40
0.0
 40
0.0
 40
0.0
 40
0.282689733
 40
0.4202465798
 40
0.5531076505
 40
0.6793974436
 40
0.7970948843
 40
0.9042725428
 40
1.0
 40
1.0
 40
1.0
 40
1.0
 10
116.9140625
 20
151.8406234906
 30
0.0
 10
117.2509088494
 20
151.6062963091
 30
0.0
 10
117.7514416797
 20
151.2575226711
 30
0.0
 10
118.4223658834
 20
150.8164430389
 30
0.0
 10
118.9128596529
 20
150.5145170414
 30
0.0
 10
119.3916300905
 20
150.2494217982
 30
0.0
 10
119.8545669964
 20
150.0343416153
 30
0.0
 10
120.2963851407
 20
149.8849762014
 30
0.0
 10
120.5908152239
 20
149.8406210105
 30
0.0
 10
120.7297672531
 20
149.8406234915
 30
0.0
  0
SPLINE
  5
367
100
AcDbEntity
  8
RUNDUNGEN
100
AcDbSpline
 62
7
  6
CONTINUOUS
 70
0
 71
3
 72
9
 73
5
 74
0
 42
0.0000001
 43
0.0000001
 44
0.0000000001
 40
0.0
 40
0.0
 40
0.0
 40
0.0
 40
0.2547787722
 40
1.0
 40
1.0
 40
1.0
 40
1.0
 10
102.4731734915
 20
153.8640522092
 30
0.0
 10
102.4790421987
 20
153.8069858953
 30
0.0
 10
102.5005737142
 20
153.5828864526
 30
0.0
 10
102.5140655978
 20
153.3577300953
 30
0.0
 10
102.5140625
 20
153.1899322778
 30
0.0
  0
SPLINE
  5
368
100
AcDbEntity
  8
RUNDUNGEN
100
AcDbSpline
 62
7
  6
CONTINUOUS
 70
0
 71
3
 72
9
 73
5
 74
0
 42
0.0000001
 43
0.0000001
 44
0.0000000001
 40
0.0
 40
0.0
 40
0.0
 40
0.0
 40
0.2544644566
 40
1.0
 40
1.0
 40
1.0
 40
1.0
 10
102.3744586928
 20
155.8406234906
 30
0.0
 10
102.3744610791
 20
155.6727185259
 30
0.0
 10
102.3826537427
 20
155.0129227633
 30
0.0
 10
102.4228562532
 20
154.3534037398
 30
0.0
 10
102.4731734915
 20
153.8640522092
 30
0.0
  0
SPLINE
  5
369
100
AcDbEntity
  8
RUNDUNGEN
100
AcDbSpline
 62
7
  6
CONTINUOUS
 70
0
 71
3
 72
9
 73
5
 74
0
 42
0.0000001
 43
0.0000001
 44
0.0000000001
 40
0.0
 40
0.0
 40
0.0
 40
0.0
 40
0.2438555477
 40
1.0
 40
1.0
 40
1.0
 40
1.0
 10
106.3549515085
 20
153.8640522092
 30
0.0
 10
106.3714097552
 20
154.0241140279
 30
0.0
 10
106.429790108
 20
154.6814081643
 30
0.0
 10
106.4536592345
 20
155.3416888149
 30
0.0
 10
106.4536663072
 20
155.8406234906
 30
0.0
  0
SPLINE
  5
36A
100
AcDbEntity
  8
RUNDUNGEN
100
AcDbSpline
 62
7
  6
CONTINUOUS
 70
0
 71
3
 72
9
 73
5
 74
0
 42
0.0000001
 43
0.0000001
 44
0.0000000001
 40
0.0
 40
0.0
 40
0.0
 40
0.0
 40
0.2450568889
 40
1.0
 40
1.0
 40
1.0
 40
1.0
 10
106.3140625
 20
153.1899322778
 30
0.0
 10
106.3140610378
 20
153.2451150699
 30
0.0
 10
106.3186337149
 20
153.4703076087
 30
0.0
 10
106.3375604129
 20
153.6949432977
 30
0.0
 10
106.3549515085
 20
153.8640522092
 30
0.0
  0
SPLINE
  5
36B
100
AcDbEntity
  8
RUNDUNGEN
100
AcDbSpline
 62
7
  6
CONTINUOUS
 70
0
 71
3
 72
11
 73
7
 74
0
 42
0.0000001
 43
0.0000001
 44
0.0000000001
 40
0.0
 40
0.0
 40
0.0
 40
0.0
 40
0.2540210988
 40
0.505659692
 40
0.7539854329
 40
1.0
 40
1.0
 40
1.0
 40
1.0
 10
106.9345070042
 20
150.4406234906
 30
0.0
 10
106.9345070042
 20
150.3626778587
 30
0.0
 10
106.9643002136
 20
150.2058886923
 30
0.0
 10
107.0925582806
 20
150.0065898519
 30
0.0
 10
107.2851393763
 20
149.872223578
 30
0.0
 10
107.4385736489
 20
149.8406234906
 30
0.0
 10
107.5140625
 20
149.8406234906
 30
0.0
  0
SPLINE
  5
36C
100
AcDbEntity
  8
RUNDUNGEN
100
AcDbSpline
 62
7
  6
CONTINUOUS
 70
0
 71
3
 72
11
 73
7
 74
0
 42
0.0000001
 43
0.0000001
 44
0.0000000001
 40
0.0
 40
0.0
 40
0.0
 40
0.0
 40
0.2536111733
 40
0.5048434576
 40
0.7534033027
 40
1.0
 40
1.0
 40
1.0
 40
1.0
 10
110.4007866612
 20
150.3467683119
 30
0.0
 10
110.4102285159
 20
150.2850863162
 30
0.0
 10
110.4478728665
 20
150.1643127674
 30
0.0
 10
110.5559303713
 20
150.0101372505
 30
0.0
 10
110.7047743988
 20
149.8975202827
 30
0.0
 10
110.8226422407
 20
149.8578681815
 30
0.0
 10
110.8825163455
 20
149.84804504
 30
0.0
  0
SPLINE
  5
36D
100
AcDbEntity
  8
RUNDUNGEN
100
AcDbSpline
 62
7
  6
CONTINUOUS
 70
0
 71
3
 72
9
 73
5
 74
0
 42
0.0000001
 43
0.0000001
 44
0.0000000001
 40
0.0
 40
0.0
 40
0.0
 40
0.0
 40
0.2544610326
 40
1.0
 40
1.0
 40
1.0
 40
1.0
 10
126.794903197
 20
155.8406234906
 30
0.0
 10
126.7949063579
 20
155.6559780675
 30
0.0
 10
126.803094576
 20
154.9303820801
 30
0.0
 10
126.8432706628
 20
154.2050351579
 30
0.0
 10
126.8936179958
 20
153.666395081
 30
0.0
  0
SPLINE
  5
36E
100
AcDbEntity
  8
RUNDUNGEN
100
AcDbSpline
 62
7
  6
CONTINUOUS
 70
0
 71
3
 72
11
 73
7
 74
0
 42
0.0000001
 43
0.0000001
 44
0.0000000001
 40
0.0
 40
0.0
 40
0.0
 40
0.0
 40
0.2536111736
 40
0.5048434575
 40
0.7534033023
 40
1.0
 40
1.0
 40
1.0
 40
1.0
 10
98.4273383351
 20
150.3467682879
 30
0.0
 10
98.4178964785
 20
150.2850862961
 30
0.0
 10
98.3802521264
 20
150.1643127556
 30
0.0
 10
98.272194626
 20
150.0101372492
 30
0.0
 10
98.1233506078
 20
149.8975202875
 30
0.0
 10
98.0054827737
 20
149.8578681859
 30
0.0
 10
97.9456086727
 20
149.848045043
 30
0.0
  0
SPLINE
  5
36F
100
AcDbEntity
  8
RUNDUNGEN
100
AcDbSpline
 62
7
  6
CONTINUOUS
 70
0
 71
3
 72
13
 73
9
 74
0
 42
0.0000001
 43
0.0000001
 44
0.0000000001
 40
0.0
 40
0.0
 40
0.0
 40
0.0
 40
0.2958615536
 40
0.5667836404
 40
0.6881883059
 40
0.7993899482
 40
0.9022242533
 40
1.0
 40
1.0
 40
1.0
 40
1.0
 10
112.7102626294
 20
150.4406234906
 30
0.0
 10
112.7102626001
 20
150.3634471172
 30
0.0
 10
112.7283996759
 20
150.214996684
 30
0.0
 10
112.7976864208
 20
150.0459873024
 30
0.0
 10
112.8785004734
 20
149.9414670905
 30
0.0
 10
112.9459829192
 20
149.8845120231
 30
0.0
 10
113.0201781345
 20
149.848897598
 30
0.0
 10
113.0728005974
 20
149.8406234906
 30
0.0
 10
113.0983056942
 20
149.8406234906
 30
0.0
  0
SPLINE
  5
370
100
AcDbEntity
  8
RUNDUNGEN
100
AcDbSpline
 62
7
  6
CONTINUOUS
 70
0
 71
3
 72
11
 73
7
 74
0
 42
0.0000001
 43
0.0000001
 44
0.0000000001
 40
0.0
 40
0.0
 40
0.0
 40
0.0
 40
0.2540210989
 40
0.5056596922
 40
0.753985433
 40
1.0
 40
1.0
 40
1.0
 40
1.0
 10
101.8936179958
 20
150.4406234906
 30
0.0
 10
101.8936179958
 20
150.3626778586
 30
0.0
 10
101.8638247862
 20
150.2058886923
 30
0.0
 10
101.7355667195
 20
150.0065898516
 30
0.0
 10
101.5429856235
 20
149.8722235781
 30
0.0
 10
101.3895513511
 20
149.8406234906
 30
0.0
 10
101.3140625
 20
149.8406234906
 30
0.0
  0
SPLINE
  5
371
100
AcDbEntity
  8
RUNDUNGEN
100
AcDbSpline
 62
7
  6
CONTINUOUS
 70
0
 71
3
 72
11
 73
7
 74
0
 42
0.0000001
 43
0.0000001
 44
0.0000000001
 40
0.0
 40
0.0
 40
0.0
 40
0.0
 40
0.2540210988
 40
0.505659692
 40
0.7539854329
 40
1.0
 40
1.0
 40
1.0
 40
1.0
 10
126.8936179958
 20
161.2406234906
 30
0.0
 10
126.8936179958
 20
161.3185691226
 30
0.0
 10
126.8638247864
 20
161.475358289
 30
0.0
 10
126.7355667194
 20
161.6746571293
 30
0.0
 10
126.5429856237
 20
161.8090234033
 30
0.0
 10
126.3895513511
 20
161.8406234906
 30
0.0
 10
126.3140625
 20
161.8406234906
 30
0.0
  0
SPLINE
  5
372
100
AcDbEntity
  8
RUNDUNGEN
100
AcDbSpline
 62
7
  6
CONTINUOUS
 70
0
 71
3
 72
11
 73
7
 74
0
 42
0.0000001
 43
0.0000001
 44
0.0000000001
 40
0.0
 40
0.0
 40
0.0
 40
0.0
 40
0.2536111733
 40
0.5048434576
 40
0.7534033027
 40
1.0
 40
1.0
 40
1.0
 40
1.0
 10
123.4273383388
 20
161.3344786694
 30
0.0
 10
123.4178964841
 20
161.3961606651
 30
0.0
 10
123.3802521335
 20
161.5169342139
 30
0.0
 10
123.2721946287
 20
161.6711097308
 30
0.0
 10
123.1233506012
 20
161.7837266986
 30
0.0
 10
123.0054827593
 20
161.8233787998
 30
0.0
 10
122.9456086545
 20
161.8332019412
 30
0.0
  0
SPLINE
  5
373
100
AcDbEntity
  8
RUNDUNGEN
100
AcDbSpline
 62
7
  6
CONTINUOUS
 70
0
 71
3
 72
13
 73
9
 74
0
 42
0.0000001
 43
0.0000001
 44
0.0000000001
 40
0.0
 40
0.0
 40
0.0
 40
0.0
 40
0.2690652578
 40
0.5312437316
 40
0.6572912982
 40
0.7783499756
 40
0.893015297
 40
1.0
 40
1.0
 40
1.0
 40
1.0
 10
116.9140625
 20
151.8406234906
 30
0.0
 10
117.2794887478
 20
151.6790103796
 30
0.0
 10
118.0009942402
 20
151.3600388711
 30
0.0
 10
118.9039475372
 20
150.988208104
 30
0.0
 10
119.6169768062
 20
150.7354930783
 30
0.0
 10
120.132115624
 20
150.5816540355
 30
0.0
 10
120.6298269955
 20
150.4729759974
 30
0.0
 10
120.9589873888
 20
150.4406216367
 30
0.0
 10
121.1178623707
 20
150.4406234906
 30
0.0
  0
SPLINE
  5
374
100
AcDbEntity
  8
RUNDUNGEN
100
AcDbSpline
 62
7
  6
CONTINUOUS
 70
0
 71
3
 72
11
 73
7
 74
0
 42
0.0000001
 43
0.0000001
 44
0.0000000001
 40
0.0
 40
0.0
 40
0.0
 40
0.0
 40
0.2540210988
 40
0.505659692
 40
0.7539854329
 40
1.0
 40
1.0
 40
1.0
 40
1.0
 10
81.9345070042
 20
150.4406234906
 30
0.0
 10
81.9345070042
 20
150.3626778587
 30
0.0
 10
81.9643002136
 20
150.2058886923
 30
0.0
 10
82.0925582806
 20
150.0065898519
 30
0.0
 10
82.2851393763
 20
149.872223578
 30
0.0
 10
82.4385736489
 20
149.8406234906
 30
0.0
 10
82.5140625
 20
149.8406234906
 30
0.0
  0
SPLINE
  5
375
100
AcDbEntity
  8
RUNDUNGEN
100
AcDbSpline
 62
7
  6
CONTINUOUS
 70
0
 71
3
 72
13
 73
9
 74
0
 42
0.0000001
 43
0.0000001
 44
0.0000000001
 40
0.0
 40
0.0
 40
0.0
 40
0.0
 40
0.295861516
 40
0.5667835677
 40
0.6881882281
 40
0.7993898796
 40
0.902224211
 40
1.0
 40
1.0
 40
1.0
 40
1.0
 10
121.1178623706
 20
161.2406234906
 30
0.0
 10
121.1178624293
 20
161.3177998607
 30
0.0
 10
121.0997253989
 20
161.4662502951
 30
0.0
 10
121.0304386738
 20
161.6352596833
 30
0.0
 10
120.9496246134
 20
161.7397798938
 30
0.0
 10
120.8821421474
 20
161.7967349619
 30
0.0
 10
120.8079469009
 20
161.8323493852
 30
0.0
 10
120.7553244156
 20
161.8406234906
 30
0.0
 10
120.7298193057
 20
161.8406234906
 30
0.0
  0
SPLINE
  5
376
100
AcDbEntity
  8
RUNDUNGEN
100
AcDbSpline
 62
7
  6
CONTINUOUS
 70
0
 71
3
 72
11
 73
7
 74
0
 42
0.0000001
 43
0.0000001
 44
0.0000000001
 40
0.0
 40
0.0
 40
0.0
 40
0.0
 40
0.2536111733
 40
0.5048434576
 40
0.7534033027
 40
1.0
 40
1.0
 40
1.0
 40
1.0
 10
85.4007866612
 20
150.3467683119
 30
0.0
 10
85.4102285159
 20
150.2850863162
 30
0.0
 10
85.4478728665
 20
150.1643127674
 30
0.0
 10
85.5559303713
 20
150.0101372505
 30
0.0
 10
85.7047743988
 20
149.8975202827
 30
0.0
 10
85.8226422407
 20
149.8578681815
 30
0.0
 10
85.8825163455
 20
149.84804504
 30
0.0
  0
SPLINE
  5
377
100
AcDbEntity
  8
RUNDUNGEN
100
AcDbSpline
 62
7
  6
CONTINUOUS
 70
0
 71
3
 72
13
 73
9
 74
0
 42
0.0000001
 43
0.0000001
 44
0.0000000001
 40
0.0
 40
0.0
 40
0.0
 40
0.0
 40
0.2958615793
 40
0.5667836985
 40
0.6881883699
 40
0.7993900069
 40
0.9022242922
 40
1.0
 40
1.0
 40
1.0
 40
1.0
 10
112.7102626294
 20
161.2406234906
 30
0.0
 10
112.7102626294
 20
161.3177998645
 30
0.0
 10
112.7283997494
 20
161.4662502926
 30
0.0
 10
112.7976865095
 20
161.6352596657
 30
0.0
 10
112.8785005526
 20
161.7397798809
 30
0.0
 10
112.9459829789
 20
161.7967349519
 30
0.0
 10
113.020178167
 20
161.8323493791
 30
0.0
 10
113.0728006098
 20
161.8406234906
 30
0.0
 10
113.0983056943
 20
161.8406234906
 30
0.0
  0
SPLINE
  5
378
100
AcDbEntity
  8
RUNDUNGEN
100
AcDbSpline
 62
7
  6
CONTINUOUS
 70
0
 71
3
 72
13
 73
9
 74
0
 42
0.0000001
 43
0.0000001
 44
0.0000000001
 40
0.0
 40
0.0
 40
0.0
 40
0.0
 40
0.1069857264
 40
0.2216518044
 40
0.3427110653
 40
0.4687589595
 40
0.7309379045
 40
1.0
 40
1.0
 40
1.0
 40
1.0
 10
112.7102626293
 20
150.4406234906
 30
0.0
 10
112.8691391288
 20
150.4406216543
 30
0.0
 10
113.1983021841
 20
150.4729763778
 30
0.0
 10
113.6960167283
 20
150.5816563423
 30
0.0
 10
114.2111577713
 20
150.7354965199
 30
0.0
 10
114.9241886961
 20
150.9882129876
 30
0.0
 10
115.8271388854
 20
151.3600420058
 30
0.0
 10
116.5486405235
 20
151.6790123452
 30
0.0
 10
116.9140625
 20
151.8406234906
 30
0.0
  0
SPLINE
  5
379
100
AcDbEntity
  8
RUNDUNGEN
100
AcDbSpline
 62
7
  6
CONTINUOUS
 70
0
 71
3
 72
11
 73
7
 74
0
 42
0.0000001
 43
0.0000001
 44
0.0000000001
 40
0.0
 40
0.0
 40
0.0
 40
0.0
 40
0.2536111736
 40
0.5048434575
 40
0.7534033023
 40
1.0
 40
1.0
 40
1.0
 40
1.0
 10
110.4007866649
 20
161.3344786933
 30
0.0
 10
110.4102285215
 20
161.3961606852
 30
0.0
 10
110.4478728736
 20
161.5169342257
 30
0.0
 10
110.555930374
 20
161.671109732
 30
0.0
 10
110.7047743922
 20
161.7837266938
 30
0.0
 10
110.8226422263
 20
161.8233787954
 30
0.0
 10
110.8825163273
 20
161.8332019382
 30
0.0
  0
SPLINE
  5
37A
100
AcDbEntity
  8
RUNDUNGEN
100
AcDbSpline
 62
7
  6
CONTINUOUS
 70
0
 71
3
 72
13
 73
9
 74
0
 42
0.0000001
 43
0.0000001
 44
0.0000000001
 40
0.0
 40
0.0
 40
0.0
 40
0.0
 40
0.2690663578
 40
0.5312510141
 40
0.6572984402
 40
0.7783564657
 40
0.8930211692
 40
1.0
 40
1.0
 40
1.0
 40
1.0
 10
91.9140625
 20
159.8406234906
 30
0.0
 10
91.5486312673
 20
160.0022292587
 30
0.0
 10
90.8271198479
 20
160.3212134276
 30
0.0
 10
89.924157966
 20
160.6930523649
 30
0.0
 10
89.2111168041
 20
160.9457571063
 30
0.0
 10
88.6959816907
 20
161.099600797
 30
0.0
 10
88.1982791925
 20
161.2082710451
 30
0.0
 10
87.869128873
 20
161.2406231795
 30
0.0
 10
87.7102626293
 20
161.2406234906
 30
0.0
  0
SPLINE
  5
37B
100
AcDbEntity
  8
RUNDUNGEN
100
AcDbSpline
 62
7
  6
CONTINUOUS
 70
0
 71
3
 72
13
 73
9
 74
0
 42
0.0000001
 43
0.0000001
 44
0.0000000001
 40
0.0
 40
0.0
 40
0.0
 40
0.0
 40
0.1069783811
 40
0.2216428619
 40
0.3427007295
 40
0.4687481164
 40
0.7309328916
 40
1.0
 40
1.0
 40
1.0
 40
1.0
 10
96.1178623707
 20
161.2406234906
 30
0.0
 10
95.9589967958
 20
161.2406230951
 30
0.0
 10
95.6298474885
 20
161.2082711618
 30
0.0
 10
95.1321461325
 20
161.0996014411
 30
0.0
 10
94.6170115864
 20
160.9457580448
 30
0.0
 10
93.9039704319
 20
160.6930536436
 30
0.0
 10
93.0010073537
 20
160.3212143806
 30
0.0
 10
92.2794946597
 20
160.0022299125
 30
0.0
 10
91.9140625
 20
159.8406234906
 30
0.0
  0
SPLINE
  5
37C
100
AcDbEntity
  8
RUNDUNGEN
100
AcDbSpline
 62
7
  6
CONTINUOUS
 70
0
 71
3
 72
11
 73
7
 74
0
 42
0.0000001
 43
0.0000001
 44
0.0000000001
 40
0.0
 40
0.0
 40
0.0
 40
0.0
 40
0.2540210989
 40
0.5056596922
 40
0.753985433
 40
1.0
 40
1.0
 40
1.0
 40
1.0
 10
106.9345070042
 20
161.2406234906
 30
0.0
 10
106.9345070042
 20
161.3185691226
 30
0.0
 10
106.9643002138
 20
161.475358289
 30
0.0
 10
107.0925582805
 20
161.6746571296
 30
0.0
 10
107.2851393765
 20
161.8090234032
 30
0.0
 10
107.4385736489
 20
161.8406234906
 30
0.0
 10
107.5140625
 20
161.8406234906
 30
0.0
  0
SPLINE
  5
37D
100
AcDbEntity
  8
RUNDUNGEN
100
AcDbSpline
 62
7
  6
CONTINUOUS
 70
0
 71
3
 72
13
 73
9
 74
0
 42
0.0000001
 43
0.0000001
 44
0.0000000001
 40
0.0
 40
0.0
 40
0.0
 40
0.0
 40
0.2690652578
 40
0.5312437316
 40
0.6572912982
 40
0.7783499756
 40
0.893015297
 40
1.0
 40
1.0
 40
1.0
 40
1.0
 10
91.9140625
 20
151.8406234906
 30
0.0
 10
92.2794887479
 20
151.6790103796
 30
0.0
 10
93.0009942402
 20
151.3600388711
 30
0.0
 10
93.9039475372
 20
150.988208104
 30
0.0
 10
94.6169768062
 20
150.7354930783
 30
0.0
 10
95.132115624
 20
150.5816540354
 30
0.0
 10
95.6298269955
 20
150.4729759974
 30
0.0
 10
95.9589873888
 20
150.4406216367
 30
0.0
 10
96.1178623707
 20
150.4406234906
 30
0.0
  0
SPLINE
  5
37E
100
AcDbEntity
  8
RUNDUNGEN
100
AcDbSpline
 62
7
  6
CONTINUOUS
 70
0
 71
3
 72
13
 73
9
 74
0
 42
0.0000001
 43
0.0000001
 44
0.0000000001
 40
0.0
 40
0.0
 40
0.0
 40
0.0
 40
0.1069857264
 40
0.2216518044
 40
0.3427110652
 40
0.4687589595
 40
0.7309379045
 40
1.0
 40
1.0
 40
1.0
 40
1.0
 10
87.7102626293
 20
150.4406234906
 30
0.0
 10
87.8691391288
 20
150.4406216543
 30
0.0
 10
88.198302184
 20
150.4729763778
 30
0.0
 10
88.6960167283
 20
150.5816563423
 30
0.0
 10
89.2111577713
 20
150.7354965199
 30
0.0
 10
89.924188696
 20
150.9882129876
 30
0.0
 10
90.8271388854
 20
151.3600420058
 30
0.0
 10
91.5486405235
 20
151.6790123452
 30
0.0
 10
91.9140625
 20
151.8406234906
 30
0.0
  0
SPLINE
  5
37F
100
AcDbEntity
  8
RUNDUNGEN
100
AcDbSpline
 62
7
  6
CONTINUOUS
 70
0
 71
3
 72
12
 73
8
 74
0
 42
0.0000001
 43
0.0000001
 44
0.0000000001
 40
0.0
 40
0.0
 40
0.0
 40
0.0
 40
0.2217069506
 40
0.4616056989
 40
0.5906741867
 40
0.7244957911
 40
1.0
 40
1.0
 40
1.0
 40
1.0
 10
102.5140625
 20
161.8406234906
 30
0.0
 10
102.4458346624
 20
161.8406273487
 30
0.0
 10
102.3026195862
 20
161.8093757423
 30
0.0
 10
102.1492266162
 20
161.7052137364
 30
0.0
 10
102.0444117779
 20
161.5905178108
 30
0.0
 10
101.9538101262
 20
161.451760145
 30
0.0
 10
101.9140650375
 20
161.3253785583
 30
0.0
 10
101.9140625007
 20
161.2405952152
 30
0.0
  0
SPLINE
  5
380
100
AcDbEntity
  8
RUNDUNGEN
100
AcDbSpline
 62
7
  6
CONTINUOUS
 70
0
 71
3
 72
14
 73
10
 74
0
 42
0.0000001
 43
0.0000001
 44
0.0000000001
 40
0.0
 40
0.0
 40
0.0
 40
0.0
 40
0.075228389
 40
0.1609967963
 40
0.2631969058
 40
0.3836254768
 40
0.5210175475
 40
0.672441522
 40
1.0
 40
1.0
 40
1.0
 40
1.0
 10
101.9140625
 20
158.7563838247
 30
0.0
 10
101.9140625
 20
158.7387363193
 30
0.0
 10
101.9232734694
 20
158.7006899425
 30
0.0
 10
101.960307646
 20
158.6499795242
 30
0.0
 10
102.0174572011
 20
158.604657819
 30
0.0
 10
102.0926383491
 20
158.5654031231
 30
0.0
 10
102.1833527425
 20
158.5332032647
 30
0.0
 10
102.3244187815
 20
158.5005510367
 30
0.0
 10
102.4372219604
 20
158.4913146332
 30
0.0
 10
102.5140625
 20
158.4913147033
 30
0.0
  0
SPLINE
  5
381
100
AcDbEntity
  8
RUNDUNGEN
100
AcDbSpline
 62
7
  6
CONTINUOUS
 70
0
 71
3
 72
9
 73
5
 74
0
 42
0.0000001
 43
0.0000001
 44
0.0000000001
 40
0.0
 40
0.0
 40
0.0
 40
0.0
 40
0.2438555611
 40
1.0
 40
1.0
 40
1.0
 40
1.0
 10
127.4731734915
 20
157.8171947721
 30
0.0
 10
127.4567151057
 20
157.6571329584
 30
0.0
 10
127.398335094
 20
156.9998388016
 30
0.0
 10
127.3744646096
 20
156.3395581584
 30
0.0
 10
127.3744586928
 20
155.8406234906
 30
0.0
  0
SPLINE
  5
382
100
AcDbEntity
  8
RUNDUNGEN
100
AcDbSpline
 62
7
  6
CONTINUOUS
 70
0
 71
3
 72
12
 73
8
 74
0
 42
0.0000001
 43
0.0000001
 44
0.0000000001
 40
0.0
 40
0.0
 40
0.0
 40
0.0
 40
0.0741841687
 40
0.1658378897
 40
0.3992775968
 40
0.6859660671
 40
1.0
 40
1.0
 40
1.0
 40
1.0
 10
101.8936195648
 20
158.0148519003
 30
0.0
 10
101.9026123338
 20
158.0023006252
 30
0.0
 10
101.9274036625
 20
157.9776622938
 30
0.0
 10
101.9965501542
 20
157.9311416953
 30
0.0
 10
102.1153131709
 20
157.8823218249
 30
0.0
 10
102.283812728
 20
157.83954357
 30
0.0
 10
102.4080377544
 20
157.8226207255
 30
0.0
 10
102.4731734915
 20
157.8171920412
 30
0.0
  0
SPLINE
  5
383
100
AcDbEntity
  8
RUNDUNGEN
100
AcDbSpline
 62
7
  6
CONTINUOUS
 70
0
 71
3
 72
9
 73
5
 74
0
 42
0.0000001
 43
0.0000001
 44
0.0000000001
 40
0.0
 40
0.0
 40
0.0
 40
0.0
 40
0.2450572731
 40
1.0
 40
1.0
 40
1.0
 40
1.0
 10
127.5140625
 20
158.4913147034
 30
0.0
 10
127.5140642441
 20
158.4361318255
 30
0.0
 10
127.5094907624
 20
158.2109392699
 30
0.0
 10
127.490562997
 20
157.9863037584
 30
0.0
 10
127.4731734915
 20
157.8171947721
 30
0.0
  0
SPLINE
  5
384
100
AcDbEntity
  8
RUNDUNGEN
100
AcDbSpline
 62
7
  6
CONTINUOUS
 70
0
 71
3
 72
13
 73
9
 74
0
 42
0.0000001
 43
0.0000001
 44
0.0000000001
 40
0.0
 40
0.0
 40
0.0
 40
0.0
 40
0.2958615536
 40
0.5667836404
 40
0.6881883059
 40
0.7993899482
 40
0.9022242533
 40
1.0
 40
1.0
 40
1.0
 40
1.0
 10
87.7102626294
 20
150.4406234906
 30
0.0
 10
87.7102626001
 20
150.3634471172
 30
0.0
 10
87.7283996759
 20
150.214996684
 30
0.0
 10
87.7976864208
 20
150.0459873024
 30
0.0
 10
87.8785004734
 20
149.9414670905
 30
0.0
 10
87.9459829192
 20
149.8845120231
 30
0.0
 10
88.0201781345
 20
149.848897598
 30
0.0
 10
88.0728005974
 20
149.8406234906
 30
0.0
 10
88.0983056942
 20
149.8406234906
 30
0.0
  0
SPLINE
  5
385
100
AcDbEntity
  8
RUNDUNGEN
100
AcDbSpline
 62
7
  6
CONTINUOUS
 70
0
 71
3
 72
12
 73
8
 74
0
 42
0.0000001
 43
0.0000001
 44
0.0000000001
 40
0.0
 40
0.0
 40
0.0
 40
0.0
 40
0.0741853225
 40
0.1658399172
 40
0.3992801043
 40
0.6859676209
 40
1.0
 40
1.0
 40
1.0
 40
1.0
 10
101.8936193252
 20
153.666395081
 30
0.0
 10
101.902612592
 20
153.6789462657
 30
0.0
 10
101.9274046288
 20
153.7035843456
 30
0.0
 10
101.9965519074
 20
153.7501044553
 30
0.0
 10
102.1153149107
 20
153.7989238917
 30
0.0
 10
102.2838138607
 20
153.8417017776
 30
0.0
 10
102.4080381758
 20
153.8586244825
 30
0.0
 10
102.4731734915
 20
153.8640531212
 30
0.0
  0
SPLINE
  5
386
100
AcDbEntity
  8
RUNDUNGEN
100
AcDbSpline
 62
7
  6
CONTINUOUS
 70
0
 71
3
 72
9
 73
5
 74
0
 42
0.0000001
 43
0.0000001
 44
0.0000000001
 40
0.0
 40
0.0
 40
0.0
 40
0.0
 40
0.2438393918
 40
1.0
 40
1.0
 40
1.0
 40
1.0
 10
101.8936179958
 20
158.0148519002
 30
0.0
 10
101.8771508927
 20
157.8386809536
 30
0.0
 10
101.8187534243
 20
157.1153597087
 30
0.0
 10
101.7949109951
 20
156.389321597
 30
0.0
 10
101.794903197
 20
155.8406234906
 30
0.0
  0
SPLINE
  5
387
100
AcDbEntity
  8
RUNDUNGEN
100
AcDbSpline
 62
7
  6
CONTINUOUS
 70
0
 71
3
 72
9
 73
5
 74
0
 42
0.0000001
 43
0.0000001
 44
0.0000000001
 40
0.0
 40
0.0
 40
0.0
 40
0.0
 40
0.2544610325
 40
1.0
 40
1.0
 40
1.0
 40
1.0
 10
101.794903197
 20
155.8406234906
 30
0.0
 10
101.7949063661
 20
155.6559780676
 30
0.0
 10
101.8030945704
 20
154.9303820803
 30
0.0
 10
101.8432706594
 20
154.2050351576
 30
0.0
 10
101.8936179958
 20
153.666395081
 30
0.0
  0
SPLINE
  5
388
100
AcDbEntity
  8
RUNDUNGEN
100
AcDbSpline
 62
7
  6
CONTINUOUS
 70
0
 71
3
 72
14
 73
10
 74
0
 42
0.0000001
 43
0.0000001
 44
0.0000000001
 40
0.0
 40
0.0
 40
0.0
 40
0.0
 40
0.0752283206
 40
0.1609966795
 40
0.2631967643
 40
0.3836253365
 40
0.5210174272
 40
0.6724414373
 40
1.0
 40
1.0
 40
1.0
 40
1.0
 10
101.9140625
 20
152.9248631566
 30
0.0
 10
101.9140625
 20
152.9425106429
 30
0.0
 10
101.9232734729
 20
152.9805569855
 30
0.0
 10
101.9603076517
 20
153.031267348
 30
0.0
 10
102.017457204
 20
153.076589008
 30
0.0
 10
102.0926383473
 20
153.1158436781
 30
0.0
 10
102.1833527372
 20
153.1480435353
 30
0.0
 10
102.3244187758
 20
153.1806958001
 30
0.0
 10
102.4372219533
 20
153.1899322778
 30
0.0
 10
102.5140625
 20
153.1899322778
 30
0.0
  0
SPLINE
  5
389
100
AcDbEntity
  8
RUNDUNGEN
100
AcDbSpline
 62
7
  6
CONTINUOUS
 70
0
 71
3
 72
12
 73
8
 74
0
 42
0.0000001
 43
0.0000001
 44
0.0000000001
 40
0.0
 40
0.0
 40
0.0
 40
0.0
 40
0.2755051997
 40
0.4093264126
 40
0.5383963312
 40
0.7782936727
 40
1.0
 40
1.0
 40
1.0
 40
1.0
 10
101.9140625007
 20
150.4406509621
 30
0.0
 10
101.9140649617
 20
150.355867373
 30
0.0
 10
101.9538095047
 20
150.2294854683
 30
0.0
 10
102.0444119628
 20
150.0907275892
 30
0.0
 10
102.1492285036
 20
149.9760334213
 30
0.0
 10
102.3026203522
 20
149.8718718875
 30
0.0
 10
102.4458349017
 20
149.840617858
 30
0.0
 10
102.5140625
 20
149.8406234906
 30
0.0
  0
SPLINE
  5
38A
100
AcDbEntity
  8
RUNDUNGEN
100
AcDbSpline
 62
7
  6
CONTINUOUS
 70
0
 71
3
 72
12
 73
8
 74
0
 42
0.0000001
 43
0.0000001
 44
0.0000000001
 40
0.0
 40
0.0
 40
0.0
 40
0.0
 40
0.2217067131
 40
0.4616053325
 40
0.5906736538
 40
0.7244953762
 40
1.0
 40
1.0
 40
1.0
 40
1.0
 10
81.3140625
 20
149.8406234906
 30
0.0
 10
81.3822908258
 20
149.840619947
 30
0.0
 10
81.5255069445
 20
149.8718714641
 30
0.0
 10
81.6789009149
 20
149.9760347864
 30
0.0
 10
81.7837158213
 20
150.0907322083
 30
0.0
 10
81.8743176531
 20
150.2294918645
 30
0.0
 10
81.9140592744
 20
150.3558752674
 30
0.0
 10
81.9140624989
 20
150.4406594356
 30
0.0
  0
SPLINE
  5
38B
100
AcDbEntity
  8
RUNDUNGEN
100
AcDbSpline
 62
7
  6
CONTINUOUS
 70
0
 71
3
 72
9
 73
5
 74
0
 42
0.0000001
 43
0.0000001
 44
0.0000000001
 40
0.0
 40
0.0
 40
0.0
 40
0.0
 40
0.2547787906
 40
1.0
 40
1.0
 40
1.0
 40
1.0
 10
127.4731734915
 20
153.8640522092
 30
0.0
 10
127.4790422427
 20
153.8069858957
 30
0.0
 10
127.5005735961
 20
153.5828864382
 30
0.0
 10
127.5140656629
 20
153.357730091
 30
0.0
 10
127.5140625
 20
153.1899322778
 30
0.0
  0
SPLINE
  5
38C
100
AcDbEntity
  8
RUNDUNGEN
100
AcDbSpline
 62
7
  6
CONTINUOUS
 70
0
 71
3
 72
14
 73
10
 74
0
 42
0.0000001
 43
0.0000001
 44
0.0000000001
 40
0.0
 40
0.0
 40
0.0
 40
0.0
 40
0.0752283791
 40
0.1609967794
 40
0.2631968855
 40
0.3836254569
 40
0.5210175305
 40
0.67244151
 40
1.0
 40
1.0
 40
1.0
 40
1.0
 10
81.9140625
 20
152.9248631566
 30
0.0
 10
81.9140625
 20
152.9425106592
 30
0.0
 10
81.9048515302
 20
152.9805570311
 30
0.0
 10
81.8678173533
 20
153.0312674416
 30
0.0
 10
81.8106677989
 20
153.0765891408
 30
0.0
 10
81.7354866516
 20
153.1158438334
 30
0.0
 10
81.6447722587
 20
153.1480436921
 30
0.0
 10
81.5037062196
 20
153.1806959255
 30
0.0
 10
81.3909030406
 20
153.1899323388
 30
0.0
 10
81.3140625
 20
153.1899322779
 30
0.0
  0
SPLINE
  5
38D
100
AcDbEntity
  8
RUNDUNGEN
100
AcDbSpline
 62
7
  6
CONTINUOUS
 70
0
 71
3
 72
12
 73
8
 74
0
 42
0.0000001
 43
0.0000001
 44
0.0000000001
 40
0.0
 40
0.0
 40
0.0
 40
0.0
 40
0.0741841149
 40
0.1658377896
 40
0.3992774577
 40
0.685965969
 40
1.0
 40
1.0
 40
1.0
 40
1.0
 10
81.9345053573
 20
153.666395081
 30
0.0
 10
81.9255126144
 20
153.6789463611
 30
0.0
 10
81.9007213264
 20
153.703584707
 30
0.0
 10
81.8315748888
 20
153.7501053364
 30
0.0
 10
81.7128118918
 20
153.798925241
 30
0.0
 10
81.5443123209
 20
153.8417035294
 30
0.0
 10
81.420087266
 20
153.858626389
 30
0.0
 10
81.3549515085
 20
153.8640550792
 30
0.0
  0
SPLINE
  5
38E
100
AcDbEntity
  8
RUNDUNGEN
100
AcDbSpline
 62
7
  6
CONTINUOUS
 70
0
 71
3
 72
12
 73
8
 74
0
 42
0.0000001
 43
0.0000001
 44
0.0000000001
 40
0.0
 40
0.0
 40
0.0
 40
0.0
 40
0.07418532
 40
0.1658399192
 40
0.3992801234
 40
0.6859676461
 40
1.0
 40
1.0
 40
1.0
 40
1.0
 10
81.9345057654
 20
158.0148519003
 30
0.0
 10
81.9255124938
 20
158.002300718
 30
0.0
 10
81.9007204458
 20
157.9776626444
 30
0.0
 10
81.8315731442
 20
157.9311425491
 30
0.0
 10
81.7128101156
 20
157.8823231316
 30
0.0
 10
81.5443111468
 20
157.8395452611
 30
0.0
 10
81.4200868247
 20
157.8226225585
 30
0.0
 10
81.3549515085
 20
157.8171939187
 30
0.0
  0
SPLINE
  5
38F
100
AcDbEntity
  8
RUNDUNGEN
100
AcDbSpline
 62
7
  6
CONTINUOUS
 70
0
 71
3
 72
14
 73
10
 74
0
 42
0.0000001
 43
0.0000001
 44
0.0000000001
 40
0.0
 40
0.0
 40
0.0
 40
0.0
 40
0.2826917355
 40
0.4202555468
 40
0.5531206365
 40
0.6794099819
 40
0.7971055827
 40
0.9042809124
 40
1.0
 40
1.0
 40
1.0
 40
1.0
 10
91.9140625
 20
159.8406234906
 30
0.0
 10
91.5772141465
 20
160.0749600246
 30
0.0
 10
91.0766542544
 20
160.4237278405
 30
0.0
 10
90.4057186289
 20
160.8648387619
 30
0.0
 10
89.9152042857
 20
161.1667720835
 30
0.0
 10
89.4364192243
 20
161.4318571083
 30
0.0
 10
88.9734840523
 20
161.6469363209
 30
0.0
 10
88.5316732154
 20
161.7962858403
 30
0.0
 10
88.2372550364
 20
161.8406238804
 30
0.0
 10
88.0983137747
 20
161.8406234906
 30
0.0
  0
SPLINE
  5
390
100
AcDbEntity
  8
RUNDUNGEN
100
AcDbSpline
 62
7
  6
CONTINUOUS
 70
0
 71
3
 72
9
 73
5
 74
0
 42
0.0000001
 43
0.0000001
 44
0.0000000001
 40
0.0
 40
0.0
 40
0.0
 40
0.0
 40
0.2544644564
 40
1.0
 40
1.0
 40
1.0
 40
1.0
 10
127.3744586928
 20
155.8406234906
 30
0.0
 10
127.3744610731
 20
155.672718526
 30
0.0
 10
127.3826537464
 20
155.0129227632
 30
0.0
 10
127.4228562593
 20
154.3534037406
 30
0.0
 10
127.4731734915
 20
153.8640522092
 30
0.0
  0
SPLINE
  5
391
100
AcDbEntity
  8
RUNDUNGEN
100
AcDbSpline
 62
7
  6
CONTINUOUS
 70
0
 71
3
 72
14
 73
10
 74
0
 42
0.0000001
 43
0.0000001
 44
0.0000000001
 40
0.0
 40
0.0
 40
0.0
 40
0.0
 40
0.0957184128
 40
0.2028933423
 40
0.3205886454
 40
0.4468778852
 40
0.5797430096
 40
0.7173069521
 40
1.0
 40
1.0
 40
1.0
 40
1.0
 10
95.7298121654
 20
161.8406234906
 30
0.0
 10
95.5908718539
 20
161.8406238351
 30
0.0
 10
95.296455153
 20
161.7962865335
 30
0.0
 10
94.8546458637
 20
161.6469382436
 30
0.0
 10
94.3917114797
 20
161.4318598642
 30
0.0
 10
93.9129265365
 20
161.1667754811
 30
0.0
 10
93.4224119524
 20
160.8648421557
 30
0.0
 10
92.7514739181
 20
160.4237306758
 30
0.0
 10
92.2509128099
 20
160.0749606996
 30
0.0
 10
91.9140625
 20
159.8406234906
 30
0.0
  0
SPLINE
  5
392
100
AcDbEntity
  8
RUNDUNGEN
100
AcDbSpline
 62
7
  6
CONTINUOUS
 70
0
 71
3
 72
14
 73
10
 74
0
 42
0.0000001
 43
0.0000001
 44
0.0000000001
 40
0.0
 40
0.0
 40
0.0
 40
0.0
 40
0.0957289349
 40
0.2029078511
 40
0.3206063367
 40
0.4468967754
 40
0.5797583344
 40
0.7173157087
 40
1.0
 40
1.0
 40
1.0
 40
1.0
 10
88.0983583749
 20
149.8406234915
 30
0.0
 10
88.2373125262
 20
149.8406209815
 30
0.0
 10
88.531746507
 20
149.884977572
 30
0.0
 10
88.9735692282
 20
150.0343462895
 30
0.0
 10
89.4365092934
 20
150.2494296278
 30
0.0
 10
89.9152819633
 20
150.5145271349
 30
0.0
 10
90.4057777074
 20
150.8164543664
 30
0.0
 10
91.0766952584
 20
151.2575321547
 30
0.0
 10
91.5772241082
 20
151.6062988201
 30
0.0
 10
91.9140625
 20
151.8406234906
 30
0.0
  0
SPLINE
  5
393
100
AcDbEntity
  8
RUNDUNGEN
100
AcDbSpline
 62
7
  6
CONTINUOUS
 70
0
 71
3
 72
14
 73
10
 74
0
 42
0.0000001
 43
0.0000001
 44
0.0000000001
 40
0.0
 40
0.0
 40
0.0
 40
0.0
 40
0.282689733
 40
0.4202465799
 40
0.5531076505
 40
0.6793974436
 40
0.7970948843
 40
0.9042725428
 40
1.0
 40
1.0
 40
1.0
 40
1.0
 10
91.9140625
 20
151.8406234906
 30
0.0
 10
92.2509088495
 20
151.6062963091
 30
0.0
 10
92.7514416797
 20
151.2575226711
 30
0.0
 10
93.4223658835
 20
150.8164430389
 30
0.0
 10
93.912859653
 20
150.5145170414
 30
0.0
 10
94.3916300905
 20
150.2494217981
 30
0.0
 10
94.8545669964
 20
150.0343416153
 30
0.0
 10
95.2963851407
 20
149.8849762014
 30
0.0
 10
95.590815224
 20
149.8406210105
 30
0.0
 10
95.7297672531
 20
149.8406234915
 30
0.0
  0
SPLINE
  5
394
100
AcDbEntity
  8
RUNDUNGEN
100
AcDbSpline
 62
7
  6
CONTINUOUS
 70
0
 71
3
 72
14
 73
10
 74
0
 42
0.0000001
 43
0.0000001
 44
0.0000000001
 40
0.0
 40
0.0
 40
0.0
 40
0.0
 40
0.0752283205
 40
0.1609966791
 40
0.2631967637
 40
0.3836253359
 40
0.5210174266
 40
0.6724414368
 40
1.0
 40
1.0
 40
1.0
 40
1.0
 10
81.9140625
 20
158.7563838247
 30
0.0
 10
81.9140625
 20
158.7387363383
 30
0.0
 10
81.9048515272
 20
158.7006899958
 30
0.0
 10
81.8678173484
 20
158.6499796335
 30
0.0
 10
81.8106677964
 20
158.6046579734
 30
0.0
 10
81.7354866531
 20
158.5654033034
 30
0.0
 10
81.6447722632
 20
158.5332034461
 30
0.0
 10
81.5037062244
 20
158.5005511812
 30
0.0
 10
81.3909030468
 20
158.4913147035
 30
0.0
 10
81.3140625
 20
158.4913147035
 30
0.0
  0
SPLINE
  5
395
100
AcDbEntity
  8
RUNDUNGEN
100
AcDbSpline
 62
7
  6
CONTINUOUS
 70
0
 71
3
 72
12
 73
8
 74
0
 42
0.0000001
 43
0.0000001
 44
0.0000000001
 40
0.0
 40
0.0
 40
0.0
 40
0.0
 40
0.2755060386
 40
0.4093272985
 40
0.5383974848
 40
0.7782945551
 40
1.0
 40
1.0
 40
1.0
 40
1.0
 10
81.9140624989
 20
161.2405884863
 30
0.0
 10
81.9140593648
 20
161.3253730278
 30
0.0
 10
81.8743185488
 20
161.4517569437
 30
0.0
 10
81.7837155688
 20
161.5905169467
 30
0.0
 10
81.6788985776
 20
161.7052122204
 30
0.0
 10
81.5255056681
 20
161.8093755842
 30
0.0
 10
81.3822903856
 20
161.8406272038
 30
0.0
 10
81.3140625
 20
161.8406234906
 30
0.0
  0
SPLINE
  5
396
100
AcDbEntity
  8
RUNDUNGEN
100
AcDbSpline
 62
7
  6
CONTINUOUS
 70
0
 71
3
 72
12
 73
8
 74
0
 42
0.0000001
 43
0.0000001
 44
0.0000000001
 40
0.0
 40
0.0
 40
0.0
 40
0.0
 40
0.2217069506
 40
0.4616056989
 40
0.5906741867
 40
0.7244957911
 40
1.0
 40
1.0
 40
1.0
 40
1.0
 10
127.5140625
 20
161.8406234906
 30
0.0
 10
127.4458346624
 20
161.8406273487
 30
0.0
 10
127.3026195862
 20
161.8093757423
 30
0.0
 10
127.1492266162
 20
161.7052137364
 30
0.0
 10
127.0444117779
 20
161.5905178108
 30
0.0
 10
126.9538101262
 20
161.451760145
 30
0.0
 10
126.9140650375
 20
161.3253785584
 30
0.0
 10
126.9140625007
 20
161.2405952153
 30
0.0
  0
SPLINE
  5
397
100
AcDbEntity
  8
RUNDUNGEN
100
AcDbSpline
 62
7
  6
CONTINUOUS
 70
0
 71
3
 72
11
 73
7
 74
0
 42
0.0000001
 43
0.0000001
 44
0.0000000001
 40
0.0
 40
0.0
 40
0.0
 40
0.0
 40
0.2540210988
 40
0.505659692
 40
0.7539854329
 40
1.0
 40
1.0
 40
1.0
 40
1.0
 10
101.8936179958
 20
161.2406234906
 30
0.0
 10
101.8936179958
 20
161.3185691226
 30
0.0
 10
101.8638247864
 20
161.475358289
 30
0.0
 10
101.7355667194
 20
161.6746571293
 30
0.0
 10
101.5429856237
 20
161.8090234033
 30
0.0
 10
101.3895513511
 20
161.8406234906
 30
0.0
 10
101.3140625
 20
161.8406234906
 30
0.0
  0
SPLINE
  5
398
100
AcDbEntity
  8
RUNDUNGEN
100
AcDbSpline
 62
7
  6
CONTINUOUS
 70
0
 71
3
 72
14
 73
10
 74
0
 42
0.0000001
 43
0.0000001
 44
0.0000000001
 40
0.0
 40
0.0
 40
0.0
 40
0.0
 40
0.0752283872
 40
0.1609967931
 40
0.2631969019
 40
0.3836254731
 40
0.5210175443
 40
0.6724415197
 40
1.0
 40
1.0
 40
1.0
 40
1.0
 10
126.9140625
 20
158.7563838247
 30
0.0
 10
126.9140625
 20
158.7387363198
 30
0.0
 10
126.9232734695
 20
158.700689944
 30
0.0
 10
126.9603076461
 20
158.6499795271
 30
0.0
 10
127.0174572011
 20
158.6046578231
 30
0.0
 10
127.0926383489
 20
158.5654031278
 30
0.0
 10
127.1833527423
 20
158.5332032693
 30
0.0
 10
127.3244187813
 20
158.5005510403
 30
0.0
 10
127.4372219602
 20
158.491314635
 30
0.0
 10
127.5140625
 20
158.4913147033
 30
0.0
  0
SPLINE
  5
399
100
AcDbEntity
  8
RUNDUNGEN
100
AcDbSpline
 62
7
  6
CONTINUOUS
 70
0
 71
3
 72
13
 73
9
 74
0
 42
0.0000001
 43
0.0000001
 44
0.0000000001
 40
0.0
 40
0.0
 40
0.0
 40
0.0
 40
0.2690663578
 40
0.5312510141
 40
0.6572984402
 40
0.7783564657
 40
0.8930211692
 40
1.0
 40
1.0
 40
1.0
 40
1.0
 10
116.9140625
 20
159.8406234906
 30
0.0
 10
116.5486312673
 20
160.0022292587
 30
0.0
 10
115.8271198479
 20
160.3212134276
 30
0.0
 10
114.924157966
 20
160.6930523649
 30
0.0
 10
114.2111168041
 20
160.9457571063
 30
0.0
 10
113.6959816907
 20
161.099600797
 30
0.0
 10
113.1982791925
 20
161.2082710451
 30
0.0
 10
112.869128873
 20
161.2406231795
 30
0.0
 10
112.7102626293
 20
161.2406234906
 30
0.0
  0
SPLINE
  5
39A
100
AcDbEntity
  8
RUNDUNGEN
100
AcDbSpline
 62
7
  6
CONTINUOUS
 70
0
 71
3
 72
12
 73
8
 74
0
 42
0.0000001
 43
0.0000001
 44
0.0000000001
 40
0.0
 40
0.0
 40
0.0
 40
0.0
 40
0.0741841745
 40
0.1658379004
 40
0.3992776118
 40
0.6859660777
 40
1.0
 40
1.0
 40
1.0
 40
1.0
 10
126.8936195559
 20
158.0148519003
 30
0.0
 10
126.9026123277
 20
158.0023006257
 30
0.0
 10
126.9274036608
 20
157.9776622959
 30
0.0
 10
126.9965501585
 20
157.9311417006
 30
0.0
 10
127.1153131774
 20
157.8823218339
 30
0.0
 10
127.2838127331
 20
157.8395435827
 30
0.0
 10
127.4080377565
 20
157.8226207397
 30
0.0
 10
127.4731734915
 20
157.817192056
 30
0.0
  0
SPLINE
  5
39B
100
AcDbEntity
  8
RUNDUNGEN
100
AcDbSpline
 62
7
  6
CONTINUOUS
 70
0
 71
3
 72
11
 73
7
 74
0
 42
0.0000001
 43
0.0000001
 44
0.0000000001
 40
0.0
 40
0.0
 40
0.0
 40
0.0
 40
0.2536111733
 40
0.5048434576
 40
0.7534033027
 40
1.0
 40
1.0
 40
1.0
 40
1.0
 10
98.4273383388
 20
161.3344786694
 30
0.0
 10
98.4178964841
 20
161.3961606651
 30
0.0
 10
98.3802521335
 20
161.5169342139
 30
0.0
 10
98.2721946287
 20
161.6711097308
 30
0.0
 10
98.1233506012
 20
161.7837266986
 30
0.0
 10
98.0054827593
 20
161.8233787998
 30
0.0
 10
97.9456086545
 20
161.8332019412
 30
0.0
  0
SPLINE
  5
39C
100
AcDbEntity
  8
RUNDUNGEN
100
AcDbSpline
 62
7
  6
CONTINUOUS
 70
0
 71
3
 72
13
 73
9
 74
0
 42
0.0000001
 43
0.0000001
 44
0.0000000001
 40
0.0
 40
0.0
 40
0.0
 40
0.0
 40
0.1069783811
 40
0.2216428619
 40
0.3427007295
 40
0.4687481164
 40
0.7309328916
 40
1.0
 40
1.0
 40
1.0
 40
1.0
 10
121.1178623707
 20
161.2406234906
 30
0.0
 10
120.9589967958
 20
161.2406230951
 30
0.0
 10
120.6298474885
 20
161.2082711618
 30
0.0
 10
120.1321461325
 20
161.0996014411
 30
0.0
 10
119.6170115864
 20
160.9457580448
 30
0.0
 10
118.9039704319
 20
160.6930536436
 30
0.0
 10
118.0010073537
 20
160.3212143806
 30
0.0
 10
117.2794946597
 20
160.0022299125
 30
0.0
 10
116.9140625
 20
159.8406234906
 30
0.0
  0
SPLINE
  5
39D
100
AcDbEntity
  8
RUNDUNGEN
100
AcDbSpline
 62
7
  6
CONTINUOUS
 70
0
 71
3
 72
12
 73
8
 74
0
 42
0.0000001
 43
0.0000001
 44
0.0000000001
 40
0.0
 40
0.0
 40
0.0
 40
0.0
 40
0.0741853211
 40
0.165839916
 40
0.3992801061
 40
0.6859676246
 40
1.0
 40
1.0
 40
1.0
 40
1.0
 10
126.8936193121
 20
153.666395081
 30
0.0
 10
126.9026125789
 20
153.6789462657
 30
0.0
 10
126.9274046163
 20
153.7035843455
 30
0.0
 10
126.9965518973
 20
153.7501044545
 30
0.0
 10
127.1153149048
 20
153.7989238887
 30
0.0
 10
127.2838138585
 20
153.8417017715
 30
0.0
 10
127.4080381754
 20
153.8586244744
 30
0.0
 10
127.4731734915
 20
153.8640531122
 30
0.0
  0
SPLINE
  5
39E
100
AcDbEntity
  8
RUNDUNGEN
100
AcDbSpline
 62
7
  6
CONTINUOUS
 70
0
 71
3
 72
13
 73
9
 74
0
 42
0.0000001
 43
0.0000001
 44
0.0000000001
 40
0.0
 40
0.0
 40
0.0
 40
0.0
 40
0.295861516
 40
0.5667835677
 40
0.6881882281
 40
0.7993898796
 40
0.902224211
 40
1.0
 40
1.0
 40
1.0
 40
1.0
 10
96.1178623706
 20
161.2406234906
 30
0.0
 10
96.1178624293
 20
161.3177998607
 30
0.0
 10
96.0997253989
 20
161.4662502951
 30
0.0
 10
96.0304386738
 20
161.6352596833
 30
0.0
 10
95.9496246134
 20
161.7397798938
 30
0.0
 10
95.8821421474
 20
161.7967349619
 30
0.0
 10
95.8079469009
 20
161.8323493852
 30
0.0
 10
95.7553244156
 20
161.8406234906
 30
0.0
 10
95.7298193057
 20
161.8406234906
 30
0.0
  0
SPLINE
  5
39F
100
AcDbEntity
  8
RUNDUNGEN
100
AcDbSpline
 62
7
  6
CONTINUOUS
 70
0
 71
3
 72
14
 73
10
 74
0
 42
0.0000001
 43
0.0000001
 44
0.0000000001
 40
0.0
 40
0.0
 40
0.0
 40
0.0
 40
0.0752283206
 40
0.1609966795
 40
0.2631967643
 40
0.3836253365
 40
0.5210174272
 40
0.6724414373
 40
1.0
 40
1.0
 40
1.0
 40
1.0
 10
126.9140625
 20
152.9248631566
 30
0.0
 10
126.9140625
 20
152.9425106429
 30
0.0
 10
126.9232734729
 20
152.9805569855
 30
0.0
 10
126.9603076517
 20
153.031267348
 30
0.0
 10
127.0174572039
 20
153.076589008
 30
0.0
 10
127.0926383473
 20
153.1158436781
 30
0.0
 10
127.1833527372
 20
153.1480435353
 30
0.0
 10
127.3244187758
 20
153.1806958001
 30
0.0
 10
127.4372219533
 20
153.1899322778
 30
0.0
 10
127.5140625
 20
153.1899322778
 30
0.0
  0
SPLINE
  5
3A0
100
AcDbEntity
  8
RUNDUNGEN
100
AcDbSpline
 62
7
  6
CONTINUOUS
 70
0
 71
3
 72
13
 73
9
 74
0
 42
0.0000001
 43
0.0000001
 44
0.0000000001
 40
0.0
 40
0.0
 40
0.0
 40
0.0
 40
0.2958615793
 40
0.5667836985
 40
0.6881883699
 40
0.7993900069
 40
0.9022242922
 40
1.0
 40
1.0
 40
1.0
 40
1.0
 10
87.7102626294
 20
161.2406234906
 30
0.0
 10
87.7102626294
 20
161.3177998645
 30
0.0
 10
87.7283997494
 20
161.4662502926
 30
0.0
 10
87.7976865095
 20
161.6352596657
 30
0.0
 10
87.8785005526
 20
161.7397798809
 30
0.0
 10
87.9459829789
 20
161.7967349519
 30
0.0
 10
88.020178167
 20
161.8323493791
 30
0.0
 10
88.0728006098
 20
161.8406234906
 30
0.0
 10
88.0983056943
 20
161.8406234906
 30
0.0
  0
SPLINE
  5
3A1
100
AcDbEntity
  8
RUNDUNGEN
100
AcDbSpline
 62
7
  6
CONTINUOUS
 70
0
 71
3
 72
12
 73
8
 74
0
 42
0.0000001
 43
0.0000001
 44
0.0000000001
 40
0.0
 40
0.0
 40
0.0
 40
0.0
 40
0.2755051997
 40
0.4093264126
 40
0.5383963312
 40
0.7782936727
 40
1.0
 40
1.0
 40
1.0
 40
1.0
 10
126.9140625007
 20
150.440650962
 30
0.0
 10
126.9140649617
 20
150.3558673729
 30
0.0
 10
126.9538095047
 20
150.2294854682
 30
0.0
 10
127.0444119628
 20
150.0907275891
 30
0.0
 10
127.1492285036
 20
149.9760334213
 30
0.0
 10
127.3026203522
 20
149.8718718875
 30
0.0
 10
127.4458349017
 20
149.840617858
 30
0.0
 10
127.5140625
 20
149.8406234906
 30
0.0
  0
SPLINE
  5
3A2
100
AcDbEntity
  8
RUNDUNGEN
100
AcDbSpline
 62
7
  6
CONTINUOUS
 70
0
 71
3
 72
12
 73
8
 74
0
 42
0.0000001
 43
0.0000001
 44
0.0000000001
 40
0.0
 40
0.0
 40
0.0
 40
0.0
 40
0.2217067131
 40
0.4616053324
 40
0.5906736538
 40
0.7244953762
 40
1.0
 40
1.0
 40
1.0
 40
1.0
 10
106.3140625
 20
149.8406234906
 30
0.0
 10
106.3822908258
 20
149.840619947
 30
0.0
 10
106.5255069445
 20
149.8718714641
 30
0.0
 10
106.6789009149
 20
149.9760347864
 30
0.0
 10
106.7837158213
 20
150.0907322083
 30
0.0
 10
106.8743176531
 20
150.2294918645
 30
0.0
 10
106.9140592744
 20
150.3558752674
 30
0.0
 10
106.9140624989
 20
150.4406594355
 30
0.0
  0
SPLINE
  5
3A3
100
AcDbEntity
  8
RUNDUNGEN
100
AcDbSpline
 62
7
  6
CONTINUOUS
 70
0
 71
3
 72
14
 73
10
 74
0
 42
0.0000001
 43
0.0000001
 44
0.0000000001
 40
0.0
 40
0.0
 40
0.0
 40
0.0
 40
0.0752283774
 40
0.1609967765
 40
0.263196882
 40
0.3836254534
 40
0.5210175275
 40
0.6724415079
 40
1.0
 40
1.0
 40
1.0
 40
1.0
 10
106.9140625
 20
152.9248631566
 30
0.0
 10
106.9140625
 20
152.9425106587
 30
0.0
 10
106.9048515301
 20
152.9805570298
 30
0.0
 10
106.8678173532
 20
153.0312674389
 30
0.0
 10
106.8106677988
 20
153.076589137
 30
0.0
 10
106.7354866517
 20
153.1158438291
 30
0.0
 10
106.6447722588
 20
153.1480436878
 30
0.0
 10
106.5037062197
 20
153.1806959221
 30
0.0
 10
106.3909030408
 20
153.1899323372
 30
0.0
 10
106.3140625
 20
153.1899322779
 30
0.0
  0
SPLINE
  5
3A4
100
AcDbEntity
  8
RUNDUNGEN
100
AcDbSpline
 62
7
  6
CONTINUOUS
 70
0
 71
3
 72
12
 73
8
 74
0
 42
0.0000001
 43
0.0000001
 44
0.0000000001
 40
0.0
 40
0.0
 40
0.0
 40
0.0
 40
0.0741841212
 40
0.1658378013
 40
0.3992774741
 40
0.6859659805
 40
1.0
 40
1.0
 40
1.0
 40
1.0
 10
106.9345053669
 20
153.666395081
 30
0.0
 10
106.925512621
 20
153.6789463606
 30
0.0
 10
106.9007213282
 20
153.7035847047
 30
0.0
 10
106.8315748842
 20
153.7501053306
 30
0.0
 10
106.7128118847
 20
153.7989252311
 30
0.0
 10
106.5443123153
 20
153.8417035156
 30
0.0
 10
106.4200872637
 20
153.8586263735
 30
0.0
 10
106.3549515085
 20
153.864055063
 30
0.0
  0
SPLINE
  5
3A5
100
AcDbEntity
  8
RUNDUNGEN
100
AcDbSpline
 62
7
  6
CONTINUOUS
 70
0
 71
3
 72
12
 73
8
 74
0
 42
0.0000001
 43
0.0000001
 44
0.0000000001
 40
0.0
 40
0.0
 40
0.0
 40
0.0
 40
0.0741853192
 40
0.1658399181
 40
0.3992801233
 40
0.6859676469
 40
1.0
 40
1.0
 40
1.0
 40
1.0
 10
106.9345057694
 20
158.0148519003
 30
0.0
 10
106.9255124981
 20
158.0023007179
 30
0.0
 10
106.9007204503
 20
157.977662644
 30
0.0
 10
106.8315731482
 20
157.9311425486
 30
0.0
 10
106.7128101182
 20
157.8823231315
 30
0.0
 10
106.5443111479
 20
157.8395452621
 30
0.0
 10
106.4200868249
 20
157.8226225605
 30
0.0
 10
106.3549515085
 20
157.8171939212
 30
0.0
  0
SPLINE
  5
3A6
100
AcDbEntity
  8
RUNDUNGEN
100
AcDbSpline
 62
7
  6
CONTINUOUS
 70
0
 71
3
 72
11
 73
7
 74
0
 42
0.0000001
 43
0.0000001
 44
0.0000000001
 40
0.0
 40
0.0
 40
0.0
 40
0.0
 40
0.2536111736
 40
0.5048434575
 40
0.7534033023
 40
1.0
 40
1.0
 40
1.0
 40
1.0
 10
85.4007866649
 20
161.3344786933
 30
0.0
 10
85.4102285215
 20
161.3961606852
 30
0.0
 10
85.4478728736
 20
161.5169342257
 30
0.0
 10
85.555930374
 20
161.671109732
 30
0.0
 10
85.7047743922
 20
161.7837266938
 30
0.0
 10
85.8226422263
 20
161.8233787954
 30
0.0
 10
85.8825163273
 20
161.8332019382
 30
0.0
  0
SPLINE
  5
3A7
100
AcDbEntity
  8
RUNDUNGEN
100
AcDbSpline
 62
7
  6
CONTINUOUS
 70
0
 71
3
 72
14
 73
10
 74
0
 42
0.0000001
 43
0.0000001
 44
0.0000000001
 40
0.0
 40
0.0
 40
0.0
 40
0.0
 40
0.0752283205
 40
0.1609966791
 40
0.2631967637
 40
0.3836253359
 40
0.5210174266
 40
0.6724414368
 40
1.0
 40
1.0
 40
1.0
 40
1.0
 10
106.9140625
 20
158.7563838247
 30
0.0
 10
106.9140625
 20
158.7387363383
 30
0.0
 10
106.9048515272
 20
158.7006899958
 30
0.0
 10
106.8678173484
 20
158.6499796335
 30
0.0
 10
106.8106677964
 20
158.6046579734
 30
0.0
 10
106.7354866531
 20
158.5654033034
 30
0.0
 10
106.6447722632
 20
158.5332034461
 30
0.0
 10
106.5037062244
 20
158.5005511812
 30
0.0
 10
106.3909030468
 20
158.4913147035
 30
0.0
 10
106.3140625
 20
158.4913147035
 30
0.0
  0
SPLINE
  5
3A8
100
AcDbEntity
  8
RUNDUNGEN
100
AcDbSpline
 62
7
  6
CONTINUOUS
 70
0
 71
3
 72
11
 73
7
 74
0
 42
0.0000001
 43
0.0000001
 44
0.0000000001
 40
0.0
 40
0.0
 40
0.0
 40
0.0
 40
0.2540210989
 40
0.5056596922
 40
0.753985433
 40
1.0
 40
1.0
 40
1.0
 40
1.0
 10
81.9345070042
 20
161.2406234906
 30
0.0
 10
81.9345070042
 20
161.3185691226
 30
0.0
 10
81.9643002138
 20
161.475358289
 30
0.0
 10
82.0925582805
 20
161.6746571296
 30
0.0
 10
82.2851393765
 20
161.8090234032
 30
0.0
 10
82.4385736489
 20
161.8406234906
 30
0.0
 10
82.5140625
 20
161.8406234906
 30
0.0
  0
SPLINE
  5
3A9
100
AcDbEntity
  8
RUNDUNGEN
100
AcDbSpline
 62
7
  6
CONTINUOUS
 70
0
 71
3
 72
12
 73
8
 74
0
 42
0.0000001
 43
0.0000001
 44
0.0000000001
 40
0.0
 40
0.0
 40
0.0
 40
0.0
 40
0.2755060386
 40
0.4093272985
 40
0.5383974848
 40
0.7782945551
 40
1.0
 40
1.0
 40
1.0
 40
1.0
 10
106.9140624989
 20
161.2405884864
 30
0.0
 10
106.9140593648
 20
161.3253730279
 30
0.0
 10
106.8743185488
 20
161.4517569438
 30
0.0
 10
106.7837155688
 20
161.5905169468
 30
0.0
 10
106.6788985776
 20
161.7052122204
 30
0.0
 10
106.5255056681
 20
161.8093755842
 30
0.0
 10
106.3822903856
 20
161.8406272038
 30
0.0
 10
106.3140625
 20
161.8406234906
 30
0.0
  0
SPLINE
  5
3AA
100
AcDbEntity
  8
RUNDUNGEN
100
AcDbSpline
 62
7
  6
CONTINUOUS
 70
0
 71
3
 72
9
 73
5
 74
0
 42
0.0000001
 43
0.0000001
 44
0.0000000001
 40
0.0
 40
0.0
 40
0.0
 40
0.0
 40
0.248602642
 40
1.0
 40
1.0
 40
1.0
 40
1.0
 10
81.9140625
 20
152.9248631566
 30
0.0
 10
81.9140621281
 20
152.9863390888
 30
0.0
 10
81.9163708268
 20
153.2336270423
 30
0.0
 10
81.925830578
 20
153.4807877806
 30
0.0
 10
81.9345070042
 20
153.666395081
 30
0.0
  0
SPLINE
  5
3AB
100
AcDbEntity
  8
RUNDUNGEN
100
AcDbSpline
 62
7
  6
CONTINUOUS
 70
0
 71
3
 72
9
 73
5
 74
0
 42
0.0000001
 43
0.0000001
 44
0.0000000001
 40
0.0
 40
0.0
 40
0.0
 40
0.0
 40
0.2438394058
 40
1.0
 40
1.0
 40
1.0
 40
1.0
 10
81.9345070042
 20
153.666395081
 30
0.0
 10
81.9509739189
 20
153.8425660551
 30
0.0
 10
82.0093718604
 20
154.5658872745
 30
0.0
 10
82.0332123878
 20
155.2919253956
 30
0.0
 10
82.033221803
 20
155.8406234906
 30
0.0
  0
SPLINE
  5
3AC
100
AcDbEntity
  8
RUNDUNGEN
100
AcDbSpline
 62
7
  6
CONTINUOUS
 70
0
 71
3
 72
9
 73
5
 74
0
 42
0.0000001
 43
0.0000001
 44
0.0000000001
 40
0.0
 40
0.0
 40
0.0
 40
0.0
 40
0.2544610341
 40
1.0
 40
1.0
 40
1.0
 40
1.0
 10
82.033221803
 20
155.8406234906
 30
0.0
 10
82.0332191789
 20
156.0252689147
 30
0.0
 10
82.0250294401
 20
156.7508648909
 30
0.0
 10
81.9848549193
 20
157.4762118793
 30
0.0
 10
81.9345070042
 20
158.0148519002
 30
0.0
  0
SPLINE
  5
3AD
100
AcDbEntity
  8
RUNDUNGEN
100
AcDbSpline
 62
7
  6
CONTINUOUS
 70
0
 71
3
 72
9
 73
5
 74
0
 42
0.0000001
 43
0.0000001
 44
0.0000000001
 40
0.0
 40
0.0
 40
0.0
 40
0.0
 40
0.2513136573
 40
1.0
 40
1.0
 40
1.0
 40
1.0
 10
81.9345070042
 20
158.0148519002
 30
0.0
 10
81.9316052251
 20
158.0769293405
 30
0.0
 10
81.9208105732
 20
158.3239675163
 30
0.0
 10
81.9140615634
 20
158.5712475243
 30
0.0
 10
81.9140625
 20
158.7563838247
 30
0.0
  0
SPLINE
  5
3AE
100
AcDbEntity
  8
RUNDUNGEN
100
AcDbSpline
 62
7
  6
CONTINUOUS
 70
0
 71
3
 72
9
 73
5
 74
0
 42
0.0000001
 43
0.0000001
 44
0.0000000001
 40
0.0
 40
0.0
 40
0.0
 40
0.0
 40
0.2547781562
 40
1.0
 40
1.0
 40
1.0
 40
1.0
 10
81.3549515085
 20
157.8171947721
 30
0.0
 10
81.3490834252
 20
157.8742610125
 30
0.0
 10
81.3275493507
 20
158.0983601978
 30
0.0
 10
81.3140586295
 20
158.3235167422
 30
0.0
 10
81.3140625
 20
158.4913147034
 30
0.0
  0
SPLINE
  5
3AF
100
AcDbEntity
  8
RUNDUNGEN
100
AcDbSpline
 62
7
  6
CONTINUOUS
 70
0
 71
3
 72
9
 73
5
 74
0
 42
0.0000001
 43
0.0000001
 44
0.0000000001
 40
0.0
 40
0.0
 40
0.0
 40
0.0
 40
0.2544644331
 40
1.0
 40
1.0
 40
1.0
 40
1.0
 10
81.4536663072
 20
155.8406234906
 30
0.0
 10
81.4536643104
 20
156.0085284395
 30
0.0
 10
81.4454703959
 20
156.6683241898
 30
0.0
 10
81.4052691731
 20
157.3278432707
 30
0.0
 10
81.3549515085
 20
157.8171947721
 30
0.0
  0
SPLINE
  5
3B0
100
AcDbEntity
  8
RUNDUNGEN
100
AcDbSpline
 62
7
  6
CONTINUOUS
 70
0
 71
3
 72
9
 73
5
 74
0
 42
0.0000001
 43
0.0000001
 44
0.0000000001
 40
0.0
 40
0.0
 40
0.0
 40
0.0
 40
0.2438555474
 40
1.0
 40
1.0
 40
1.0
 40
1.0
 10
81.3549515085
 20
153.8640522092
 30
0.0
 10
81.3714097572
 20
154.0241140275
 30
0.0
 10
81.4297901125
 20
154.681408164
 30
0.0
 10
81.4536592168
 20
155.3416888147
 30
0.0
 10
81.4536663072
 20
155.8406234906
 30
0.0
  0
SPLINE
  5
3B1
100
AcDbEntity
  8
RUNDUNGEN
100
AcDbSpline
 62
7
  6
CONTINUOUS
 70
0
 71
3
 72
9
 73
5
 74
0
 42
0.0000001
 43
0.0000001
 44
0.0000000001
 40
0.0
 40
0.0
 40
0.0
 40
0.0
 40
0.2450568953
 40
1.0
 40
1.0
 40
1.0
 40
1.0
 10
81.3140625
 20
153.1899322778
 30
0.0
 10
81.3140610436
 20
153.2451150713
 30
0.0
 10
81.3186336943
 20
153.470307612
 30
0.0
 10
81.3375605374
 20
153.6949432864
 30
0.0
 10
81.3549515085
 20
153.8640522092
 30
0.0
  0
SPLINE
  5
3B2
100
AcDbEntity
  8
RUNDUNGEN
100
AcDbSpline
 62
7
  6
CONTINUOUS
 70
0
 71
3
 72
9
 73
5
 74
0
 42
0.0000001
 43
0.0000001
 44
0.0000000001
 40
0.0
 40
0.0
 40
0.0
 40
0.0
 40
0.2513138495
 40
1.0
 40
1.0
 40
1.0
 40
1.0
 10
101.8936179958
 20
153.666395081
 30
0.0
 10
101.896519896
 20
153.6043175987
 30
0.0
 10
101.9073145388
 20
153.3572794191
 30
0.0
 10
101.9140632454
 20
153.1099994099
 30
0.0
 10
101.9140625
 20
152.9248631566
 30
0.0
  0
SPLINE
  5
3B3
100
AcDbEntity
  8
RUNDUNGEN
100
AcDbSpline
 62
7
  6
CONTINUOUS
 70
0
 71
3
 72
9
 73
5
 74
0
 42
0.0000001
 43
0.0000001
 44
0.0000000001
 40
0.0
 40
0.0
 40
0.0
 40
0.0
 40
0.2486026821
 40
1.0
 40
1.0
 40
1.0
 40
1.0
 10
101.9140625
 20
158.7563838247
 30
0.0
 10
101.9140629465
 20
158.6949078825
 30
0.0
 10
101.9117542094
 20
158.4476199252
 30
0.0
 10
101.9022941059
 20
158.2004592057
 30
0.0
 10
101.8936179958
 20
158.0148519002
 30
0.0
  0
SPLINE
  5
3B4
100
AcDbEntity
  8
RUNDUNGEN
100
AcDbSpline
 62
7
  6
CONTINUOUS
 70
0
 71
3
 72
14
 73
10
 74
0
 42
0.0000001
 43
0.0000001
 44
0.0000000001
 40
0.0
 40
0.0
 40
0.0
 40
0.0
 40
0.2826917355
 40
0.4202555468
 40
0.5531206365
 40
0.6794099819
 40
0.7971055827
 40
0.9042809124
 40
1.0
 40
1.0
 40
1.0
 40
1.0
 10
116.9140625
 20
159.8406234906
 30
0.0
 10
116.5772141465
 20
160.0749600246
 30
0.0
 10
116.0766542544
 20
160.4237278405
 30
0.0
 10
115.4057186289
 20
160.8648387619
 30
0.0
 10
114.9152042857
 20
161.1667720835
 30
0.0
 10
114.4364192243
 20
161.4318571083
 30
0.0
 10
113.9734840523
 20
161.6469363209
 30
0.0
 10
113.5316732154
 20
161.7962858403
 30
0.0
 10
113.2372550364
 20
161.8406238804
 30
0.0
 10
113.0983137747
 20
161.8406234906
 30
0.0
  0
SPLINE
  5
3B5
100
AcDbEntity
  8
RUNDUNGEN
100
AcDbSpline
 62
7
  6
CONTINUOUS
 70
0
 71
3
 72
9
 73
5
 74
0
 42
0.0000001
 43
0.0000001
 44
0.0000000001
 40
0.0
 40
0.0
 40
0.0
 40
0.0
 40
0.2438393932
 40
1.0
 40
1.0
 40
1.0
 40
1.0
 10
126.8936179958
 20
158.0148519002
 30
0.0
 10
126.8771508948
 20
157.8386809523
 30
0.0
 10
126.8187534297
 20
157.1153597077
 30
0.0
 10
126.7949109703
 20
156.389321596
 30
0.0
 10
126.794903197
 20
155.8406234906
 30
0.0
  0
SPLINE
  5
3B6
100
AcDbEntity
  8
RUNDUNGEN
100
AcDbSpline
 62
7
  6
CONTINUOUS
 70
0
 71
3
 72
13
 73
9
 74
0
 42
0.0000001
 43
0.0000001
 44
0.0000000001
 40
0.0
 40
0.0
 40
0.0
 40
0.0
 40
0.2958615793
 40
0.5667836985
 40
0.6881883699
 40
0.7993900069
 40
0.9022242922
 40
1.0
 40
1.0
 40
1.0
 40
1.0
 10
121.1178623706
 20
150.4406234906
 30
0.0
 10
121.1178623706
 20
150.3634471168
 30
0.0
 10
121.0997252506
 20
150.2149966886
 30
0.0
 10
121.0304384906
 20
150.0459873156
 30
0.0
 10
120.9496244474
 20
149.9414671004
 30
0.0
 10
120.8821420211
 20
149.8845120293
 30
0.0
 10
120.8079468331
 20
149.8488976022
 30
0.0
 10
120.7553243902
 20
149.8406234906
 30
0.0
 10
120.7298193057
 20
149.8406234906
 30
0.0
  0
SPLINE
  5
3B7
100
AcDbEntity
  8
RUNDUNGEN
100
AcDbSpline
 62
7
  6
CONTINUOUS
 70
0
 71
3
 72
9
 73
5
 74
0
 42
0.0000001
 43
0.0000001
 44
0.0000000001
 40
0.0
 40
0.0
 40
0.0
 40
0.0
 40
0.2438394073
 40
1.0
 40
1.0
 40
1.0
 40
1.0
 10
106.9345070042
 20
153.666395081
 30
0.0
 10
106.9509739179
 20
153.8425660563
 30
0.0
 10
107.009371854
 20
154.5658872757
 30
0.0
 10
107.0332124121
 20
155.2919253967
 30
0.0
 10
107.033221803
 20
155.8406234906
 30
0.0
  0
SPLINE
  5
3B8
100
AcDbEntity
  8
RUNDUNGEN
100
AcDbSpline
 62
7
  6
CONTINUOUS
 70
0
 71
3
 72
9
 73
5
 74
0
 42
0.0000001
 43
0.0000001
 44
0.0000000001
 40
0.0
 40
0.0
 40
0.0
 40
0.0
 40
0.2544610342
 40
1.0
 40
1.0
 40
1.0
 40
1.0
 10
107.033221803
 20
155.8406234906
 30
0.0
 10
107.0332191872
 20
156.0252689148
 30
0.0
 10
107.0250294378
 20
156.7508648913
 30
0.0
 10
106.9848549128
 20
157.4762118788
 30
0.0
 10
106.9345070042
 20
158.0148519002
 30
0.0
  0
SPLINE
  5
3B9
100
AcDbEntity
  8
RUNDUNGEN
100
AcDbSpline
 62
7
  6
CONTINUOUS
 70
0
 71
3
 72
9
 73
5
 74
0
 42
0.0000001
 43
0.0000001
 44
0.0000000001
 40
0.0
 40
0.0
 40
0.0
 40
0.0
 40
0.2486026815
 40
1.0
 40
1.0
 40
1.0
 40
1.0
 10
126.9140625
 20
158.7563838247
 30
0.0
 10
126.914062947
 20
158.6949078826
 30
0.0
 10
126.9117542033
 20
158.4476199256
 30
0.0
 10
126.9022941319
 20
158.2004592046
 30
0.0
 10
126.8936179958
 20
158.0148519002
 30
0.0
  0
SPLINE
  5
3BA
100
AcDbEntity
  8
RUNDUNGEN
100
AcDbSpline
 62
7
  6
CONTINUOUS
 70
0
 71
3
 72
9
 73
5
 74
0
 42
0.0000001
 43
0.0000001
 44
0.0000000001
 40
0.0
 40
0.0
 40
0.0
 40
0.0
 40
0.2513138546
 40
1.0
 40
1.0
 40
1.0
 40
1.0
 10
126.8936179958
 20
153.666395081
 30
0.0
 10
126.8965199035
 20
153.6043175978
 30
0.0
 10
126.9073145415
 20
153.357279418
 30
0.0
 10
126.9140632651
 20
153.1099994087
 30
0.0
 10
126.9140625
 20
152.9248631566
 30
0.0
  0
SPLINE
  5
3BB
100
AcDbEntity
  8
RUNDUNGEN
100
AcDbSpline
 62
7
  6
CONTINUOUS
 70
0
 71
3
 72
9
 73
5
 74
0
 42
0.0000001
 43
0.0000001
 44
0.0000000001
 40
0.0
 40
0.0
 40
0.0
 40
0.0
 40
0.2513136627
 40
1.0
 40
1.0
 40
1.0
 40
1.0
 10
106.9345070042
 20
158.0148519002
 30
0.0
 10
106.9316052157
 20
158.0769293414
 30
0.0
 10
106.9208105732
 20
158.3239675176
 30
0.0
 10
106.9140615484
 20
158.5712475256
 30
0.0
 10
106.9140625
 20
158.7563838247
 30
0.0
  0
SPLINE
  5
3BC
100
AcDbEntity
  8
RUNDUNGEN
100
AcDbSpline
 62
7
  6
CONTINUOUS
 70
0
 71
3
 72
9
 73
5
 74
0
 42
0.0000001
 43
0.0000001
 44
0.0000000001
 40
0.0
 40
0.0
 40
0.0
 40
0.0
 40
0.24860264
 40
1.0
 40
1.0
 40
1.0
 40
1.0
 10
106.9140625
 20
152.9248631566
 30
0.0
 10
106.9140621259
 20
152.9863390883
 30
0.0
 10
106.9163708347
 20
153.2336270416
 30
0.0
 10
106.925830556
 20
153.4807877812
 30
0.0
 10
106.9345070042
 20
153.666395081
 30
0.0
  0
SPLINE
  5
3BD
100
AcDbEntity
  8
RUNDUNGEN
100
AcDbSpline
 62
7
  6
CONTINUOUS
 70
0
 71
3
 72
14
 73
10
 74
0
 42
0.0000001
 43
0.0000001
 44
0.0000000001
 40
0.0
 40
0.0
 40
0.0
 40
0.0
 40
0.3936335994
 40
0.5641695779
 40
0.7107719032
 40
0.829680129
 40
0.9180553341
 40
0.9740475269
 40
1.0
 40
1.0
 40
1.0
 40
1.0
 10
211.2211316418
 20
153.666395081
 30
0.0
 10
211.1645424712
 20
153.6875567494
 30
0.0
 10
211.0838157336
 20
153.7190241414
 30
0.0
 10
210.9834779623
 20
153.7616942499
 30
0.0
 10
210.9224795404
 20
153.7896243603
 30
0.0
 10
210.8741771059
 20
153.8135599124
 30
0.0
 10
210.8383963123
 20
153.8345609655
 30
0.0
 10
210.8184350484
 20
153.8481310113
 30
0.0
 10
210.8085940582
 20
153.860294074
 30
0.0
 10
210.8099060956
 20
153.8640550792
 30
0.0
  0
SPLINE
  5
3BE
100
AcDbEntity
  8
RUNDUNGEN
100
AcDbSpline
 62
7
  6
CONTINUOUS
 70
0
 71
3
 72
14
 73
10
 74
0
 42
0.0000001
 43
0.0000001
 44
0.0000000001
 40
0.0
 40
0.0
 40
0.0
 40
0.0
 40
0.3936338765
 40
0.5641696563
 40
0.710771752
 40
0.8296798233
 40
0.9180550069
 40
0.9740473367
 40
1.0
 40
1.0
 40
1.0
 40
1.0
 10
211.2211315325
 20
158.0148519003
 30
0.0
 10
211.164543139
 20
157.9936903967
 30
0.0
 10
211.0838175555
 20
157.9622232816
 30
0.0
 10
210.9834812601
 20
157.9195535792
 30
0.0
 10
210.9224838046
 20
157.8916237874
 30
0.0
 10
210.8741821313
 20
157.8676884894
 30
0.0
 10
210.8384018552
 20
157.8466877243
 30
0.0
 10
210.8184408568
 20
157.833117737
 30
0.0
 10
210.8085999209
 20
157.8209549255
 30
0.0
 10
210.8099118765
 20
157.8171939187
 30
0.0
  0
SPLINE
  5
3BF
100
AcDbEntity
  8
RUNDUNGEN
100
AcDbSpline
 62
7
  6
CONTINUOUS
 70
0
 71
3
 72
11
 73
7
 74
0
 42
0.0000001
 43
0.0000001
 44
0.0000000001
 40
0.0
 40
0.0
 40
0.0
 40
0.0
 40
0.2480149538
 40
0.4968136947
 40
0.7472856852
 40
1.0
 40
1.0
 40
1.0
 40
1.0
 10
205.144831272
 20
149.8406234906
 30
0.0
 10
205.4634566085
 20
149.8406199803
 30
0.0
 10
206.1020516307
 20
149.8688208673
 30
0.0
 10
207.0551029971
 20
149.9923131719
 30
0.0
 10
208.0020671125
 20
150.1870522068
 30
0.0
 10
208.6271814762
 20
150.3526232716
 30
0.0
 10
208.9396801925
 20
150.4406594356
 30
0.0
  0
SPLINE
  5
3C0
100
AcDbEntity
  8
RUNDUNGEN
100
AcDbSpline
 62
7
  6
CONTINUOUS
 70
0
 71
3
 72
11
 73
7
 74
0
 42
0.0000001
 43
0.0000001
 44
0.0000000001
 40
0.0
 40
0.0
 40
0.0
 40
0.0
 40
0.2527158403
 40
0.503188211
 40
0.7519861821
 40
1.0
 40
1.0
 40
1.0
 40
1.0
 10
208.9396770309
 20
161.2405884863
 30
0.0
 10
208.6271764254
 20
161.3286241445
 30
0.0
 10
208.002060678
 20
161.494197323
 30
0.0
 10
207.0550955328
 20
161.6889348395
 30
0.0
 10
206.1020468848
 20
161.8124258753
 30
0.0
 10
205.4634548757
 20
161.8406271687
 30
0.0
 10
205.144831272
 20
161.8406234906
 30
0.0
  0
SPLINE
  5
3C1
100
AcDbEntity
  8
RUNDUNGEN
100
AcDbSpline
 62
7
  6
CONTINUOUS
 70
0
 71
3
 72
15
 73
11
 74
0
 42
0.0000001
 43
0.0000001
 44
0.0000000001
 40
0.0
 40
0.0
 40
0.0
 40
0.0
 40
0.1820837825
 40
0.3579942671
 40
0.520946196
 40
0.665570656
 40
0.7873644105
 40
0.8386655433
 40
0.8833356644
 40
1.0
 40
1.0
 40
1.0
 40
1.0
 10
211.2211312005
 20
150.4406234906
 30
0.0
 10
211.2211312005
 20
150.4016256557
 30
0.0
 10
211.2191980801
 20
150.3249387649
 30
0.0
 10
211.2106413777
 20
150.2136367255
 30
0.0
 10
211.1967711433
 20
150.1109674101
 30
0.0
 10
211.1780579163
 20
150.0207774803
 30
0.0
 10
211.1584617847
 20
149.9556479126
 30
0.0
 10
211.1399559919
 20
149.912395063
 30
0.0
 10
211.1192274036
 20
149.8732929858
 30
0.0
 10
211.0908263837
 20
149.8406234906
 30
0.0
 10
211.0658397734
 20
149.8406234906
 30
0.0
  0
SPLINE
  5
3C2
100
AcDbEntity
  8
RUNDUNGEN
100
AcDbSpline
 62
7
  6
CONTINUOUS
 70
0
 71
3
 72
15
 73
11
 74
0
 42
0.0000001
 43
0.0000001
 44
0.0000000001
 40
0.0
 40
0.0
 40
0.0
 40
0.0
 40
0.1820838727
 40
0.3579944761
 40
0.5209463338
 40
0.6655707197
 40
0.7873644441
 40
0.8386655676
 40
0.8833356801
 40
1.0
 40
1.0
 40
1.0
 40
1.0
 10
224.13070917
 20
150.4406234906
 30
0.0
 10
224.13070917
 20
150.4016256364
 30
0.0
 10
224.1287760364
 20
150.3249387012
 30
0.0
 10
224.1202193445
 20
150.2136366314
 30
0.0
 10
224.1063490972
 20
150.1109673232
 30
0.0
 10
224.0876358729
 20
150.0207774315
 30
0.0
 10
224.068039745
 20
149.955647888
 30
0.0
 10
224.0495339546
 20
149.9123950487
 30
0.0
 10
224.0288053669
 20
149.8732929788
 30
0.0
 10
224.0004043502
 20
149.8406234906
 30
0.0
 10
223.9754177434
 20
149.8406234906
 30
0.0
  0
SPLINE
  5
3C3
100
AcDbEntity
  8
RUNDUNGEN
100
AcDbSpline
 62
7
  6
CONTINUOUS
 70
0
 71
3
 72
12
 73
8
 74
0
 42
0.0000001
 43
0.0000001
 44
0.0000000001
 40
0.0
 40
0.0
 40
0.0
 40
0.0
 40
0.2796735007
 40
0.5426979521
 40
0.7803436002
 40
0.8916933662
 40
1.0
 40
1.0
 40
1.0
 40
1.0
 10
234.6024583907
 20
150.4406234906
 30
0.0
 10
234.6024583658
 20
150.3632019863
 30
0.0
 10
234.5802553217
 20
150.2118912775
 30
0.0
 10
234.4835994081
 20
150.0145579833
 30
0.0
 10
234.3544273842
 20
149.8962822345
 30
0.0
 10
234.2358852092
 20
149.8486766432
 30
0.0
 10
234.1748135995
 20
149.8406234906
 30
0.0
 10
234.1448312719
 20
149.8406234906
 30
0.0
  0
SPLINE
  5
3C4
100
AcDbEntity
  8
RUNDUNGEN
100
AcDbSpline
 62
7
  6
CONTINUOUS
 70
0
 71
3
 72
12
 73
8
 74
0
 42
0.0000001
 43
0.0000001
 44
0.0000000001
 40
0.0
 40
0.0
 40
0.0
 40
0.0
 40
0.2796734633
 40
0.5426978847
 40
0.7803435392
 40
0.891693331
 40
1.0
 40
1.0
 40
1.0
 40
1.0
 10
234.6024583907
 20
161.2406234906
 30
0.0
 10
234.6024583907
 20
161.3180449895
 30
0.0
 10
234.5802553864
 20
161.4693556974
 30
0.0
 10
234.4835994912
 20
161.6666890017
 30
0.0
 10
234.3544274472
 20
161.7849647511
 30
0.0
 10
234.2358852415
 20
161.8325703373
 30
0.0
 10
234.1748136113
 20
161.8406234906
 30
0.0
 10
234.144831272
 20
161.8406234906
 30
0.0
  0
SPLINE
  5
3C5
100
AcDbEntity
  8
RUNDUNGEN
100
AcDbSpline
 62
7
  6
CONTINUOUS
 70
0
 71
3
 72
15
 73
11
 74
0
 42
0.0000001
 43
0.0000001
 44
0.0000000001
 40
0.0
 40
0.0
 40
0.0
 40
0.0
 40
0.1820838727
 40
0.3579944764
 40
0.5209463339
 40
0.6655707194
 40
0.7873644435
 40
0.838665567
 40
0.8833356794
 40
1.0
 40
1.0
 40
1.0
 40
1.0
 10
224.13070917
 20
161.2406234906
 30
0.0
 10
224.13070917
 20
161.2796213449
 30
0.0
 10
224.1287760364
 20
161.3563082802
 30
0.0
 10
224.1202193445
 20
161.4676103501
 30
0.0
 10
224.1063490972
 20
161.5702796583
 30
0.0
 10
224.0876358729
 20
161.6604695499
 30
0.0
 10
224.068039745
 20
161.7255990933
 30
0.0
 10
224.0495339547
 20
161.7688519325
 30
0.0
 10
224.028805367
 20
161.8079540026
 30
0.0
 10
224.0004043499
 20
161.8406234906
 30
0.0
 10
223.9754177429
 20
161.8406234906
 30
0.0
  0
SPLINE
  5
3C6
100
AcDbEntity
  8
RUNDUNGEN
100
AcDbSpline
 62
7
  6
CONTINUOUS
 70
0
 71
3
 72
15
 73
11
 74
0
 42
0.0000001
 43
0.0000001
 44
0.0000000001
 40
0.0
 40
0.0
 40
0.0
 40
0.0
 40
0.1820837824
 40
0.3579942672
 40
0.5209461966
 40
0.6655706564
 40
0.7873644103
 40
0.8386655431
 40
0.8833356644
 40
1.0
 40
1.0
 40
1.0
 40
1.0
 10
211.2211312005
 20
161.2406234906
 30
0.0
 10
211.2211312005
 20
161.2796213255
 30
0.0
 10
211.2191980801
 20
161.3563082164
 30
0.0
 10
211.2106413777
 20
161.4676102559
 30
0.0
 10
211.1967711432
 20
161.5702795714
 30
0.0
 10
211.1780579164
 20
161.6604695011
 30
0.0
 10
211.1584617847
 20
161.7255990687
 30
0.0
 10
211.1399559919
 20
161.7688519181
 30
0.0
 10
211.1192274036
 20
161.8079539954
 30
0.0
 10
211.0908263837
 20
161.8406234906
 30
0.0
 10
211.0658397734
 20
161.8406234906
 30
0.0
  0
SPLINE
  5
3C7
100
AcDbEntity
  8
RUNDUNGEN
100
AcDbSpline
 62
7
  6
CONTINUOUS
 70
0
 71
3
 72
13
 73
9
 74
0
 42
0.0000001
 43
0.0000001
 44
0.0000000001
 40
0.0
 40
0.0
 40
0.0
 40
0.0
 40
0.1057713413
 40
0.2132716559
 40
0.4394841623
 40
0.6949147038
 40
0.8399780603
 40
1.0
 40
1.0
 40
1.0
 40
1.0
 10
236.144831272
 20
159.8406234906
 30
0.0
 10
236.1448102409
 20
159.9218350393
 30
0.0
 10
236.1289653804
 20
160.0860387196
 30
0.0
 10
236.0327453348
 20
160.4112686622
 30
0.0
 10
235.7782502797
 20
160.7995107219
 30
0.0
 10
235.3714133397
 20
161.0797928401
 30
0.0
 10
234.9605133105
 20
161.2150158938
 30
0.0
 10
234.7253237133
 20
161.2406232069
 30
0.0
 10
234.6024583906
 20
161.2406234906
 30
0.0
  0
SPLINE
  5
3C8
100
AcDbEntity
  8
RUNDUNGEN
100
AcDbSpline
 62
7
  6
CONTINUOUS
 70
0
 71
3
 72
13
 73
9
 74
0
 42
0.0000001
 43
0.0000001
 44
0.0000000001
 40
0.0
 40
0.0
 40
0.0
 40
0.0
 40
0.160032286
 40
0.3050948351
 40
0.5605253448
 40
0.7867321713
 40
0.8942339806
 40
1.0
 40
1.0
 40
1.0
 40
1.0
 10
234.6024583906
 20
150.4406234906
 30
0.0
 10
234.7253316774
 20
150.4406218157
 30
0.0
 10
234.9605292606
 20
150.4662302695
 30
0.0
 10
235.371433893
 20
150.6014647058
 30
0.0
 10
235.7782578427
 20
150.8817520499
 30
0.0
 10
236.0327594912
 20
151.26998775
 30
0.0
 10
236.1289599212
 20
151.595216698
 30
0.0
 10
236.1448051221
 20
151.7594160163
 30
0.0
 10
236.144831272
 20
151.8406234906
 30
0.0
  0
SPLINE
  5
3C9
100
AcDbEntity
  8
RUNDUNGEN
100
AcDbSpline
 62
7
  6
CONTINUOUS
 70
0
 71
3
 72
12
 73
8
 74
0
 42
0.0000001
 43
0.0000001
 44
0.0000000001
 40
0.0
 40
0.0
 40
0.0
 40
0.0
 40
0.2535952952
 40
0.5054399629
 40
0.7543126922
 40
0.8775253831
 40
1.0
 40
1.0
 40
1.0
 40
1.0
 10
102.5140625
 20
84.306969096
 30
0.0
 10
102.4465722816
 20
83.9887918892
 30
0.0
 10
102.3119645931
 20
83.3546361109
 30
0.0
 10
102.1238205676
 20
82.4056447398
 30
0.0
 10
101.9945771101
 20
81.6154139012
 30
0.0
 10
101.9284365271
 20
80.9843740345
 30
0.0
 10
101.9140638248
 20
80.6692283892
 30
0.0
 10
101.9140625007
 20
80.5121448699
 30
0.0
  0
SPLINE
  5
3CA
100
AcDbEntity
  8
RUNDUNGEN
100
AcDbSpline
 62
7
  6
CONTINUOUS
 70
0
 71
3
 72
12
 73
8
 74
0
 42
0.0000001
 43
0.0000001
 44
0.0000000001
 40
0.0
 40
0.0
 40
0.0
 40
0.0
 40
0.2370838303
 40
0.3587725811
 40
0.4829724874
 40
0.7379186746
 40
1.0
 40
1.0
 40
1.0
 40
1.0
 10
101.9140625
 20
78.3859605946
 30
0.0
 10
101.9140625
 20
78.4562991013
 30
0.0
 10
101.9384969069
 20
78.564362214
 30
0.0
 10
102.0126530166
 20
78.6878031425
 30
0.0
 10
102.1137933371
 20
78.797966856
 30
0.0
 10
102.2815547721
 20
78.8972737261
 30
0.0
 10
102.4363076862
 20
78.9242340597
 30
0.0
 10
102.5140625
 20
78.9242340946
 30
0.0
  0
SPLINE
  5
3CB
100
AcDbEntity
  8
RUNDUNGEN
100
AcDbSpline
 62
7
  6
CONTINUOUS
 70
0
 71
3
 72
11
 73
7
 74
0
 42
0.0000001
 43
0.0000001
 44
0.0000000001
 40
0.0
 40
0.0
 40
0.0
 40
0.0
 40
0.244797356
 40
0.4929214093
 40
0.7450728802
 40
1.0
 40
1.0
 40
1.0
 40
1.0
 10
101.972537146
 20
78.3993796372
 30
0.0
 10
101.9996240426
 20
78.4379925622
 30
0.0
 10
102.0647371142
 20
78.5088374793
 30
0.0
 10
102.1865624673
 20
78.5874782347
 30
0.0
 10
102.3256830831
 20
78.6346478188
 30
0.0
 10
102.4240762097
 20
78.6433213801
 30
0.0
 10
102.4731734915
 20
78.6418938737
 30
0.0
  0
SPLINE
  5
3CC
100
AcDbEntity
  8
RUNDUNGEN
100
AcDbSpline
 62
7
  6
CONTINUOUS
 70
0
 71
3
 72
11
 73
7
 74
0
 42
0.0000001
 43
0.0000001
 44
0.0000000001
 40
0.0
 40
0.0
 40
0.0
 40
0.0
 40
0.2447973916
 40
0.492921471
 40
0.7450729237
 40
1.0
 40
1.0
 40
1.0
 40
1.0
 10
81.8555861668
 20
78.3993776281
 30
0.0
 10
81.8284989831
 20
78.4379899875
 30
0.0
 10
81.7633856673
 20
78.5088337953
 30
0.0
 10
81.641560689
 20
78.5874733372
 30
0.0
 10
81.502440914
 20
78.6346423043
 30
0.0
 10
81.4040484673
 20
78.6433158863
 30
0.0
 10
81.3549515085
 20
78.6418884915
 30
0.0
  0
SPLINE
  5
3CD
100
AcDbEntity
  8
RUNDUNGEN
100
AcDbSpline
 62
7
  6
CONTINUOUS
 70
0
 71
3
 72
12
 73
8
 74
0
 42
0.0000001
 43
0.0000001
 44
0.0000000001
 40
0.0
 40
0.0
 40
0.0
 40
0.0
 40
0.2370838664
 40
0.3587726254
 40
0.4829725323
 40
0.7379186968
 40
1.0
 40
1.0
 40
1.0
 40
1.0
 10
81.9140625
 20
78.3859605946
 30
0.0
 10
81.9140625
 20
78.4562991167
 30
0.0
 10
81.8896280973
 20
78.5643622499
 30
0.0
 10
81.8154719911
 20
78.6878032075
 30
0.0
 10
81.7143316778
 20
78.7979669357
 30
0.0
 10
81.5465702387
 20
78.8972738089
 30
0.0
 10
81.3918173124
 20
78.9242340947
 30
0.0
 10
81.3140625
 20
78.9242340947
 30
0.0
  0
SPLINE
  5
3CE
100
AcDbEntity
  8
RUNDUNGEN
100
AcDbSpline
 62
7
  6
CONTINUOUS
 70
0
 71
3
 72
12
 73
8
 74
0
 42
0.0000001
 43
0.0000001
 44
0.0000000001
 40
0.0
 40
0.0
 40
0.0
 40
0.0
 40
0.1224752486
 40
0.2456887114
 40
0.4945619868
 40
0.7464060245
 40
1.0
 40
1.0
 40
1.0
 40
1.0
 10
81.9140624989
 20
80.5121233371
 30
0.0
 10
81.9140608631
 20
80.6692085474
 30
0.0
 10
81.8996900811
 20
80.9843577805
 30
0.0
 10
81.8335516326
 20
81.6154040671
 30
0.0
 10
81.7043036282
 20
82.4056396367
 30
0.0
 10
81.5161616028
 20
83.3546350515
 30
0.0
 10
81.3815517424
 20
83.988791548
 30
0.0
 10
81.3140625
 20
84.306969096
 30
0.0
  0
SPLINE
  5
3CF
100
AcDbEntity
  8
RUNDUNGEN
100
AcDbSpline
 62
7
  6
CONTINUOUS
 70
0
 71
3
 72
12
 73
8
 74
0
 42
0.0000001
 43
0.0000001
 44
0.0000000001
 40
0.0
 40
0.0
 40
0.0
 40
0.0
 40
0.2535952952
 40
0.5054399629
 40
0.7543126922
 40
0.8775253831
 40
1.0
 40
1.0
 40
1.0
 40
1.0
 10
127.5140625
 20
84.306969096
 30
0.0
 10
127.4465722815
 20
83.9887918892
 30
0.0
 10
127.3119645931
 20
83.3546361109
 30
0.0
 10
127.1238205676
 20
82.4056447399
 30
0.0
 10
126.9945771102
 20
81.6154139013
 30
0.0
 10
126.9284365271
 20
80.9843740347
 30
0.0
 10
126.9140638248
 20
80.6692283894
 30
0.0
 10
126.9140625007
 20
80.5121448701
 30
0.0
  0
SPLINE
  5
3D0
100
AcDbEntity
  8
RUNDUNGEN
100
AcDbSpline
 62
7
  6
CONTINUOUS
 70
0
 71
3
 72
12
 73
8
 74
0
 42
0.0000001
 43
0.0000001
 44
0.0000000001
 40
0.0
 40
0.0
 40
0.0
 40
0.0
 40
0.2370838312
 40
0.3587725822
 40
0.4829724884
 40
0.7379186751
 40
1.0
 40
1.0
 40
1.0
 40
1.0
 10
126.9140625
 20
78.3859605946
 30
0.0
 10
126.9140625
 20
78.4562991017
 30
0.0
 10
126.9384969068
 20
78.5643622149
 30
0.0
 10
127.0126530164
 20
78.6878031441
 30
0.0
 10
127.1137933366
 20
78.797966858
 30
0.0
 10
127.2815547717
 20
78.8972737282
 30
0.0
 10
127.4363076862
 20
78.9242340606
 30
0.0
 10
127.5140625
 20
78.9242340946
 30
0.0
  0
SPLINE
  5
3D1
100
AcDbEntity
  8
RUNDUNGEN
100
AcDbSpline
 62
7
  6
CONTINUOUS
 70
0
 71
3
 72
11
 73
7
 74
0
 42
0.0000001
 43
0.0000001
 44
0.0000000001
 40
0.0
 40
0.0
 40
0.0
 40
0.0
 40
0.2447973562
 40
0.4929214097
 40
0.7450728806
 40
1.0
 40
1.0
 40
1.0
 40
1.0
 10
126.9725371487
 20
78.3993796262
 30
0.0
 10
126.9996240474
 20
78.4379925478
 30
0.0
 10
127.0647371219
 20
78.5088374577
 30
0.0
 10
127.1865624753
 20
78.5874782034
 30
0.0
 10
127.3256830882
 20
78.6346477801
 30
0.0
 10
127.4240762115
 20
78.6433213385
 30
0.0
 10
127.4731734915
 20
78.6418938311
 30
0.0
  0
SPLINE
  5
3D2
100
AcDbEntity
  8
RUNDUNGEN
100
AcDbSpline
 62
7
  6
CONTINUOUS
 70
0
 71
3
 72
11
 73
7
 74
0
 42
0.0000001
 43
0.0000001
 44
0.0000000001
 40
0.0
 40
0.0
 40
0.0
 40
0.0
 40
0.2447973914
 40
0.4929214708
 40
0.7450729237
 40
1.0
 40
1.0
 40
1.0
 40
1.0
 10
106.8555861721
 20
78.3993776282
 30
0.0
 10
106.8284989882
 20
78.4379899875
 30
0.0
 10
106.7633856715
 20
78.5088337951
 30
0.0
 10
106.6415606913
 20
78.5874733353
 30
0.0
 10
106.5024409148
 20
78.6346422999
 30
0.0
 10
106.4040484675
 20
78.64331588
 30
0.0
 10
106.3549515085
 20
78.6418884843
 30
0.0
  0
SPLINE
  5
3D3
100
AcDbEntity
  8
RUNDUNGEN
100
AcDbSpline
 62
7
  6
CONTINUOUS
 70
0
 71
3
 72
12
 73
8
 74
0
 42
0.0000001
 43
0.0000001
 44
0.0000000001
 40
0.0
 40
0.0
 40
0.0
 40
0.0
 40
0.2370838663
 40
0.3587726254
 40
0.4829725322
 40
0.7379186968
 40
1.0
 40
1.0
 40
1.0
 40
1.0
 10
106.9140625
 20
78.3859605946
 30
0.0
 10
106.9140625
 20
78.4562991167
 30
0.0
 10
106.8896280973
 20
78.5643622499
 30
0.0
 10
106.8154719911
 20
78.6878032074
 30
0.0
 10
106.7143316778
 20
78.7979669357
 30
0.0
 10
106.5465702387
 20
78.8972738089
 30
0.0
 10
106.3918173124
 20
78.9242340947
 30
0.0
 10
106.3140625
 20
78.9242340947
 30
0.0
  0
SPLINE
  5
3D4
100
AcDbEntity
  8
RUNDUNGEN
100
AcDbSpline
 62
7
  6
CONTINUOUS
 70
0
 71
3
 72
12
 73
8
 74
0
 42
0.0000001
 43
0.0000001
 44
0.0000000001
 40
0.0
 40
0.0
 40
0.0
 40
0.0
 40
0.1224752486
 40
0.2456887114
 40
0.4945619869
 40
0.7464060245
 40
1.0
 40
1.0
 40
1.0
 40
1.0
 10
106.9140624989
 20
80.5121233373
 30
0.0
 10
106.9140608631
 20
80.6692085476
 30
0.0
 10
106.8996900811
 20
80.9843577807
 30
0.0
 10
106.8335516326
 20
81.6154040672
 30
0.0
 10
106.7043036282
 20
82.4056396368
 30
0.0
 10
106.5161616028
 20
83.3546350515
 30
0.0
 10
106.3815517424
 20
83.988791548
 30
0.0
 10
106.3140625
 20
84.306969096
 30
0.0
  0
SPLINE
  5
3D5
100
AcDbEntity
  8
RUNDUNGEN
100
AcDbSpline
 62
7
  6
CONTINUOUS
 70
0
 71
3
 72
11
 73
7
 74
0
 42
0.0000001
 43
0.0000001
 44
0.0000000001
 40
0.0
 40
0.0
 40
0.0
 40
0.0
 40
0.2501158712
 40
0.5002072192
 40
0.7502172782
 40
1.0
 40
1.0
 40
1.0
 40
1.0
 10
127.5140625
 20
84.306969096
 30
0.0
 10
127.3715043265
 20
84.0046344582
 30
0.0
 10
127.0864639139
 20
83.3999798373
 30
0.0
 10
126.7001349417
 20
82.4738022931
 30
0.0
 10
126.4046657788
 20
81.5142816761
 30
0.0
 10
126.3140706042
 20
80.8460496578
 30
0.0
 10
126.3140625
 20
80.5122359038
 30
0.0
  0
SPLINE
  5
3D6
100
AcDbEntity
  8
RUNDUNGEN
100
AcDbSpline
 62
7
  6
CONTINUOUS
 70
0
 71
3
 72
11
 73
7
 74
0
 42
0.0000001
 43
0.0000001
 44
0.0000000001
 40
0.0
 40
0.0
 40
0.0
 40
0.0
 40
0.2501158712
 40
0.5002072192
 40
0.7502172782
 40
1.0
 40
1.0
 40
1.0
 40
1.0
 10
102.5140625
 20
84.306969096
 30
0.0
 10
102.3715043265
 20
84.0046344582
 30
0.0
 10
102.0864639139
 20
83.3999798373
 30
0.0
 10
101.7001349417
 20
82.4738022931
 30
0.0
 10
101.4046657788
 20
81.5142816761
 30
0.0
 10
101.3140706042
 20
80.8460496578
 30
0.0
 10
101.3140625
 20
80.5122359038
 30
0.0
  0
SPLINE
  5
3D7
100
AcDbEntity
  8
RUNDUNGEN
100
AcDbSpline
 62
7
  6
CONTINUOUS
 70
0
 71
3
 72
11
 73
7
 74
0
 42
0.0000001
 43
0.0000001
 44
0.0000000001
 40
0.0
 40
0.0
 40
0.0
 40
0.0
 40
0.2497856026
 40
0.4997957479
 40
0.7498853639
 40
1.0
 40
1.0
 40
1.0
 40
1.0
 10
82.5140625
 20
80.5122359038
 30
0.0
 10
82.5140511752
 20
80.8460535657
 30
0.0
 10
82.4234672454
 20
81.5142909307
 30
0.0
 10
82.1279838972
 20
82.473810113
 30
0.0
 10
81.7416606941
 20
83.399985484
 30
0.0
 10
81.4566170875
 20
84.0046345279
 30
0.0
 10
81.3140625
 20
84.306969096
 30
0.0
  0
LINE
  5
3D8
100
AcDbEntity
  8
RUNDUNGEN
100
AcDbLine
 62
7
  6
CONTINUOUS
 10
81.4536663072
 20
78.306969096
 11
81.3549515085
 21
78.6418860455
  0
LINE
  5
3D9
100
AcDbEntity
  8
RUNDUNGEN
100
AcDbLine
 62
7
  6
CONTINUOUS
 10
106.4536663072
 20
78.306969096
 11
106.3549515085
 21
78.6418860455
  0
SPLINE
  5
3DA
100
AcDbEntity
  8
RUNDUNGEN
100
AcDbSpline
 62
7
  6
CONTINUOUS
 70
0
 71
3
 72
11
 73
7
 74
0
 42
0.0000001
 43
0.0000001
 44
0.0000000001
 40
0.0
 40
0.0
 40
0.0
 40
0.0
 40
0.2497856026
 40
0.4997957479
 40
0.7498853639
 40
1.0
 40
1.0
 40
1.0
 40
1.0
 10
107.5140625
 20
80.5122359038
 30
0.0
 10
107.5140511753
 20
80.8460535658
 30
0.0
 10
107.4234672453
 20
81.5142909307
 30
0.0
 10
107.1279838971
 20
82.473810113
 30
0.0
 10
106.7416606941
 20
83.399985484
 30
0.0
 10
106.4566170875
 20
84.0046345279
 30
0.0
 10
106.3140625
 20
84.306969096
 30
0.0
  0
LINE
  5
3DB
100
AcDbEntity
  8
RUNDUNGEN
100
AcDbLine
 62
7
  6
CONTINUOUS
 10
126.5180084285
 20
90.306969096
 11
124.5525089446
 21
84.3067844162
  0
LINE
  5
3DC
100
AcDbEntity
  8
RUNDUNGEN
100
AcDbLine
 62
7
  6
CONTINUOUS
 10
127.4731734915
 20
78.6418860455
 11
127.3744586917
 21
78.3069690949
  0
LINE
  5
3DD
100
AcDbEntity
  8
RUNDUNGEN
100
AcDbLine
 62
7
  6
CONTINUOUS
 10
101.5180084285
 20
90.306969096
 11
99.5525089446
 21
84.3067844162
  0
LINE
  5
3DE
100
AcDbEntity
  8
RUNDUNGEN
100
AcDbLine
 62
7
  6
CONTINUOUS
 10
109.2756156927
 20
84.3067855376
 11
107.3101165715
 21
90.306969096
  0
LINE
  5
3DF
100
AcDbEntity
  8
RUNDUNGEN
100
AcDbLine
 62
7
  6
CONTINUOUS
 10
102.4731734915
 20
78.6418860455
 11
102.3744586917
 21
78.3069690949
  0
LINE
  5
3E0
100
AcDbEntity
  8
RUNDUNGEN
100
AcDbLine
 62
7
  6
CONTINUOUS
 10
84.2756156927
 20
84.3067855376
 11
82.3101165715
 21
90.306969096
  0
SPLINE
  5
3E1
100
AcDbEntity
  8
RUNDUNGEN
100
AcDbSpline
 62
7
  6
CONTINUOUS
 70
0
 71
3
 72
11
 73
7
 74
0
 42
0.0000001
 43
0.0000001
 44
0.0000000001
 40
0.0
 40
0.0
 40
0.0
 40
0.0
 40
0.2300085234
 40
0.4695156169
 40
0.7260601939
 40
1.0
 40
1.0
 40
1.0
 40
1.0
 10
116.9140625
 20
53.306969096
 30
0.0
 10
116.5733390671
 20
53.3070120807
 30
0.0
 10
115.8749803261
 20
53.3945677576
 30
0.0
 10
114.8628152801
 20
53.7856741772
 30
0.0
 10
113.910506985
 20
54.4289488333
 30
0.0
 10
113.3566480875
 20
54.9940095252
 30
0.0
 10
113.0983137747
 20
55.306959866
 30
0.0
  0
SPLINE
  5
3E2
100
AcDbEntity
  8
RUNDUNGEN
100
AcDbSpline
 62
7
  6
CONTINUOUS
 70
0
 71
3
 72
11
 73
7
 74
0
 42
0.0000001
 43
0.0000001
 44
0.0000000001
 40
0.0
 40
0.0
 40
0.0
 40
0.0
 40
0.2300085234
 40
0.4695156169
 40
0.7260601939
 40
1.0
 40
1.0
 40
1.0
 40
1.0
 10
91.9140625
 20
53.306969096
 30
0.0
 10
91.5733390671
 20
53.3070120807
 30
0.0
 10
90.8749803261
 20
53.3945677576
 30
0.0
 10
89.8628152801
 20
53.7856741772
 30
0.0
 10
88.910506985
 20
54.4289488333
 30
0.0
 10
88.3566480875
 20
54.9940095252
 30
0.0
 10
88.0983137747
 20
55.306959866
 30
0.0
  0
SPLINE
  5
3E3
100
AcDbEntity
  8
RUNDUNGEN
100
AcDbSpline
 62
7
  6
CONTINUOUS
 70
0
 71
3
 72
11
 73
7
 74
0
 42
0.0000001
 43
0.0000001
 44
0.0000000001
 40
0.0
 40
0.0
 40
0.0
 40
0.0
 40
0.2739385745
 40
0.5304830092
 40
0.7699904337
 40
1.0
 40
1.0
 40
1.0
 40
1.0
 10
95.7298121654
 20
55.306960938
 30
0.0
 10
95.4714788876
 20
54.9940119372
 30
0.0
 10
94.9176217985
 20
54.4289520366
 30
0.0
 10
93.9653151342
 20
53.7856772326
 30
0.0
 10
92.9531486744
 20
53.3945679811
 30
0.0
 10
92.2547875887
 20
53.3070126776
 30
0.0
 10
91.9140625
 20
53.306969096
 30
0.0
  0
SPLINE
  5
3E4
100
AcDbEntity
  8
RUNDUNGEN
100
AcDbSpline
 62
7
  6
CONTINUOUS
 70
0
 71
3
 72
11
 73
7
 74
0
 42
0.0000001
 43
0.0000001
 44
0.0000000001
 40
0.0
 40
0.0
 40
0.0
 40
0.0
 40
0.2739385745
 40
0.5304830092
 40
0.7699904337
 40
1.0
 40
1.0
 40
1.0
 40
1.0
 10
120.7298121653
 20
55.306960938
 30
0.0
 10
120.4714788875
 20
54.9940119372
 30
0.0
 10
119.9176217985
 20
54.4289520366
 30
0.0
 10
118.9653151342
 20
53.7856772326
 30
0.0
 10
117.9531486744
 20
53.3945679811
 30
0.0
 10
117.2547875887
 20
53.3070126776
 30
0.0
 10
116.9140625
 20
53.306969096
 30
0.0
  0
ELLIPSE
  5
3E5
100
AcDbEntity
  8
0
100
AcDbEllipse
 62
7
  6
CONTINUOUS
 10
84.9137537093
 20
155.8406234906
 30
0.0
 11
0.0
 21
2.695
 31
0.0
 40
0.2679491924
 41
0.0
 42
3.1415926536
  0
ELLIPSE
  5
3E6
100
AcDbEntity
  8
0
100
AcDbEllipse
 62
7
  6
CONTINUOUS
 10
109.9137537093
 20
155.8406234906
 30
0.0
 11
0.0
 21
2.695
 31
0.0
 40
0.2679491924
 41
-0.0
 42
3.1415926536
  0
ELLIPSE
  5
3E7
100
AcDbEntity
  8
0
100
AcDbEllipse
 62
7
  6
CONTINUOUS
 10
123.9143712907
 20
155.8406234906
 30
0.0
 11
0.0
 21
2.695
 31
0.0
 40
0.2679491924
 41
-3.1415926536
 42
-0.0
  0
ELLIPSE
  5
3E8
100
AcDbEntity
  8
0
100
AcDbEllipse
 62
7
  6
CONTINUOUS
 10
98.9143712907
 20
155.8406234906
 30
0.0
 11
0.0
 21
2.695
 31
0.0
 40
0.2679491924
 41
-3.1415926536
 42
-0.0
  0
ENDSEC
  0
SECTION
  2
OBJECTS
  0
DICTIONARY
  5
C
100
AcDbDictionary
280
0
281
1
  3
ACAD_GROUP
350
D
  3
ACAD_MLINESTYLE
350
17
  3
ACAD_LAYOUT
350
1A
  3
ACAD_PLOTSETTINGS
350
19
  3
ACAD_PLOTSTYLENAME
350
E
  0
DICTIONARY
  5
D
102
{ACAD_REACTORS
330
C
102
}
100
AcDbDictionary
280
0
281
1
  0
ACDBDICTIONARYWDFLT
  5
E
102
{ACAD_REACTORS
330
C
102
}
100
AcDbDictionary
281
1
  3
Normal
350
F
100
AcDbDictionaryWithDefault
340
F
  0
DICTIONARY
  5
17
102
{ACAD_REACTORS
330
C
102
}
100
AcDbDictionary
280
0
281
1
  3
Standard
350
18
  0
DICTIONARY
  5
19
102
{ACAD_REACTORS
330
C
102
}
100
AcDbDictionary
281
1
  0
DICTIONARY
  5
1A
102
{ACAD_REACTORS
330
C
102
}
100
AcDbDictionary
281
1
  3
Model
350
3E9
  3
Layout1
350
3EA
  0
ACDBPLACEHOLDER
  5
F
102
{ACAD_REACTORS
330
E
102
}
  0
MLINESTYLE
  5
18
102
{ACAD_REACTORS
330
17
102
}
100
AcDbMlineStyle
  2
STANDARD
 70
0
  3

 62
256
 51
90.0
 52
90.0
 71
2
 49
0.5
 62
256
  6
BYLAYER
 49
-0.5
 62
256
  6
BYLAYER
  0
LAYOUT
  5
3E9
102
{ACAD_REACTORS
330
1A
102
}
100
AcDbPlotSettings
  1

  2
none_device
  4
ISO_A4_(297.00_x_210.00_MM)
  6

 40
0.0
 41
0.0
 42
0.0
 43
0.0
 44
297.0
 45
210.0
 46
0.0
 47
0.0
 48
0.0
 49
0.0
140
0.0
141
0.0
142
1.0
143
1.0
 70
1024
 72
1
 73
0
 74
0
  7

 75
0
147
1.0
148
0.0
149
0.0
100
AcDbLayout
  1
Model
 70
0
 71
0
 10
0.0
 20
0.0
 11
297.0
 21
210.0
 12
0.0
 22
0.0
 32
0.0
 14
0.0
 24
0.0
 34
0.0
 15
0.0
 25
0.0
 35
0.0
146
0.0
 13
0.0
 23
0.0
 33
0.0
 16
1.0
 26
0.0
 36
0.0
 17
0.0
 27
1.0
 37
0.0
 76
0
330
20F
345
0
346
0
  0
LAYOUT
  5
3EA
102
{ACAD_REACTORS
330
1A
102
}
100
AcDbPlotSettings
  1

  2
none_device
  4
ISO_A4_(297.00_x_210.00_MM)
  6

 40
0.0
 41
0.0
 42
0.0
 43
0.0
 44
297.0
 45
210.0
 46
0.0
 47
0.0
 48
0.0
 49
0.0
140
0.0
141
0.0
142
1.0
143
1.0
 70
0
 72
1
 73
0
 74
0
  7

 75
0
147
1.0
148
0.0
149
0.0
100
AcDbLayout
  1
Layout1
 70
0
 71
1
 10
0.0
 20
0.0
 11
297.0
 21
210.0
 12
0.0
 22
0.0
 32
0.0
 14
0.0
 24
0.0
 34
0.0
 15
0.0
 25
0.0
 35
0.0
146
0.0
 13
0.0
 23
0.0
 33
0.0
 16
1.0
 26
0.0
 36
0.0
 17
0.0
 27
1.0
 37
0.0
 76
0
330
210
345
0
346
0
  0
ENDSEC
  0
EOF
