999
DXF file: S:\Prolink\03_Konstruktion\CAD-Plots\Internet\2D_neu\S5\s5-45_grt_w25.dxf
999
Pro/ENGINEER 2012230 by Parametric Technology Corporation
  0
SECTION
  2
HEADER
  9
$ACADVER
  1
AC1021
  9
$DWGCODEPAGE
  3
ANSI_1252
  9
$EXTMAX
 10
297.0
 20
210.0
 30
0.0
  9
$EXTMIN
 10
0.0
 20
0.0
 30
0.0
  9
$LIMMIN
 10
0.0
 20
0.0
  9
$LIMMAX
 10
297.0
 20
210.0
  9
$VIEWCTR
 10
148.5
 20
105.0
  9
$VIEWSIZE
 40
210.0
  9
$CLAYER
  8
0
  9
$LTSCALE
 40
16.335
  9
$CELTYPE
  6
BYLAYER
  9
$DIMSCALE
 40
1.0
  9
$DIMASZ
 40
3.5
  9
$DIMEXO
 40
0.0
  9
$DIMDLI
 40
11.286
  9
$DIMEXE
 40
1.5
  9
$DIMCEN
 40
2.673
  9
$DIMLFAC
 40
1.0
  9
$DIMBLK
  1
_FILLED
  9
$DIMTXT
 40
3.5
  9
$DIMTOL
 70
1
  9
$DIMLIM
 70
0
  9
$DIMTFAC
 40
1.0
  9
$DIMTP
 40
0.005
  9
$DIMTM
 40
0.005
  9
$DIMGAP
 40
0.625
  9
$DIMDSEP
 70
46
  9
$PDMODE
 70
3
  9
$PDSIZE
 40
0.3125
  9
$HANDSEED
  5
31C
  9
$TILEMODE
 70
1
  9
$MEASUREMENT
 70
1
  9
$INSUNITS
 70
4
  0
ENDSEC
  0
SECTION
  2
CLASSES
  0
CLASS
  1
ACDBDICTIONARYWDFLT
  2
AcDbDictionaryWithDefault
  3
AutoCAD 2000
 90
0
 91
1
280
0
281
0
  0
CLASS
  1
ACDBPLACEHOLDER
  2
AcDbPlaceHolder
  3
AutoCAD 2000
 90
0
 91
1
280
0
281
0
  0
CLASS
  1
LAYOUT
  2
AcDbLayout
  3
AutoCAD 2000
 90
0
 91
0
280
0
281
0
  0
ENDSEC
  0
SECTION
  2
TABLES
  0
TABLE
  2
VPORT
  5
8
100
AcDbSymbolTable
 70
2
  0
VPORT
  5
1F4
100
AcDbSymbolTableRecord
100
AcDbViewportTableRecord
  2
*ACTIVE
 70
0
 10
0.0
 20
0.0
 11
1.0
 21
1.0
 12
148.5
 22
105.0
 13
0.0
 23
0.0
 14
1.0
 24
1.0
 15
0.0
 25
0.0
 16
0.0
 26
0.0
 36
1.0
 17
0.0
 27
0.0
 37
0.0
 40
210.0
 41
1.4142857143
 42
50.0
 43
0.0
 44
0.0
 50
0.0
 51
0.0
 71
0
 72
100
 73
1
 74
1
 75
0
 76
0
 77
0
 78
0
  0
ENDTAB
  0
TABLE
  2
LTYPE
  5
5
100
AcDbSymbolTable
 70
6
  0
LTYPE
  5
14
100
AcDbSymbolTableRecord
100
AcDbLinetypeTableRecord
  2
BYBLOCK
 70
0
  3

 72
65
 73
0
 40
0.0
  0
LTYPE
  5
15
100
AcDbSymbolTableRecord
100
AcDbLinetypeTableRecord
  2
BYLAYER
 70
0
  3

 72
65
 73
0
 40
0.0
  0
LTYPE
  5
16
100
AcDbSymbolTableRecord
100
AcDbLinetypeTableRecord
  2
CONTINUOUS
 70
64
  3
Solid line
 72
65
 73
0
 40
0.0
  0
LTYPE
  5
1F5
100
AcDbSymbolTableRecord
100
AcDbLinetypeTableRecord
  2
CENTER
 70
64
  3
____ _ ____ _ ____ _ ____ _ ____ _ ____ _ ____
 72
65
 73
4
 40
0.6
 49
0.375
 74
0
 49
-0.075
 74
0
 49
0.075
 74
0
 49
-0.075
 74
0
  0
LTYPE
  5
1F6
100
AcDbSymbolTableRecord
100
AcDbLinetypeTableRecord
  2
HIDDEN
 70
64
  3
- - - - - - - - - - - - - - - - - - - -
 72
65
 73
2
 40
0.2
 49
0.1
 74
0
 49
-0.1
 74
0
  0
LTYPE
  5
1F7
100
AcDbSymbolTableRecord
100
AcDbLinetypeTableRecord
  2
PHANTOM
 70
64
  3
_____ _ _ _____ _ _ _____ _ _ _____
 72
65
 73
6
 40
0.8
 49
0.45
 74
0
 49
-0.05
 74
0
 49
0.1
 74
0
 49
-0.05
 74
0
 49
0.1
 74
0
 49
-0.05
 74
0
  0
LTYPE
  5
1F8
100
AcDbSymbolTableRecord
100
AcDbLinetypeTableRecord
  2
DOT
 70
64
  3
. . . . . . . . . . . . . . . . . . . .
 72
65
 73
2
 40
0.2
 49
0.1
 74
0
 49
-0.1
 74
0
  0
LTYPE
  5
1F9
100
AcDbSymbolTableRecord
100
AcDbLinetypeTableRecord
  2
DASHED
 70
64
  3
- - - - - - - - - - - - - - - - - - - -
 72
65
 73
2
 40
0.2
 49
0.1
 74
0
 49
-0.1
 74
0
  0
ENDTAB
  0
TABLE
  2
LAYER
  5
2
100
AcDbSymbolTable
 70
36
  0
LAYER
  5
10
100
AcDbSymbolTableRecord
100
AcDbLayerTableRecord
  2
0
 70
0
 62
7
  6
CONTINUOUS
370
-3
390
F
  0
LAYER
  5
1FA
100
AcDbSymbolTableRecord
100
AcDbLayerTableRecord
  2
DEFAULT_1
 70
0
 62
7
  6
CENTER
370
-3
390
F
  0
LAYER
  5
1FB
100
AcDbSymbolTableRecord
100
AcDbLayerTableRecord
  2
DEFAULT_2
 70
0
 62
8
  6
HIDDEN
370
-3
390
F
  0
LAYER
  5
1FC
100
AcDbSymbolTableRecord
100
AcDbLayerTableRecord
  2
DEFAULT_3
 70
0
 62
7
  6
PHANTOM
370
-3
390
F
  0
LAYER
  5
1FD
100
AcDbSymbolTableRecord
100
AcDbLayerTableRecord
  2
01___PRT_ALL_DTM_PLN
 70
0
 62
7
  6
CONTINUOUS
370
-3
390
F
  0
LAYER
  5
1FE
100
AcDbSymbolTableRecord
100
AcDbLayerTableRecord
  2
01___PRT_DEF_DTM_PLN
 70
0
 62
7
  6
CONTINUOUS
370
-3
390
F
  0
LAYER
  5
1FF
100
AcDbSymbolTableRecord
100
AcDbLayerTableRecord
  2
02___PRT_ALL_AXES
 70
0
 62
7
  6
CONTINUOUS
370
-3
390
F
  0
LAYER
  5
200
100
AcDbSymbolTableRecord
100
AcDbLayerTableRecord
  2
03___PRT_ALL_CURVES
 70
0
 62
7
  6
CONTINUOUS
370
-3
390
F
  0
LAYER
  5
201
100
AcDbSymbolTableRecord
100
AcDbLayerTableRecord
  2
04___PRT_ALL_DTM_PNT
 70
0
 62
7
  6
CONTINUOUS
370
-3
390
F
  0
LAYER
  5
202
100
AcDbSymbolTableRecord
100
AcDbLayerTableRecord
  2
05___PRT_ALL_DTM_CSYS
 70
0
 62
7
  6
CONTINUOUS
370
-3
390
F
  0
LAYER
  5
203
100
AcDbSymbolTableRecord
100
AcDbLayerTableRecord
  2
05___PRT_DEF_DTM_CSYS
 70
0
 62
7
  6
CONTINUOUS
370
-3
390
F
  0
LAYER
  5
204
100
AcDbSymbolTableRecord
100
AcDbLayerTableRecord
  2
06___PRT_ALL_SURFS
 70
0
 62
7
  6
CONTINUOUS
370
-3
390
F
  0
LAYER
  5
205
100
AcDbSymbolTableRecord
100
AcDbLayerTableRecord
  2
AUSFORMSCHRAEGEN
 70
0
 62
7
  6
CONTINUOUS
370
-3
390
F
  0
LAYER
  5
206
100
AcDbSymbolTableRecord
100
AcDbLayerTableRecord
  2
BEZUGSACHSEN
 70
0
 62
7
  6
CONTINUOUS
370
-3
390
F
  0
LAYER
  5
207
100
AcDbSymbolTableRecord
100
AcDbLayerTableRecord
  2
BEZUGSEBENE
 70
0
 62
7
  6
CONTINUOUS
370
-3
390
F
  0
LAYER
  5
208
100
AcDbSymbolTableRecord
100
AcDbLayerTableRecord
  2
BEZUGSEBENEN
 70
0
 62
7
  6
CONTINUOUS
370
-3
390
F
  0
LAYER
  5
209
100
AcDbSymbolTableRecord
100
AcDbLayerTableRecord
  2
BEZUGSEBENEN-KES
 70
0
 62
7
  6
CONTINUOUS
370
-3
390
F
  0
LAYER
  5
20A
100
AcDbSymbolTableRecord
100
AcDbLayerTableRecord
  2
RUNDUNGEN
 70
0
 62
7
  6
CONTINUOUS
370
-3
390
F
  0
LAYER
  5
20B
100
AcDbSymbolTableRecord
100
AcDbLayerTableRecord
  2
ZEICHNUNGSBEMASSUNGEN
 70
0
 62
7
  6
CONTINUOUS
370
-3
390
F
  0
LAYER
  5
20C
100
AcDbSymbolTableRecord
100
AcDbLayerTableRecord
  2
ZEICHNUNGSNOTIZEN
 70
0
 62
7
  6
CONTINUOUS
370
-3
390
F
  0
ENDTAB
  0
TABLE
  2
STYLE
  5
3
100
AcDbSymbolTable
 70
1
  0
STYLE
  5
11
100
AcDbSymbolTableRecord
100
AcDbTextStyleTableRecord
  2
STANDARD
 70
0
 40
0.0
 41
0.7
 50
0.0
 71
0
 42
0.2
  3
txt
  4

  0
STYLE
  5
20D
100
AcDbSymbolTableRecord
100
AcDbTextStyleTableRecord
  2
TEXTSTYLE_1
 70
0
 40
0.0
 41
0.8
 50
0.0
 71
0
 42
0.2
  3
gdt
  4

  0
ENDTAB
  0
TABLE
  2
VIEW
  5
6
100
AcDbSymbolTable
 70
0
  0
ENDTAB
  0
TABLE
  2
UCS
  5
7
100
AcDbSymbolTable
 70
0
  0
ENDTAB
  0
TABLE
  2
APPID
  5
9
100
AcDbSymbolTable
 70
1
  0
APPID
  5
20E
100
AcDbSymbolTableRecord
100
AcDbRegAppTableRecord
  2
ACAD
 70
0
  0
ENDTAB
  0
TABLE
  2
BLOCK_RECORD
  5
1
100
AcDbSymbolTable
 70
0
  0
BLOCK_RECORD
  5
20F
100
AcDbSymbolTableRecord
100
AcDbBlockTableRecord
  2
*Model_Space
  0
BLOCK_RECORD
  5
210
100
AcDbSymbolTableRecord
100
AcDbBlockTableRecord
  2
*Paper_Space
  0
ENDTAB
  0
TABLE
  2
DIMSTYLE
  5
A
100
AcDbSymbolTable
 70
1
100
AcDbDimStyleTable
 71
0
  0
DIMSTYLE
105
211
100
AcDbSymbolTableRecord
100
AcDbDimStyleTableRecord
  2
STANDARD
 70
0
  3

  4

 40
1.0
 41
3.5
 42
0.0
 43
0.38
 44
1.5
 45
0.0
 46
0.0
 47
0.005
 48
0.005
140
3.5
141
0.09
142
0.0
143
25.4
144
1.0
145
0.0
146
1.0
147
0.625
 71
1.0
 72
0.0
 73
0
 74
0
 75
0
 76
0
 77
1
 78
8
170
0
171
2
172
0
173
0
174
0
175
0
176
0
177
0
178
5
270
2
271
3
272
3
273
2
274
2
275
0
280
0
281
0
282
0
283
1
284
8
285
0
286
0
287
3
288
0
340
11
278
46
  0
ENDTAB
  0
ENDSEC
  0
SECTION
  2
BLOCKS
  0
BLOCK
  5
20
100
AcDbEntity
  8
0
100
AcDbBlockBegin
  2
*Model_Space
 70
0
 10
0.0
 20
0.0
 30
0.0
  3
*Model_Space
  1

  0
ENDBLK
  5
21
100
AcDbEntity
  8
0
100
AcDbBlockEnd
  0
BLOCK
  5
1C
100
AcDbEntity
  8
0
100
AcDbBlockBegin
  2
*Paper_Space
 70
0
 10
0.0
 20
0.0
 30
0.0
  3
*Paper_Space
  1

  0
ENDBLK
  5
1D
100
AcDbEntity
  8
0
100
AcDbBlockEnd
  0
ENDSEC
  0
SECTION
  2
ENTITIES
  0
LINE
  5
212
100
AcDbEntity
  8
0
100
AcDbLine
 62
7
  6
CONTINUOUS
 10
0.0
 20
0.0
 11
0.0
 21
210.0
  0
LINE
  5
213
100
AcDbEntity
  8
0
100
AcDbLine
 62
7
  6
CONTINUOUS
 10
0.0
 20
0.0
 11
297.0
 21
0.0
  0
LINE
  5
214
100
AcDbEntity
  8
0
100
AcDbLine
 62
7
  6
CONTINUOUS
 10
0.0
 20
210.0
 11
297.0
 21
210.0
  0
LINE
  5
215
100
AcDbEntity
  8
0
100
AcDbLine
 62
7
  6
CONTINUOUS
 10
297.0
 20
0.0
 11
297.0
 21
210.0
  0
LINE
  5
216
100
AcDbEntity
  8
0
100
AcDbLine
 62
7
  6
CONTINUOUS
 10
91.9140625
 20
149.8407871725
 11
91.9140625
 21
161.8404600878
  0
LINE
  5
217
100
AcDbEntity
  8
RUNDUNGEN
100
AcDbLine
 62
7
  6
CONTINUOUS
 10
93.8140625
 20
149.8406236301
 11
93.8140625
 21
153.1899324173
  0
LINE
  5
218
100
AcDbEntity
  8
RUNDUNGEN
100
AcDbLine
 62
7
  6
CONTINUOUS
 10
93.8140625
 20
158.4913148429
 11
93.8140625
 21
161.8406236301
  0
LINE
  5
219
100
AcDbEntity
  8
RUNDUNGEN
100
AcDbLine
 62
7
  6
CONTINUOUS
 10
94.4140625
 20
150.4406236301
 11
94.4140625
 21
152.9248632961
  0
LINE
  5
21A
100
AcDbEntity
  8
RUNDUNGEN
100
AcDbLine
 62
7
  6
CONTINUOUS
 10
94.4140625
 20
158.7563839642
 11
94.4140625
 21
161.2406236301
  0
LINE
  5
21B
100
AcDbEntity
  8
RUNDUNGEN
100
AcDbLine
 62
7
  6
CONTINUOUS
 10
94.4345070042
 20
161.2406236301
 11
94.4345070042
 21
158.0148520398
  0
LINE
  5
21C
100
AcDbEntity
  8
RUNDUNGEN
100
AcDbLine
 62
7
  6
CONTINUOUS
 10
94.4345070042
 20
153.6663952205
 11
94.4345070042
 21
150.4406236301
  0
LINE
  5
21D
100
AcDbEntity
  8
RUNDUNGEN
100
AcDbLine
 62
7
  6
CONTINUOUS
 10
97.8936179958
 20
161.2406236301
 11
97.8936179958
 21
158.5356236301
  0
LINE
  5
21E
100
AcDbEntity
  8
RUNDUNGEN
100
AcDbLine
 62
7
  6
CONTINUOUS
 10
97.8936179958
 20
153.1456236301
 11
97.8936179958
 21
150.4406236301
  0
LINE
  5
21F
100
AcDbEntity
  8
0
100
AcDbLine
 62
7
  6
CONTINUOUS
 10
97.9140625
 20
150.4406236301
 11
97.9140625
 21
153.1456236301
  0
LINE
  5
220
100
AcDbEntity
  8
RUNDUNGEN
100
AcDbLine
 62
7
  6
CONTINUOUS
 10
97.9140625
 20
150.4406236301
 11
97.9140625
 21
153.1456236301
  0
LINE
  5
221
100
AcDbEntity
  8
0
100
AcDbLine
 62
7
  6
CONTINUOUS
 10
97.9140625
 20
158.5356236301
 11
97.9140625
 21
161.2406236301
  0
LINE
  5
222
100
AcDbEntity
  8
RUNDUNGEN
100
AcDbLine
 62
7
  6
CONTINUOUS
 10
97.9140625
 20
158.5356236301
 11
97.9140625
 21
161.2406236301
  0
LINE
  5
223
100
AcDbEntity
  8
0
100
AcDbLine
 62
7
  6
CONTINUOUS
 10
116.9140625
 20
149.8406236301
 11
115.0140625
 21
149.8406236301
  0
LINE
  5
224
100
AcDbEntity
  8
0
100
AcDbLine
 62
7
  6
CONTINUOUS
 10
108.2298193057
 20
149.8406236301
 11
100.5983056943
 21
149.8406236301
  0
LINE
  5
225
100
AcDbEntity
  8
0
100
AcDbLine
 62
7
  6
CONTINUOUS
 10
93.8140625
 20
149.8406236301
 11
91.9140625
 21
149.8406236301
  0
LINE
  5
226
100
AcDbEntity
  8
RUNDUNGEN
100
AcDbLine
 62
7
  6
CONTINUOUS
 10
93.8140625
 20
149.8406236301
 11
115.0140625
 21
149.8406236301
  0
LINE
  5
227
100
AcDbEntity
  8
RUNDUNGEN
100
AcDbLine
 62
7
  6
CONTINUOUS
 10
94.4140625
 20
150.4406236301
 11
100.2102626293
 21
150.4406236301
  0
LINE
  5
228
100
AcDbEntity
  8
RUNDUNGEN
100
AcDbLine
 62
7
  6
CONTINUOUS
 10
108.6178623707
 20
150.4406236301
 11
114.4140625
 21
150.4406236301
  0
LINE
  5
229
100
AcDbEntity
  8
0
100
AcDbLine
 62
7
  6
CONTINUOUS
 10
97.9140625
 20
153.1456236301
 11
97.9513250769
 21
153.1456236301
  0
LINE
  5
22A
100
AcDbEntity
  8
RUNDUNGEN
100
AcDbLine
 62
7
  6
CONTINUOUS
 10
97.4137537093
 20
153.1456236301
 11
97.9140625
 21
153.1456236301
  0
LINE
  5
22B
100
AcDbEntity
  8
0
100
AcDbLine
 62
7
  6
CONTINUOUS
 10
110.8767999231
 20
153.1456236301
 11
110.9140625
 21
153.1456236301
  0
LINE
  5
22C
100
AcDbEntity
  8
RUNDUNGEN
100
AcDbLine
 62
7
  6
CONTINUOUS
 10
110.9231778482
 20
153.1456236301
 11
111.4143712907
 21
153.1456236301
  0
LINE
  5
22D
100
AcDbEntity
  8
RUNDUNGEN
100
AcDbLine
 62
7
  6
CONTINUOUS
 10
97.9049471518
 20
158.5356236301
 11
97.4137537093
 21
158.5356236301
  0
LINE
  5
22E
100
AcDbEntity
  8
0
100
AcDbLine
 62
7
  6
CONTINUOUS
 10
97.9140625
 20
158.5356236301
 11
97.9513250769
 21
158.5356236301
  0
LINE
  5
22F
100
AcDbEntity
  8
0
100
AcDbLine
 62
7
  6
CONTINUOUS
 10
110.8767999231
 20
158.5356236301
 11
110.9140625
 21
158.5356236301
  0
LINE
  5
230
100
AcDbEntity
  8
RUNDUNGEN
100
AcDbLine
 62
7
  6
CONTINUOUS
 10
110.9140625
 20
158.5356236301
 11
111.4143712907
 21
158.5356236301
  0
LINE
  5
231
100
AcDbEntity
  8
RUNDUNGEN
100
AcDbLine
 62
7
  6
CONTINUOUS
 10
114.4140625
 20
161.2406236301
 11
108.6178623707
 21
161.2406236301
  0
LINE
  5
232
100
AcDbEntity
  8
RUNDUNGEN
100
AcDbLine
 62
7
  6
CONTINUOUS
 10
100.2102626293
 20
161.2406236301
 11
94.4140625
 21
161.2406236301
  0
LINE
  5
233
100
AcDbEntity
  8
RUNDUNGEN
100
AcDbLine
 62
7
  6
CONTINUOUS
 10
110.9140625
 20
150.4406236301
 11
110.9140625
 21
153.1456236301
  0
LINE
  5
234
100
AcDbEntity
  8
RUNDUNGEN
100
AcDbLine
 62
7
  6
CONTINUOUS
 10
110.9140625
 20
158.5356236301
 11
110.9140625
 21
161.2406236301
  0
LINE
  5
235
100
AcDbEntity
  8
RUNDUNGEN
100
AcDbLine
 62
7
  6
CONTINUOUS
 10
110.9345070042
 20
150.4406236301
 11
110.9345070042
 21
153.1456236301
  0
LINE
  5
236
100
AcDbEntity
  8
RUNDUNGEN
100
AcDbLine
 62
7
  6
CONTINUOUS
 10
110.9345070042
 20
158.5356236301
 11
110.9345070042
 21
161.2406236301
  0
LINE
  5
237
100
AcDbEntity
  8
0
100
AcDbLine
 62
7
  6
CONTINUOUS
 10
116.9140625
 20
161.8406236301
 11
115.0140625
 21
161.8406236301
  0
LINE
  5
238
100
AcDbEntity
  8
0
100
AcDbLine
 62
7
  6
CONTINUOUS
 10
93.8140625
 20
161.8406236301
 11
91.9140625
 21
161.8406236301
  0
LINE
  5
239
100
AcDbEntity
  8
RUNDUNGEN
100
AcDbLine
 62
7
  6
CONTINUOUS
 10
93.8140625
 20
161.8406236301
 11
115.0140625
 21
161.8406236301
  0
LINE
  5
23A
100
AcDbEntity
  8
RUNDUNGEN
100
AcDbLine
 62
7
  6
CONTINUOUS
 10
114.3936179958
 20
150.4406236301
 11
114.3936179958
 21
153.6663952205
  0
LINE
  5
23B
100
AcDbEntity
  8
RUNDUNGEN
100
AcDbLine
 62
7
  6
CONTINUOUS
 10
114.3936179958
 20
158.0148520398
 11
114.3936179958
 21
161.2406236301
  0
LINE
  5
23C
100
AcDbEntity
  8
RUNDUNGEN
100
AcDbLine
 62
7
  6
CONTINUOUS
 10
114.4140625
 20
161.2406236301
 11
114.4140625
 21
158.7563839642
  0
LINE
  5
23D
100
AcDbEntity
  8
RUNDUNGEN
100
AcDbLine
 62
7
  6
CONTINUOUS
 10
114.4140625
 20
152.9248632961
 11
114.4140625
 21
150.4406236301
  0
LINE
  5
23E
100
AcDbEntity
  8
RUNDUNGEN
100
AcDbLine
 62
7
  6
CONTINUOUS
 10
115.0140625
 20
161.8406236301
 11
115.0140625
 21
158.4913148429
  0
LINE
  5
23F
100
AcDbEntity
  8
RUNDUNGEN
100
AcDbLine
 62
7
  6
CONTINUOUS
 10
115.0140625
 20
153.1899324173
 11
115.0140625
 21
149.8406236301
  0
LINE
  5
240
100
AcDbEntity
  8
0
100
AcDbLine
 62
7
  6
CONTINUOUS
 10
116.9140625
 20
149.8407285018
 11
116.9140625
 21
161.8405187585
  0
LINE
  5
241
100
AcDbEntity
  8
RUNDUNGEN
100
AcDbLine
 62
7
  6
CONTINUOUS
 10
208.9395644642
 20
150.4406236301
 11
208.9395644642
 21
149.8406236301
  0
LINE
  5
242
100
AcDbEntity
  8
RUNDUNGEN
100
AcDbLine
 62
7
  6
CONTINUOUS
 10
208.9395644642
 20
161.2406236301
 11
208.9395644906
 21
161.8406236301
  0
LINE
  5
243
100
AcDbEntity
  8
RUNDUNGEN
100
AcDbLine
 62
7
  6
CONTINUOUS
 10
211.0658397734
 20
149.8406236301
 11
211.0658397734
 21
152.9248632961
  0
LINE
  5
244
100
AcDbEntity
  8
RUNDUNGEN
100
AcDbLine
 62
7
  6
CONTINUOUS
 10
211.0658397734
 20
158.7563839642
 11
211.0658397734
 21
161.8406236301
  0
LINE
  5
245
100
AcDbEntity
  8
RUNDUNGEN
100
AcDbLine
 62
7
  6
CONTINUOUS
 10
211.2211312005
 20
161.2406236301
 11
211.2211312005
 21
158.0148520398
  0
LINE
  5
246
100
AcDbEntity
  8
RUNDUNGEN
100
AcDbLine
 62
7
  6
CONTINUOUS
 10
211.2211312005
 20
153.6663952205
 11
211.2211312005
 21
150.4406236301
  0
LINE
  5
247
100
AcDbEntity
  8
RUNDUNGEN
100
AcDbLine
 62
7
  6
CONTINUOUS
 10
211.0658397734
 20
158.7563839642
 11
210.5275662733
 21
158.4913148429
  0
LINE
  5
248
100
AcDbEntity
  8
RUNDUNGEN
100
AcDbLine
 62
7
  6
CONTINUOUS
 10
205.144831272
 20
149.8406236301
 11
234.144831272
 21
149.8406236301
  0
LINE
  5
249
100
AcDbEntity
  8
RUNDUNGEN
100
AcDbLine
 62
7
  6
CONTINUOUS
 10
208.9394069564
 20
150.4406236301
 11
234.6024583906
 21
150.4406236301
  0
LINE
  5
24A
100
AcDbEntity
  8
RUNDUNGEN
100
AcDbLine
 62
7
  6
CONTINUOUS
 10
211.0658397734
 20
152.9248632961
 11
210.5275662733
 21
153.1899324174
  0
LINE
  5
24B
100
AcDbEntity
  8
RUNDUNGEN
100
AcDbLine
 62
7
  6
CONTINUOUS
 10
222.339831272
 20
153.1456236301
 11
229.644831272
 21
153.1456236301
  0
LINE
  5
24C
100
AcDbEntity
  8
0
100
AcDbLine
 62
7
  6
CONTINUOUS
 10
229.644831272
 20
153.1456236301
 11
230.339831272
 21
153.1456236301
  0
LINE
  5
24D
100
AcDbEntity
  8
RUNDUNGEN
100
AcDbLine
 62
7
  6
CONTINUOUS
 10
229.644831272
 20
158.5356236301
 11
222.339831272
 21
158.5356236301
  0
LINE
  5
24E
100
AcDbEntity
  8
0
100
AcDbLine
 62
7
  6
CONTINUOUS
 10
229.644831272
 20
158.5356236301
 11
230.339831272
 21
158.5356236301
  0
LINE
  5
24F
100
AcDbEntity
  8
RUNDUNGEN
100
AcDbLine
 62
7
  6
CONTINUOUS
 10
224.13070917
 20
161.2406236301
 11
224.13070917
 21
158.5356236301
  0
LINE
  5
250
100
AcDbEntity
  8
RUNDUNGEN
100
AcDbLine
 62
7
  6
CONTINUOUS
 10
224.13070917
 20
153.1456236301
 11
224.13070917
 21
150.4406236301
  0
LINE
  5
251
100
AcDbEntity
  8
RUNDUNGEN
100
AcDbLine
 62
7
  6
CONTINUOUS
 10
224.286000597
 20
153.1456236301
 11
224.286000597
 21
149.8406236301
  0
LINE
  5
252
100
AcDbEntity
  8
RUNDUNGEN
100
AcDbLine
 62
7
  6
CONTINUOUS
 10
224.286000597
 20
158.5356236301
 11
224.286000597
 21
161.8406236301
  0
LINE
  5
253
100
AcDbEntity
  8
RUNDUNGEN
100
AcDbLine
 62
7
  6
CONTINUOUS
 10
234.6024583906
 20
161.2406236301
 11
208.9394007316
 21
161.2406236301
  0
LINE
  5
254
100
AcDbEntity
  8
RUNDUNGEN
100
AcDbLine
 62
7
  6
CONTINUOUS
 10
234.1448862403
 20
161.8406236301
 11
205.144831272
 21
161.8406236301
  0
LINE
  5
255
100
AcDbEntity
  8
RUNDUNGEN
100
AcDbLine
 62
7
  6
CONTINUOUS
 10
229.644831272
 20
149.8406236301
 11
229.644831272
 21
153.1456236301
  0
LINE
  5
256
100
AcDbEntity
  8
RUNDUNGEN
100
AcDbLine
 62
7
  6
CONTINUOUS
 10
229.644831272
 20
158.5356236301
 11
229.644831272
 21
161.8406236301
  0
LINE
  5
257
100
AcDbEntity
  8
0
100
AcDbLine
 62
7
  6
CONTINUOUS
 10
236.144831272
 20
151.8406236301
 11
236.144831272
 21
159.8406236301
  0
LINE
  5
258
100
AcDbEntity
  8
RUNDUNGEN
100
AcDbLine
 62
7
  6
CONTINUOUS
 10
100.5983601601
 20
55.3069141277
 11
108.2297664666
 21
55.306915768
  0
LINE
  5
259
100
AcDbEntity
  8
RUNDUNGEN
100
AcDbLine
 62
7
  6
CONTINUOUS
 10
96.7755558365
 20
84.306969096
 11
97.339371409
 21
84.512181182
  0
LINE
  5
25A
100
AcDbEntity
  8
RUNDUNGEN
100
AcDbLine
 62
7
  6
CONTINUOUS
 10
96.7899395483
 20
84.2674501726
 11
97.3537551208
 21
84.4726622586
  0
LINE
  5
25B
100
AcDbEntity
  8
0
100
AcDbLine
 62
7
  6
CONTINUOUS
 10
91.9140625
 20
78.306969096
 11
91.9140625
 21
90.306969096
  0
LINE
  5
25C
100
AcDbEntity
  8
RUNDUNGEN
100
AcDbLine
 62
7
  6
CONTINUOUS
 10
110.9140625
 20
59.806969096
 11
110.3140625
 21
59.806969096
  0
LINE
  5
25D
100
AcDbEntity
  8
RUNDUNGEN
100
AcDbLine
 62
7
  6
CONTINUOUS
 10
97.9140625
 20
59.806969096
 11
98.5140625
 21
59.806969096
  0
LINE
  5
25E
100
AcDbEntity
  8
RUNDUNGEN
100
AcDbLine
 62
7
  6
CONTINUOUS
 10
93.8140625
 20
78.9242340947
 11
93.8140625
 21
84.306969096
  0
LINE
  5
25F
100
AcDbEntity
  8
RUNDUNGEN
100
AcDbLine
 62
7
  6
CONTINUOUS
 10
94.4140625
 20
78.3859605946
 11
94.4140625
 21
80.5122359038
  0
LINE
  5
260
100
AcDbEntity
  8
RUNDUNGEN
100
AcDbLine
 62
7
  6
CONTINUOUS
 10
95.0140625
 20
78.3859605946
 11
95.0140625
 21
80.5122359038
  0
LINE
  5
261
100
AcDbEntity
  8
RUNDUNGEN
100
AcDbLine
 62
7
  6
CONTINUOUS
 10
94.4140625
 20
78.3859605944
 11
94.4345070042
 21
78.2306691676
  0
LINE
  5
262
100
AcDbEntity
  8
RUNDUNGEN
100
AcDbLine
 62
7
  6
CONTINUOUS
 10
96.8140625
 20
77.306969096
 11
96.8140625
 21
84.1306421153
  0
LINE
  5
263
100
AcDbEntity
  8
RUNDUNGEN
100
AcDbLine
 62
7
  6
CONTINUOUS
 10
108.6178623706
 20
54.8493419773
 11
108.2298193058
 21
55.3069690961
  0
LINE
  5
264
100
AcDbEntity
  8
RUNDUNGEN
100
AcDbLine
 62
7
  6
CONTINUOUS
 10
97.8936179958
 20
65.321091198
 11
94.4345070042
 21
78.2306691675
  0
LINE
  5
265
100
AcDbEntity
  8
RUNDUNGEN
100
AcDbLine
 62
7
  6
CONTINUOUS
 10
98.4731734915
 20
65.4763826251
 11
95.0140625
 21
78.3859605946
  0
LINE
  5
266
100
AcDbEntity
  8
RUNDUNGEN
100
AcDbLine
 62
7
  6
CONTINUOUS
 10
97.8936179958
 20
65.321091198
 11
97.9140625
 21
65.165799771
  0
LINE
  5
267
100
AcDbEntity
  8
RUNDUNGEN
100
AcDbLine
 62
7
  6
CONTINUOUS
 10
97.4140625
 20
77.306969096
 11
97.4140625
 21
84.1306421153
  0
LINE
  5
268
100
AcDbEntity
  8
RUNDUNGEN
100
AcDbLine
 62
7
  6
CONTINUOUS
 10
97.9140625
 20
59.806969096
 11
97.9140625
 21
65.165799771
  0
LINE
  5
269
100
AcDbEntity
  8
RUNDUNGEN
100
AcDbLine
 62
7
  6
CONTINUOUS
 10
98.5140625
 20
59.806969096
 11
98.5140625
 21
65.165799771
  0
LINE
  5
26A
100
AcDbEntity
  8
RUNDUNGEN
100
AcDbLine
 62
7
  6
CONTINUOUS
 10
110.9140625
 20
65.165799771
 11
110.3140625
 21
65.165799771
  0
LINE
  5
26B
100
AcDbEntity
  8
RUNDUNGEN
100
AcDbLine
 62
7
  6
CONTINUOUS
 10
97.9140625
 20
65.165799771
 11
98.5140625
 21
65.165799771
  0
LINE
  5
26C
100
AcDbEntity
  8
RUNDUNGEN
100
AcDbLine
 62
7
  6
CONTINUOUS
 10
97.8936179958
 20
65.321091198
 11
98.4731734915
 21
65.4763826251
  0
LINE
  5
26D
100
AcDbEntity
  8
RUNDUNGEN
100
AcDbLine
 62
7
  6
CONTINUOUS
 10
110.9345070042
 20
65.321091198
 11
110.3549515085
 21
65.4763826251
  0
LINE
  5
26E
100
AcDbEntity
  8
RUNDUNGEN
100
AcDbLine
 62
7
  6
CONTINUOUS
 10
96.7899395483
 20
84.2674501726
 11
96.7755558365
 21
84.306969096
  0
LINE
  5
26F
100
AcDbEntity
  8
0
100
AcDbLine
 62
7
  6
CONTINUOUS
 10
101.9140625
 20
66.806969096
 11
101.9140625
 21
59.306969096
  0
LINE
  5
270
100
AcDbEntity
  8
RUNDUNGEN
100
AcDbLine
 62
7
  6
CONTINUOUS
 10
97.3537551208
 20
84.4726622586
 11
95.3739321439
 21
89.912181182
  0
LINE
  5
271
100
AcDbEntity
  8
0
100
AcDbLine
 62
7
  6
CONTINUOUS
 10
106.9140625
 20
66.806969096
 11
106.9140625
 21
59.306969096
  0
LINE
  5
272
100
AcDbEntity
  8
RUNDUNGEN
100
AcDbLine
 62
7
  6
CONTINUOUS
 10
113.4541928561
 20
89.912181182
 11
111.4743698792
 21
84.4726622585
  0
LINE
  5
273
100
AcDbEntity
  8
RUNDUNGEN
100
AcDbLine
 62
7
  6
CONTINUOUS
 10
112.0525691635
 20
84.306969096
 11
112.0381854517
 21
84.2674501726
  0
LINE
  5
274
100
AcDbEntity
  8
RUNDUNGEN
100
AcDbLine
 62
7
  6
CONTINUOUS
 10
110.3140625
 20
65.165799771
 11
110.3140625
 21
59.806969096
  0
LINE
  5
275
100
AcDbEntity
  8
RUNDUNGEN
100
AcDbLine
 62
7
  6
CONTINUOUS
 10
112.0140625
 20
77.306969096
 11
111.4140625
 21
77.306969096
  0
LINE
  5
276
100
AcDbEntity
  8
RUNDUNGEN
100
AcDbLine
 62
7
  6
CONTINUOUS
 10
96.8140625
 20
77.306969096
 11
97.4140625
 21
77.306969096
  0
LINE
  5
277
100
AcDbEntity
  8
RUNDUNGEN
100
AcDbLine
 62
7
  6
CONTINUOUS
 10
110.9140625
 20
65.165799771
 11
110.9140625
 21
59.806969096
  0
LINE
  5
278
100
AcDbEntity
  8
RUNDUNGEN
100
AcDbLine
 62
7
  6
CONTINUOUS
 10
111.4140625
 20
84.1306421153
 11
111.4140625
 21
77.306969096
  0
LINE
  5
279
100
AcDbEntity
  8
RUNDUNGEN
100
AcDbLine
 62
7
  6
CONTINUOUS
 10
112.0140625
 20
84.1306421153
 11
112.0140625
 21
77.306969096
  0
LINE
  5
27A
100
AcDbEntity
  8
RUNDUNGEN
100
AcDbLine
 62
7
  6
CONTINUOUS
 10
113.8140625
 20
78.3859605946
 11
110.3549515085
 21
65.4763826251
  0
LINE
  5
27B
100
AcDbEntity
  8
0
100
AcDbLine
 62
7
  6
CONTINUOUS
 10
116.9140625
 20
78.306969096
 11
114.8744586928
 21
78.306969096
  0
LINE
  5
27C
100
AcDbEntity
  8
RUNDUNGEN
100
AcDbLine
 62
7
  6
CONTINUOUS
 10
116.9140625
 20
78.306969096
 11
114.8744586928
 21
78.306969096
  0
LINE
  5
27D
100
AcDbEntity
  8
0
100
AcDbLine
 62
7
  6
CONTINUOUS
 10
93.9536663072
 20
78.306969096
 11
91.9140625
 21
78.306969096
  0
LINE
  5
27E
100
AcDbEntity
  8
RUNDUNGEN
100
AcDbLine
 62
7
  6
CONTINUOUS
 10
93.9536663072
 20
78.306969096
 11
91.9140625
 21
78.306969096
  0
LINE
  5
27F
100
AcDbEntity
  8
RUNDUNGEN
100
AcDbLine
 62
7
  6
CONTINUOUS
 10
114.4140625
 20
78.3859605946
 11
113.8140625
 21
78.3859605946
  0
LINE
  5
280
100
AcDbEntity
  8
RUNDUNGEN
100
AcDbLine
 62
7
  6
CONTINUOUS
 10
94.4140625
 20
78.3859605946
 11
95.0140625
 21
78.3859605946
  0
LINE
  5
281
100
AcDbEntity
  8
RUNDUNGEN
100
AcDbLine
 62
7
  6
CONTINUOUS
 10
114.3936179958
 20
78.2306691676
 11
114.4140625
 21
78.3859605944
  0
LINE
  5
282
100
AcDbEntity
  8
RUNDUNGEN
100
AcDbLine
 62
7
  6
CONTINUOUS
 10
114.3936179958
 20
78.2306691675
 11
110.9345070042
 21
65.321091198
  0
LINE
  5
283
100
AcDbEntity
  8
RUNDUNGEN
100
AcDbLine
 62
7
  6
CONTINUOUS
 10
100.2102626294
 20
54.8493419773
 11
100.5983056943
 21
55.306969096
  0
LINE
  5
284
100
AcDbEntity
  8
RUNDUNGEN
100
AcDbLine
 62
7
  6
CONTINUOUS
 10
94.4345070042
 20
78.2306691675
 11
95.0140625
 21
78.3859605946
  0
LINE
  5
285
100
AcDbEntity
  8
RUNDUNGEN
100
AcDbLine
 62
7
  6
CONTINUOUS
 10
94.4140625
 20
80.5122359038
 11
95.0140624935
 21
80.5122358774
  0
LINE
  5
286
100
AcDbEntity
  8
RUNDUNGEN
100
AcDbLine
 62
7
  6
CONTINUOUS
 10
114.4140625
 20
80.5122359038
 11
113.8140625
 21
80.5122359038
  0
LINE
  5
287
100
AcDbEntity
  8
RUNDUNGEN
100
AcDbLine
 62
7
  6
CONTINUOUS
 10
114.3936179958
 20
78.2306691675
 11
113.8140625
 21
78.3859605946
  0
LINE
  5
288
100
AcDbEntity
  8
RUNDUNGEN
100
AcDbLine
 62
7
  6
CONTINUOUS
 10
113.8140625
 20
80.5122359038
 11
113.8140625
 21
78.3859605946
  0
LINE
  5
289
100
AcDbEntity
  8
RUNDUNGEN
100
AcDbLine
 62
7
  6
CONTINUOUS
 10
114.4140625
 20
80.5122359038
 11
114.4140625
 21
78.3859605946
  0
LINE
  5
28A
100
AcDbEntity
  8
RUNDUNGEN
100
AcDbLine
 62
7
  6
CONTINUOUS
 10
115.0140625
 20
84.306969096
 11
115.0140625
 21
78.9242340947
  0
LINE
  5
28B
100
AcDbEntity
  8
0
100
AcDbLine
 62
7
  6
CONTINUOUS
 10
116.9140625
 20
78.306969096
 11
116.9140625
 21
90.306969096
  0
LINE
  5
28C
100
AcDbEntity
  8
RUNDUNGEN
100
AcDbLine
 62
7
  6
CONTINUOUS
 10
112.0140625
 20
84.1306421153
 11
111.4140625
 21
84.1306421153
  0
LINE
  5
28D
100
AcDbEntity
  8
RUNDUNGEN
100
AcDbLine
 62
7
  6
CONTINUOUS
 10
96.8140625
 20
84.1306421153
 11
97.4140625
 21
84.1306421151
  0
LINE
  5
28E
100
AcDbEntity
  8
RUNDUNGEN
100
AcDbLine
 62
7
  6
CONTINUOUS
 10
93.8140625
 20
84.306969096
 11
96.7755558365
 21
84.306969096
  0
LINE
  5
28F
100
AcDbEntity
  8
RUNDUNGEN
100
AcDbLine
 62
7
  6
CONTINUOUS
 10
112.0525691635
 20
84.306969096
 11
115.0140625
 21
84.306969096
  0
LINE
  5
290
100
AcDbEntity
  8
RUNDUNGEN
100
AcDbLine
 62
7
  6
CONTINUOUS
 10
112.0381854517
 20
84.2674501726
 11
111.4743698792
 21
84.4726622585
  0
LINE
  5
291
100
AcDbEntity
  8
RUNDUNGEN
100
AcDbLine
 62
7
  6
CONTINUOUS
 10
112.0525691635
 20
84.306969096
 11
111.488753591
 21
84.512181182
  0
LINE
  5
292
100
AcDbEntity
  8
0
100
AcDbLine
 62
7
  6
CONTINUOUS
 10
116.9140625
 20
90.306969096
 11
114.0180084285
 21
90.306969096
  0
LINE
  5
293
100
AcDbEntity
  8
0
100
AcDbLine
 62
7
  6
CONTINUOUS
 10
94.8101165715
 20
90.306969096
 11
91.9140625
 21
90.306969096
  0
LINE
  5
294
100
AcDbEntity
  8
RUNDUNGEN
100
AcDbLine
 62
7
  6
CONTINUOUS
 10
94.8101165715
 20
90.306969096
 11
91.9140625
 21
90.306969096
  0
LINE
  5
295
100
AcDbEntity
  8
RUNDUNGEN
100
AcDbLine
 62
7
  6
CONTINUOUS
 10
114.0180084285
 20
90.306969096
 11
116.9140625
 21
90.306969096
  0
ARC
  5
296
100
AcDbEntity
  8
RUNDUNGEN
100
AcDbCircle
 62
7
  6
CONTINUOUS
 10
98.5148055194
 20
150.440868618
 40
0.6211875719
100
AcDbArc
 50
180.0225966719
 51
188.7129561439
  0
ARC
  5
297
100
AcDbEntity
  8
RUNDUNGEN
100
AcDbCircle
 62
7
  6
CONTINUOUS
 10
110.3133194806
 20
161.2403786423
 40
0.6211875719
100
AcDbArc
 50
0.0225966719
 51
8.7129561439
  0
ARC
  5
298
100
AcDbEntity
  8
RUNDUNGEN
100
AcDbCircle
 62
7
  6
CONTINUOUS
 10
98.5148055194
 20
161.2403786423
 40
0.6211875719
100
AcDbArc
 50
171.2870438506
 51
179.977403328
  0
ARC
  5
299
100
AcDbEntity
  8
RUNDUNGEN
100
AcDbCircle
 62
7
  6
CONTINUOUS
 10
110.3133194806
 20
150.440868618
 40
0.6211875719
100
AcDbArc
 50
351.2870438506
 51
359.977403328
  0
ARC
  5
29A
100
AcDbEntity
  8
RUNDUNGEN
100
AcDbCircle
 62
7
  6
CONTINUOUS
 10
95.0556944775
 20
161.2403787429
 40
0.6211875215
100
AcDbArc
 50
171.2881066248
 51
179.9774126052
  0
ARC
  5
29B
100
AcDbEntity
  8
RUNDUNGEN
100
AcDbCircle
 62
7
  6
CONTINUOUS
 10
110.3140625
 20
150.4406236301
 40
0.6
100
AcDbArc
 50
270.0
 51
360.0
  0
ARC
  5
29C
100
AcDbEntity
  8
RUNDUNGEN
100
AcDbCircle
 62
7
  6
CONTINUOUS
 10
113.8140625
 20
150.4406236301
 40
0.6
100
AcDbArc
 50
270.0
 51
360.0
  0
ARC
  5
29D
100
AcDbEntity
  8
RUNDUNGEN
100
AcDbCircle
 62
7
  6
CONTINUOUS
 10
95.0140625
 20
150.4406236301
 40
0.6
100
AcDbArc
 50
180.0
 51
270.0
  0
ARC
  5
29E
100
AcDbEntity
  8
RUNDUNGEN
100
AcDbCircle
 62
7
  6
CONTINUOUS
 10
98.5140625
 20
150.4406236301
 40
0.6
100
AcDbArc
 50
180.0
 51
270.0
  0
ARC
  5
29F
100
AcDbEntity
  8
RUNDUNGEN
100
AcDbCircle
 62
7
  6
CONTINUOUS
 10
113.8140625
 20
161.2406236301
 40
0.6
100
AcDbArc
 50
0.0
 51
90.0
  0
ARC
  5
2A0
100
AcDbEntity
  8
RUNDUNGEN
100
AcDbCircle
 62
7
  6
CONTINUOUS
 10
110.3140625
 20
161.2406236301
 40
0.6
100
AcDbArc
 50
0.0
 51
90.0
  0
ARC
  5
2A1
100
AcDbEntity
  8
RUNDUNGEN
100
AcDbCircle
 62
7
  6
CONTINUOUS
 10
98.5140625
 20
161.2406236301
 40
0.6
100
AcDbArc
 50
90.0
 51
180.0
  0
ARC
  5
2A2
100
AcDbEntity
  8
RUNDUNGEN
100
AcDbCircle
 62
7
  6
CONTINUOUS
 10
95.0140625
 20
161.2406236301
 40
0.6
100
AcDbArc
 50
90.0
 51
180.0
  0
ARC
  5
2A3
100
AcDbEntity
  8
RUNDUNGEN
100
AcDbCircle
 62
7
  6
CONTINUOUS
 10
200.353178043
 20
156.1259145609
 40
11.0308880256
100
AcDbArc
 50
9.8599663977
 51
13.7959006296
  0
ARC
  5
2A4
100
AcDbEntity
  8
RUNDUNGEN
100
AcDbCircle
 62
7
  6
CONTINUOUS
 10
200.3532623307
 20
155.5553150479
 40
11.0308019602
100
AcDbArc
 50
346.2040840098
 51
350.1400489629
  0
ARC
  5
2A5
100
AcDbEntity
  8
RUNDUNGEN
100
AcDbCircle
 62
7
  6
CONTINUOUS
 10
205.144831272
 20
155.8406236301
 40
6.6
100
AcDbArc
 50
26.2176267508
 51
54.9043617463
  0
ARC
  5
2A6
100
AcDbEntity
  8
RUNDUNGEN
100
AcDbCircle
 62
7
  6
CONTINUOUS
 10
205.144831272
 20
155.8406236301
 40
6.6
100
AcDbArc
 50
305.0956824687
 51
333.7823732492
  0
ARC
  5
2A7
100
AcDbEntity
  8
RUNDUNGEN
100
AcDbCircle
 62
7
  6
CONTINUOUS
 10
204.9899429067
 20
155.840555334
 40
6.5995969386
100
AcDbArc
 50
340.7653127779
 51
19.2345983523
  0
CIRCLE
  5
2A8
100
AcDbEntity
  8
0
100
AcDbCircle
 62
7
  6
CONTINUOUS
 10
205.144831272
 20
155.8406236301
 40
6.0
  0
CIRCLE
  5
2A9
100
AcDbEntity
  8
0
100
AcDbCircle
 62
7
  6
CONTINUOUS
 10
205.144831272
 20
155.8406236301
 40
2.7
  0
ARC
  5
2AA
100
AcDbEntity
  8
0
100
AcDbCircle
 62
7
  6
CONTINUOUS
 10
230.339831272
 20
155.8406236301
 40
2.695
100
AcDbArc
 50
270.0
 51
90.0
  0
ARC
  5
2AB
100
AcDbEntity
  8
0
100
AcDbCircle
 62
7
  6
CONTINUOUS
 10
222.339831272
 20
155.8406236301
 40
2.695
100
AcDbArc
 50
90.0
 51
270.0
  0
ARC
  5
2AC
100
AcDbEntity
  8
RUNDUNGEN
100
AcDbCircle
 62
7
  6
CONTINUOUS
 10
234.144831272
 20
159.8406236301
 40
2.0
100
AcDbArc
 50
0.0
 51
89.9984252735
  0
ARC
  5
2AD
100
AcDbEntity
  8
RUNDUNGEN
100
AcDbCircle
 62
7
  6
CONTINUOUS
 10
234.144831272
 20
151.8406236301
 40
2.0
100
AcDbArc
 50
270.0
 51
360.0
  0
ARC
  5
2AE
100
AcDbEntity
  8
RUNDUNGEN
100
AcDbCircle
 62
7
  6
CONTINUOUS
 10
104.4140625
 20
59.806969096
 40
6.5
100
AcDbArc
 50
180.0
 51
360.0
  0
ARC
  5
2AF
100
AcDbEntity
  8
RUNDUNGEN
100
AcDbCircle
 62
7
  6
CONTINUOUS
 10
104.4140625
 20
59.806969096
 40
5.9
100
AcDbArc
 50
310.295417032
 51
360.0
  0
ARC
  5
2B0
100
AcDbEntity
  8
RUNDUNGEN
100
AcDbCircle
 62
7
  6
CONTINUOUS
 10
104.4140625
 20
59.806969096
 40
5.9
100
AcDbArc
 50
180.0
 51
229.7046053188
  0
ARC
  5
2B1
100
AcDbEntity
  8
0
100
AcDbCircle
 62
7
  6
CONTINUOUS
 10
104.4140625
 20
66.806969096
 40
2.5
100
AcDbArc
 50
0.0
 51
180.0
  0
ARC
  5
2B2
100
AcDbEntity
  8
0
100
AcDbCircle
 62
7
  6
CONTINUOUS
 10
104.4140625
 20
59.306969096
 40
2.5
100
AcDbArc
 50
180.0
 51
360.0
  0
ARC
  5
2B3
100
AcDbEntity
  8
RUNDUNGEN
100
AcDbCircle
 62
7
  6
CONTINUOUS
 10
97.3140625
 20
65.165799771
 40
1.2
100
AcDbArc
 50
0.0
 51
15.0
  0
ARC
  5
2B4
100
AcDbEntity
  8
RUNDUNGEN
100
AcDbCircle
 62
7
  6
CONTINUOUS
 10
97.3140625
 20
65.165799771
 40
0.6
100
AcDbArc
 50
0.0
 51
15.0
  0
ARC
  5
2B5
100
AcDbEntity
  8
RUNDUNGEN
100
AcDbCircle
 62
7
  6
CONTINUOUS
 10
104.4140625
 20
77.306969096
 40
7.6
100
AcDbArc
 50
180.0
 51
360.0
  0
ARC
  5
2B6
100
AcDbEntity
  8
RUNDUNGEN
100
AcDbCircle
 62
7
  6
CONTINUOUS
 10
104.4140625
 20
77.306969096
 40
7.0
100
AcDbArc
 50
180.0
 51
360.0
  0
ARC
  5
2B7
100
AcDbEntity
  8
RUNDUNGEN
100
AcDbCircle
 62
7
  6
CONTINUOUS
 10
96.4140625
 20
84.1306421153
 40
1.0
100
AcDbArc
 50
0.0
 51
20.0
  0
ARC
  5
2B8
100
AcDbEntity
  8
RUNDUNGEN
100
AcDbCircle
 62
7
  6
CONTINUOUS
 10
94.8132345346
 20
78.9247971863
 40
0.9991721932
100
AcDbArc
 50
180.0322895038
 51
196.4480298662
  0
ARC
  5
2B9
100
AcDbEntity
  8
RUNDUNGEN
100
AcDbCircle
 62
7
  6
CONTINUOUS
 10
94.8101166783
 20
89.7069688024
 40
0.6
100
AcDbArc
 50
20.0000298383
 51
90.0000102053
  0
ARC
  5
2BA
100
AcDbEntity
  8
RUNDUNGEN
100
AcDbCircle
 62
7
  6
CONTINUOUS
 10
95.0140625
 20
78.3859605946
 40
0.6
100
AcDbArc
 50
180.0
 51
195.0
  0
ARC
  5
2BB
100
AcDbEntity
  8
RUNDUNGEN
100
AcDbCircle
 62
7
  6
CONTINUOUS
 10
93.9536659327
 20
77.7069704937
 40
0.5999998729
100
AcDbArc
 50
14.9998618189
 51
89.999964236
  0
ARC
  5
2BC
100
AcDbEntity
  8
RUNDUNGEN
100
AcDbCircle
 62
7
  6
CONTINUOUS
 10
93.9137675869
 20
78.0896329506
 40
0.5395845081
100
AcDbArc
 50
25.076750969
 51
30.6774703104
  0
ARC
  5
2BD
100
AcDbEntity
  8
RUNDUNGEN
100
AcDbCircle
 62
7
  6
CONTINUOUS
 10
93.920287576
 20
78.0925302246
 40
0.5324511485
100
AcDbArc
 50
15.0368223705
 51
25.09172997
  0
ARC
  5
2BE
100
AcDbEntity
  8
RUNDUNGEN
100
AcDbCircle
 62
7
  6
CONTINUOUS
 10
96.4140625
 20
84.1306421153
 40
0.4
100
AcDbArc
 50
0.0
 51
20.0
  0
ARC
  5
2BF
100
AcDbEntity
  8
RUNDUNGEN
100
AcDbCircle
 62
7
  6
CONTINUOUS
 10
111.5140625
 20
65.165799771
 40
1.2
100
AcDbArc
 50
165.0
 51
180.0
  0
ARC
  5
2C0
100
AcDbEntity
  8
RUNDUNGEN
100
AcDbCircle
 62
7
  6
CONTINUOUS
 10
111.5140625
 20
65.165799771
 40
0.6
100
AcDbArc
 50
165.0
 51
180.0
  0
ARC
  5
2C1
100
AcDbEntity
  8
RUNDUNGEN
100
AcDbCircle
 62
7
  6
CONTINUOUS
 10
112.4140625
 20
84.1306421153
 40
1.0
100
AcDbArc
 50
160.0
 51
180.0
  0
ARC
  5
2C2
100
AcDbEntity
  8
RUNDUNGEN
100
AcDbCircle
 62
7
  6
CONTINUOUS
 10
114.0182685446
 20
78.9243079805
 40
0.9957939582
100
AcDbArc
 50
343.5239318552
 51
359.9957487749
  0
ARC
  5
2C3
100
AcDbEntity
  8
RUNDUNGEN
100
AcDbCircle
 62
7
  6
CONTINUOUS
 10
114.018008333
 20
89.7069688335
 40
0.6
100
AcDbArc
 50
89.9999908755
 51
159.9999733217
  0
ARC
  5
2C4
100
AcDbEntity
  8
RUNDUNGEN
100
AcDbCircle
 62
7
  6
CONTINUOUS
 10
113.8140625
 20
78.3859605946
 40
0.6
100
AcDbArc
 50
345.0
 51
360.0
  0
ARC
  5
2C5
100
AcDbEntity
  8
RUNDUNGEN
100
AcDbCircle
 62
7
  6
CONTINUOUS
 10
114.8744593891
 20
77.7069716947
 40
0.5999997638
100
AcDbArc
 50
90.000066493
 51
165.0002569082
  0
ARC
  5
2C6
100
AcDbEntity
  8
RUNDUNGEN
100
AcDbCircle
 62
7
  6
CONTINUOUS
 10
114.9143605965
 20
78.0896393491
 40
0.5395846867
100
AcDbArc
 50
149.3232380235
 51
154.9239205668
  0
ARC
  5
2C7
100
AcDbEntity
  8
RUNDUNGEN
100
AcDbCircle
 62
7
  6
CONTINUOUS
 10
114.9078415348
 20
78.0925361094
 40
0.5324523833
100
AcDbArc
 50
154.9089428351
 51
164.9639038817
  0
ARC
  5
2C8
100
AcDbEntity
  8
RUNDUNGEN
100
AcDbCircle
 62
7
  6
CONTINUOUS
 10
112.4140625
 20
84.1306421153
 40
0.4
100
AcDbArc
 50
160.0
 51
180.0
  0
SPLINE
  5
2C9
100
AcDbEntity
  8
0
100
AcDbSpline
 62
7
  6
CONTINUOUS
 70
0
 71
3
 72
9
 73
5
 74
0
 42
0.0000001
 43
0.0000001
 44
0.0000000001
 40
0.0
 40
0.0
 40
0.0
 40
0.0
 40
0.2034741377
 40
1.0
 40
1.0
 40
1.0
 40
1.0
 10
97.9513250769
 20
158.5356236301
 30
0.0
 10
97.9539225787
 20
158.5356236301
 30
0.0
 10
97.9666937127
 20
158.5339679106
 30
0.0
 10
97.9782137865
 20
158.5273825071
 30
0.0
 10
97.986633956
 20
158.5216821389
 30
0.0
  0
SPLINE
  5
2CA
100
AcDbEntity
  8
0
100
AcDbSpline
 62
7
  6
CONTINUOUS
 70
0
 71
3
 72
29
 73
25
 74
0
 42
0.0000001
 43
0.0000001
 44
0.0000000001
 40
0.0
 40
0.0
 40
0.0
 40
0.0
 40
0.0097710659
 40
0.0233780904
 40
0.0407285547
 40
0.0616275898
 40
0.0858342605
 40
0.1130916477
 40
0.1757486057
 40
0.2476999236
 40
0.3271291674
 40
0.4120469481
 40
0.4999622908
 40
0.587878897
 40
0.6728004904
 40
0.7522359743
 40
0.824195831
 40
0.8868636567
 40
0.9141273801
 40
0.938340951
 40
0.9592473775
 40
0.9766057281
 40
0.9902208988
 40
1.0
 40
1.0
 40
1.0
 40
1.0
 10
97.986633956
 20
158.5216821389
 30
0.0
 10
98.0021430194
 20
158.5111826623
 30
0.0
 10
98.0350453481
 20
158.4801864922
 30
0.0
 10
98.0850864773
 20
158.4202844093
 30
0.0
 10
98.1428256006
 20
158.3392398156
 30
0.0
 10
98.2070074987
 20
158.2381536395
 30
0.0
 10
98.2762037315
 20
158.1178917555
 30
0.0
 10
98.3779522262
 20
157.9242066872
 30
0.0
 10
98.5065541662
 20
157.6415195669
 30
0.0
 10
98.6482614473
 20
157.2560661385
 30
0.0
 10
98.7678695268
 20
156.8185455991
 30
0.0
 10
98.8489337394
 20
156.3409501351
 30
0.0
 10
98.8778070591
 20
155.8408864469
 30
0.0
 10
98.8489926988
 20
155.3408119559
 30
0.0
 10
98.7679780018
 20
154.863185836
 30
0.0
 10
98.6484027838
 20
154.4256191158
 30
0.0
 10
98.5067109992
 20
154.0401074159
 30
0.0
 10
98.3781099079
 20
153.7573656609
 30
0.0
 10
98.276355695
 20
153.5636313948
 30
0.0
 10
98.2071497961
 20
153.4433294911
 30
0.0
 10
98.142955459
 20
153.3422008116
 30
0.0
 10
98.0852010266
 20
153.2611122839
 30
0.0
 10
98.035141915
 20
153.2011647396
 30
0.0
 10
98.0022282121
 20
153.1701369721
 30
0.0
 10
97.9867131437
 20
153.1596188991
 30
0.0
  0
SPLINE
  5
2CB
100
AcDbEntity
  8
0
100
AcDbSpline
 62
7
  6
CONTINUOUS
 70
0
 71
3
 72
9
 73
5
 74
0
 42
0.0000001
 43
0.0000001
 44
0.0000000001
 40
0.0
 40
0.0
 40
0.0
 40
0.0
 40
0.3040567013
 40
1.0
 40
1.0
 40
1.0
 40
1.0
 10
97.9867131437
 20
153.1596188991
 30
0.0
 10
97.983499271
 20
153.1574401302
 30
0.0
 10
97.9727370654
 20
153.1507485788
 30
0.0
 10
97.9602122271
 20
153.1456236301
 30
0.0
 10
97.9513250769
 20
153.1456236301
 30
0.0
  0
SPLINE
  5
2CC
100
AcDbEntity
  8
0
100
AcDbSpline
 62
7
  6
CONTINUOUS
 70
0
 71
3
 72
9
 73
5
 74
0
 42
0.0000001
 43
0.0000001
 44
0.0000000001
 40
0.0
 40
0.0
 40
0.0
 40
0.0
 40
0.2061455394
 40
1.0
 40
1.0
 40
1.0
 40
1.0
 10
110.8767999231
 20
153.1456236301
 30
0.0
 10
110.8743606856
 20
153.1456236301
 30
0.0
 10
110.8625216778
 20
153.1470600396
 30
0.0
 10
110.8517233907
 20
153.1528921783
 30
0.0
 10
110.8438421268
 20
153.158003041
 30
0.0
  0
SPLINE
  5
2CD
100
AcDbEntity
  8
0
100
AcDbSpline
 62
7
  6
CONTINUOUS
 70
0
 71
3
 72
29
 73
25
 74
0
 42
0.0000001
 43
0.0000001
 44
0.0000000001
 40
0.0
 40
0.0
 40
0.0
 40
0.0
 40
0.0098766042
 40
0.0238390943
 40
0.0417887552
 40
0.0635111433
 40
0.0887359363
 40
0.1171809049
 40
0.1826192229
 40
0.2577444358
 40
0.3405382358
 40
0.4287255577
 40
0.5194255815
 40
0.6092853702
 40
0.6951240493
 40
0.7743868469
 40
0.8449760651
 40
0.9048672651
 40
0.9301317829
 40
0.9518973015
 40
0.969893073
 40
0.9839038467
 40
0.9938284023
 40
1.0
 40
1.0
 40
1.0
 40
1.0
 10
110.8438421268
 20
153.158003041
 30
0.0
 10
110.827845893
 20
153.1683763207
 30
0.0
 10
110.7938634677
 20
153.2000987439
 30
0.0
 10
110.7421648941
 20
153.2619738399
 30
0.0
 10
110.6821940229
 20
153.3465309933
 30
0.0
 10
110.6153674243
 20
153.4525211144
 30
0.0
 10
110.5432860832
 20
153.5790077004
 30
0.0
 10
110.4373680156
 20
153.7831280941
 30
0.0
 10
110.3042019013
 20
154.0813387769
 30
0.0
 10
110.1595305614
 20
154.4880165086
 30
0.0
 10
110.0411942505
 20
154.9489017942
 30
0.0
 10
109.9672929709
 20
155.4496673897
 30
0.0
 10
109.9515520292
 20
155.9694495301
 30
0.0
 10
109.9972102327
 20
156.4828432741
 30
0.0
 10
110.0952094889
 20
156.9660774203
 30
0.0
 10
110.2288656167
 20
157.4016269723
 30
0.0
 10
110.3798370312
 20
157.7777248469
 30
0.0
 10
110.5124362518
 20
158.0479122321
 30
0.0
 10
110.6145220033
 20
158.2273315995
 30
0.0
 10
110.681480031
 20
158.3336167921
 30
0.0
 10
110.7413835101
 20
158.4183023626
 30
0.0
 10
110.7935884127
 20
158.4807884533
 30
0.0
 10
110.8355115819
 20
158.5201629706
 30
0.0
 10
110.8648866015
 20
158.5356236301
 30
0.0
 10
110.8767999231
 20
158.5356236301
 30
0.0
  0
SPLINE
  5
2CE
100
AcDbEntity
  8
RUNDUNGEN
100
AcDbSpline
 62
7
  6
CONTINUOUS
 70
0
 71
3
 72
11
 73
7
 74
0
 42
0.0000001
 43
0.0000001
 44
0.0000000001
 40
0.0
 40
0.0
 40
0.0
 40
0.0
 40
0.2540210988
 40
0.505659692
 40
0.7539854329
 40
1.0
 40
1.0
 40
1.0
 40
1.0
 10
94.4345070042
 20
150.4406236301
 30
0.0
 10
94.4345070042
 20
150.3626779982
 30
0.0
 10
94.4643002136
 20
150.2058888318
 30
0.0
 10
94.5925582806
 20
150.0065899914
 30
0.0
 10
94.7851393763
 20
149.8722237175
 30
0.0
 10
94.9385736489
 20
149.8406236301
 30
0.0
 10
95.0140625
 20
149.8406236301
 30
0.0
  0
SPLINE
  5
2CF
100
AcDbEntity
  8
RUNDUNGEN
100
AcDbSpline
 62
7
  6
CONTINUOUS
 70
0
 71
3
 72
14
 73
10
 74
0
 42
0.0000001
 43
0.0000001
 44
0.0000000001
 40
0.0
 40
0.0
 40
0.0
 40
0.0
 40
0.1069808867
 40
0.2216434379
 40
0.3427002105
 40
0.4687465965
 40
0.5985250787
 40
0.7309420562
 40
1.0
 40
1.0
 40
1.0
 40
1.0
 10
108.6178623707
 20
161.2406236301
 30
0.0
 10
108.4589903561
 20
161.2406251764
 30
0.0
 10
108.1298344169
 20
161.2082719011
 30
0.0
 10
107.6321250453
 20
161.0996007342
 30
0.0
 10
107.1169916884
 20
160.9457427526
 30
0.0
 10
106.5893013812
 20
160.7588032432
 30
0.0
 10
106.0525566577
 20
160.5480656269
 30
0.0
 10
105.3247516761
 20
160.243461026
 30
0.0
 10
104.7794839855
 20
160.0022374449
 30
0.0
 10
104.4140625
 20
159.8406236301
 30
0.0
  0
SPLINE
  5
2D0
100
AcDbEntity
  8
RUNDUNGEN
100
AcDbSpline
 62
7
  6
CONTINUOUS
 70
0
 71
3
 72
11
 73
7
 74
0
 42
0.0000001
 43
0.0000001
 44
0.0000000001
 40
0.0
 40
0.0
 40
0.0
 40
0.0
 40
0.2540158474
 40
0.5053041063
 40
0.7536149458
 40
1.0
 40
1.0
 40
1.0
 40
1.0
 10
97.9007866649
 20
150.3467684275
 30
0.0
 10
97.911393548
 20
150.2774755221
 30
0.0
 10
97.9563952854
 20
150.1420541282
 30
0.0
 10
98.0880017734
 20
149.9756695461
 30
0.0
 10
98.2673760418
 20
149.86609167
 30
0.0
 10
98.4051793202
 20
149.8406236301
 30
0.0
 10
98.4731734915
 20
149.8406236301
 30
0.0
  0
SPLINE
  5
2D1
100
AcDbEntity
  8
RUNDUNGEN
100
AcDbSpline
 62
7
  6
CONTINUOUS
 70
0
 71
3
 72
14
 73
10
 74
0
 42
0.0000001
 43
0.0000001
 44
0.0000000001
 40
0.0
 40
0.0
 40
0.0
 40
0.0
 40
0.095777963
 40
0.2030198795
 40
0.3207684645
 40
0.4470912482
 40
0.5799510893
 40
0.7174858849
 40
1.0
 40
1.0
 40
1.0
 40
1.0
 10
100.5983056943
 20
149.8406236301
 30
0.0
 10
100.737332615
 20
149.840615503
 30
0.0
 10
101.0319325415
 20
149.8850170086
 30
0.0
 10
101.4739704972
 20
150.0345009929
 30
0.0
 10
101.9370840541
 20
150.2497269381
 30
0.0
 10
102.4159481329
 20
150.5149129715
 30
0.0
 10
102.9064466707
 20
150.816871412
 30
0.0
 10
103.5770943114
 20
151.2578616152
 30
0.0
 10
104.0774514585
 20
151.6063964221
 30
0.0
 10
104.4140625
 20
151.8406236301
 30
0.0
  0
SPLINE
  5
2D2
100
AcDbEntity
  8
RUNDUNGEN
100
AcDbSpline
 62
7
  6
CONTINUOUS
 70
0
 71
3
 72
9
 73
5
 74
0
 42
0.0000001
 43
0.0000001
 44
0.0000000001
 40
0.0
 40
0.0
 40
0.0
 40
0.0
 40
0.4929192254
 40
1.0
 40
1.0
 40
1.0
 40
1.0
 10
114.9731734915
 20
157.8171949116
 30
0.0
 10
114.9399027754
 20
157.4936275816
 30
0.0
 10
114.8906265041
 20
156.8352346454
 30
0.0
 10
114.8744616732
 20
156.1752420787
 30
0.0
 10
114.8744586928
 20
155.8406236301
 30
0.0
  0
SPLINE
  5
2D3
100
AcDbEntity
  8
RUNDUNGEN
100
AcDbSpline
 62
7
  6
CONTINUOUS
 70
0
 71
3
 72
9
 73
5
 74
0
 42
0.0000001
 43
0.0000001
 44
0.0000000001
 40
0.0
 40
0.0
 40
0.0
 40
0.0
 40
0.245035463
 40
1.0
 40
1.0
 40
1.0
 40
1.0
 10
115.0140625
 20
158.4913148429
 30
0.0
 10
115.0140576486
 20
158.4361368521
 30
0.0
 10
115.0095173314
 20
158.2109437559
 30
0.0
 10
114.9905567433
 20
157.9863095533
 30
0.0
 10
114.9731734915
 20
157.8171949116
 30
0.0
  0
SPLINE
  5
2D4
100
AcDbEntity
  8
RUNDUNGEN
100
AcDbSpline
 62
7
  6
CONTINUOUS
 70
0
 71
3
 72
13
 73
9
 74
0
 42
0.0000001
 43
0.0000001
 44
0.0000000001
 40
0.0
 40
0.0
 40
0.0
 40
0.0
 40
0.295861592
 40
0.5667837172
 40
0.6881883887
 40
0.7993900219
 40
0.9022242996
 40
1.0
 40
1.0
 40
1.0
 40
1.0
 10
100.2102626294
 20
150.4406236301
 30
0.0
 10
100.2102626329
 20
150.3634472538
 30
0.0
 10
100.2283997591
 20
150.2149968231
 30
0.0
 10
100.2976865247
 20
150.0459874495
 30
0.0
 10
100.378500568
 20
149.9414672355
 30
0.0
 10
100.4459829915
 20
149.8845121675
 30
0.0
 10
100.5201781731
 20
149.8488977402
 30
0.0
 10
100.5728006118
 20
149.8406236301
 30
0.0
 10
100.5983056941
 20
149.8406236301
 30
0.0
  0
SPLINE
  5
2D5
100
AcDbEntity
  8
RUNDUNGEN
100
AcDbSpline
 62
7
  6
CONTINUOUS
 70
0
 71
3
 72
11
 73
7
 74
0
 42
0.0000001
 43
0.0000001
 44
0.0000000001
 40
0.0
 40
0.0
 40
0.0
 40
0.0
 40
0.2540210988
 40
0.505659692
 40
0.7539854329
 40
1.0
 40
1.0
 40
1.0
 40
1.0
 10
114.3936179958
 20
161.2406236301
 30
0.0
 10
114.3936179958
 20
161.3185692621
 30
0.0
 10
114.3638247864
 20
161.4753584285
 30
0.0
 10
114.2355667194
 20
161.6746572688
 30
0.0
 10
114.0429856237
 20
161.8090235428
 30
0.0
 10
113.8895513511
 20
161.8406236301
 30
0.0
 10
113.8140625
 20
161.8406236301
 30
0.0
  0
SPLINE
  5
2D6
100
AcDbEntity
  8
RUNDUNGEN
100
AcDbSpline
 62
7
  6
CONTINUOUS
 70
0
 71
3
 72
9
 73
5
 74
0
 42
0.0000001
 43
0.0000001
 44
0.0000000001
 40
0.0
 40
0.0
 40
0.0
 40
0.0
 40
0.2547567545
 40
1.0
 40
1.0
 40
1.0
 40
1.0
 10
114.9731734915
 20
153.8640523487
 30
0.0
 10
114.9790388029
 20
153.8069906489
 30
0.0
 10
115.0005948093
 20
153.5828931811
 30
0.0
 10
115.0140477766
 20
153.3577352514
 30
0.0
 10
115.0140625
 20
153.1899324173
 30
0.0
  0
SPLINE
  5
2D7
100
AcDbEntity
  8
RUNDUNGEN
100
AcDbSpline
 62
7
  6
CONTINUOUS
 70
0
 71
3
 72
11
 73
7
 74
0
 42
0.0000001
 43
0.0000001
 44
0.0000000001
 40
0.0
 40
0.0
 40
0.0
 40
0.0
 40
0.2540158474
 40
0.5053041063
 40
0.7536149458
 40
1.0
 40
1.0
 40
1.0
 40
1.0
 10
110.9273383351
 20
161.3344788328
 30
0.0
 10
110.916731452
 20
161.4037717382
 30
0.0
 10
110.8717297146
 20
161.5391931321
 30
0.0
 10
110.7401232266
 20
161.7055777142
 30
0.0
 10
110.5607489582
 20
161.8151555903
 30
0.0
 10
110.4229456798
 20
161.8406236301
 30
0.0
 10
110.3549515085
 20
161.8406236301
 30
0.0
  0
SPLINE
  5
2D8
100
AcDbEntity
  8
RUNDUNGEN
100
AcDbSpline
 62
7
  6
CONTINUOUS
 70
0
 71
3
 72
9
 73
5
 74
0
 42
0.0000001
 43
0.0000001
 44
0.0000000001
 40
0.0
 40
0.0
 40
0.0
 40
0.0
 40
0.5070831773
 40
1.0
 40
1.0
 40
1.0
 40
1.0
 10
114.8744586928
 20
155.8406236301
 30
0.0
 10
114.8744624803
 20
155.506003594
 30
0.0
 10
114.8906256156
 20
154.8460109936
 30
0.0
 10
114.9399031031
 20
154.1876181205
 30
0.0
 10
114.9731734915
 20
153.8640523487
 30
0.0
  0
SPLINE
  5
2D9
100
AcDbEntity
  8
RUNDUNGEN
100
AcDbSpline
 62
7
  6
CONTINUOUS
 70
0
 71
3
 72
13
 73
9
 74
0
 42
0.0000001
 43
0.0000001
 44
0.0000000001
 40
0.0
 40
0.0
 40
0.0
 40
0.0
 40
0.2958615487
 40
0.5667836307
 40
0.6881882956
 40
0.799389939
 40
0.9022242476
 40
1.0
 40
1.0
 40
1.0
 40
1.0
 10
108.6178623706
 20
161.2406236301
 30
0.0
 10
108.6178624039
 20
161.3178000032
 30
0.0
 10
108.5997253342
 20
161.4662504366
 30
0.0
 10
108.5304385919
 20
161.6352598191
 30
0.0
 10
108.4496245383
 20
161.7397800308
 30
0.0
 10
108.3821420897
 20
161.7967350982
 30
0.0
 10
108.3079468703
 20
161.8323495231
 30
0.0
 10
108.2553244043
 20
161.8406236301
 30
0.0
 10
108.2298193058
 20
161.8406236301
 30
0.0
  0
SPLINE
  5
2DA
100
AcDbEntity
  8
RUNDUNGEN
100
AcDbSpline
 62
7
  6
CONTINUOUS
 70
0
 71
3
 72
13
 73
9
 74
0
 42
0.0000001
 43
0.0000001
 44
0.0000000001
 40
0.0
 40
0.0
 40
0.0
 40
0.0
 40
0.295861579
 40
0.566783698
 40
0.6881883694
 40
0.7993900065
 40
0.902224292
 40
1.0
 40
1.0
 40
1.0
 40
1.0
 10
100.2102626294
 20
161.2406236301
 30
0.0
 10
100.2102626293
 20
161.3178000039
 30
0.0
 10
100.2283997492
 20
161.466250432
 30
0.0
 10
100.2976865092
 20
161.635259805
 30
0.0
 10
100.3785005523
 20
161.7397800201
 30
0.0
 10
100.4459829786
 20
161.7967350914
 30
0.0
 10
100.5201781668
 20
161.8323495185
 30
0.0
 10
100.5728006098
 20
161.8406236301
 30
0.0
 10
100.5983056943
 20
161.8406236301
 30
0.0
  0
SPLINE
  5
2DB
100
AcDbEntity
  8
RUNDUNGEN
100
AcDbSpline
 62
7
  6
CONTINUOUS
 70
0
 71
3
 72
14
 73
10
 74
0
 42
0.0000001
 43
0.0000001
 44
0.0000000001
 40
0.0
 40
0.0
 40
0.0
 40
0.0
 40
0.2690412933
 40
0.401459622
 40
0.5312359251
 40
0.6572833988
 40
0.778338881
 40
0.8930101746
 40
1.0
 40
1.0
 40
1.0
 40
1.0
 10
104.4140625
 20
151.8406236301
 30
0.0
 10
104.7794564273
 20
151.6790087866
 30
0.0
 10
105.3247088264
 20
151.4378066535
 30
0.0
 10
106.0524894815
 20
151.1332124913
 30
0.0
 10
106.5892233804
 20
150.9224456278
 30
0.0
 10
107.1169195617
 20
150.7355330439
 30
0.0
 10
107.6320640765
 20
150.5816693839
 30
0.0
 10
108.1297955279
 20
150.4729887818
 30
0.0
 10
108.4589771057
 20
150.4406196432
 30
0.0
 10
108.6178623707
 20
150.4406236301
 30
0.0
  0
SPLINE
  5
2DC
100
AcDbEntity
  8
RUNDUNGEN
100
AcDbSpline
 62
7
  6
CONTINUOUS
 70
0
 71
3
 72
13
 73
9
 74
0
 42
0.0000001
 43
0.0000001
 44
0.0000000001
 40
0.0
 40
0.0
 40
0.0
 40
0.0
 40
0.2958615789
 40
0.566783698
 40
0.6881883694
 40
0.7993900065
 40
0.902224292
 40
1.0
 40
1.0
 40
1.0
 40
1.0
 10
108.6178623706
 20
150.4406236301
 30
0.0
 10
108.6178623707
 20
150.3634472564
 30
0.0
 10
108.5997252508
 20
150.2149968283
 30
0.0
 10
108.5304384909
 20
150.0459874553
 30
0.0
 10
108.4496244477
 20
149.9414672401
 30
0.0
 10
108.3821420214
 20
149.8845121689
 30
0.0
 10
108.3079468332
 20
149.8488977417
 30
0.0
 10
108.2553243902
 20
149.8406236301
 30
0.0
 10
108.2298193057
 20
149.8406236301
 30
0.0
  0
SPLINE
  5
2DD
100
AcDbEntity
  8
RUNDUNGEN
100
AcDbSpline
 62
7
  6
CONTINUOUS
 70
0
 71
3
 72
14
 73
10
 74
0
 42
0.0000001
 43
0.0000001
 44
0.0000000001
 40
0.0
 40
0.0
 40
0.0
 40
0.0
 40
0.1070186638
 40
0.2217226704
 40
0.342808401
 40
0.4688696775
 40
0.598642667
 40
0.7310421167
 40
1.0
 40
1.0
 40
1.0
 40
1.0
 10
100.2102626293
 20
150.4406236301
 30
0.0
 10
100.3691906871
 20
150.4406199807
 30
0.0
 10
100.6984635871
 20
150.473004636
 30
0.0
 10
101.1963236104
 20
150.5817356623
 30
0.0
 10
101.7115713397
 20
150.7356528347
 30
0.0
 10
102.2393114839
 20
150.9226213939
 30
0.0
 10
102.7760380543
 20
151.1333716652
 30
0.0
 10
103.5036695592
 20
151.4379167321
 30
0.0
 10
104.0487636163
 20
151.6791003419
 30
0.0
 10
104.4140625
 20
151.8406236301
 30
0.0
  0
SPLINE
  5
2DE
100
AcDbEntity
  8
RUNDUNGEN
100
AcDbSpline
 62
7
  6
CONTINUOUS
 70
0
 71
3
 72
11
 73
7
 74
0
 42
0.0000001
 43
0.0000001
 44
0.0000000001
 40
0.0
 40
0.0
 40
0.0
 40
0.0
 40
0.2540158474
 40
0.5053041063
 40
0.7536149458
 40
1.0
 40
1.0
 40
1.0
 40
1.0
 10
97.9007866649
 20
161.3344788328
 30
0.0
 10
97.911393548
 20
161.4037717382
 30
0.0
 10
97.9563952854
 20
161.5391931322
 30
0.0
 10
98.0880017734
 20
161.7055777142
 30
0.0
 10
98.2673760418
 20
161.8151555903
 30
0.0
 10
98.4051793202
 20
161.8406236301
 30
0.0
 10
98.4731734915
 20
161.8406236301
 30
0.0
  0
SPLINE
  5
2DF
100
AcDbEntity
  8
RUNDUNGEN
100
AcDbSpline
 62
7
  6
CONTINUOUS
 70
0
 71
3
 72
11
 73
7
 74
0
 42
0.0000001
 43
0.0000001
 44
0.0000000001
 40
0.0
 40
0.0
 40
0.0
 40
0.0
 40
0.2540158474
 40
0.5053041063
 40
0.7536149458
 40
1.0
 40
1.0
 40
1.0
 40
1.0
 10
110.9273383351
 20
150.3467684274
 30
0.0
 10
110.916731452
 20
150.277475522
 30
0.0
 10
110.8717297146
 20
150.1420541281
 30
0.0
 10
110.7401232266
 20
149.9756695461
 30
0.0
 10
110.5607489582
 20
149.86609167
 30
0.0
 10
110.4229456798
 20
149.8406236301
 30
0.0
 10
110.3549515085
 20
149.8406236301
 30
0.0
  0
SPLINE
  5
2E0
100
AcDbEntity
  8
RUNDUNGEN
100
AcDbSpline
 62
7
  6
CONTINUOUS
 70
0
 71
3
 72
11
 73
7
 74
0
 42
0.0000001
 43
0.0000001
 44
0.0000000001
 40
0.0
 40
0.0
 40
0.0
 40
0.0
 40
0.2540157725
 40
0.5053041443
 40
0.7536149902
 40
1.0
 40
1.0
 40
1.0
 40
1.0
 10
94.4416739275
 20
161.3344675364
 30
0.0
 10
94.452279672
 20
161.4037615595
 30
0.0
 10
94.4972798833
 20
161.5391856004
 30
0.0
 10
94.6288862218
 20
161.7055741269
 30
0.0
 10
94.8082622427
 20
161.8151548863
 30
0.0
 10
94.9460674163
 20
161.8406236301
 30
0.0
 10
95.0140625
 20
161.8406236301
 30
0.0
  0
SPLINE
  5
2E1
100
AcDbEntity
  8
RUNDUNGEN
100
AcDbSpline
 62
7
  6
CONTINUOUS
 70
0
 71
3
 72
9
 73
5
 74
0
 42
0.0000001
 43
0.0000001
 44
0.0000000001
 40
0.0
 40
0.0
 40
0.0
 40
0.0
 40
0.4929113504
 40
1.0
 40
1.0
 40
1.0
 40
1.0
 10
114.3936179958
 20
158.0148520398
 30
0.0
 10
114.3603282272
 20
157.6587067777
 30
0.0
 10
114.3110584919
 20
156.9343847615
 30
0.0
 10
114.2949070687
 20
156.208609581
 30
0.0
 10
114.294903197
 20
155.8406236301
 30
0.0
  0
SPLINE
  5
2E2
100
AcDbEntity
  8
RUNDUNGEN
100
AcDbSpline
 62
7
  6
CONTINUOUS
 70
0
 71
3
 72
9
 73
5
 74
0
 42
0.0000001
 43
0.0000001
 44
0.0000000001
 40
0.0
 40
0.0
 40
0.0
 40
0.0
 40
0.4929090177
 40
1.0
 40
1.0
 40
1.0
 40
1.0
 10
94.4345070042
 20
153.6663952205
 30
0.0
 10
94.4677964026
 20
154.0225388189
 30
0.0
 10
94.5170676157
 20
154.7468607693
 30
0.0
 10
94.5332168155
 20
155.4726359844
 30
0.0
 10
94.533221803
 20
155.8406236301
 30
0.0
  0
SPLINE
  5
2E3
100
AcDbEntity
  8
RUNDUNGEN
100
AcDbSpline
 62
7
  6
CONTINUOUS
 70
0
 71
3
 72
9
 73
5
 74
0
 42
0.0000001
 43
0.0000001
 44
0.0000000001
 40
0.0
 40
0.0
 40
0.0
 40
0.0
 40
0.5070886504
 40
1.0
 40
1.0
 40
1.0
 40
1.0
 10
94.533221803
 20
155.8406236301
 30
0.0
 10
94.5332179438
 20
156.2086095816
 30
0.0
 10
94.5170665073
 20
156.9343847625
 30
0.0
 10
94.4677967651
 20
157.6587067776
 30
0.0
 10
94.4345070042
 20
158.0148520398
 30
0.0
  0
SPLINE
  5
2E4
100
AcDbEntity
  8
RUNDUNGEN
100
AcDbSpline
 62
7
  6
CONTINUOUS
 70
0
 71
3
 72
11
 73
7
 74
0
 42
0.0000001
 43
0.0000001
 44
0.0000000001
 40
0.0
 40
0.0
 40
0.0
 40
0.0
 40
0.2540210988
 40
0.5056596922
 40
0.753985433
 40
1.0
 40
1.0
 40
1.0
 40
1.0
 10
114.3936179958
 20
150.4406236301
 30
0.0
 10
114.3936179958
 20
150.3626779981
 30
0.0
 10
114.3638247863
 20
150.2058888318
 30
0.0
 10
114.2355667195
 20
150.0065899912
 30
0.0
 10
114.0429856235
 20
149.8722237176
 30
0.0
 10
113.8895513511
 20
149.8406236301
 30
0.0
 10
113.8140625
 20
149.8406236301
 30
0.0
  0
SPLINE
  5
2E5
100
AcDbEntity
  8
RUNDUNGEN
100
AcDbSpline
 62
7
  6
CONTINUOUS
 70
0
 71
3
 72
14
 73
10
 74
0
 42
0.0000001
 43
0.0000001
 44
0.0000000001
 40
0.0
 40
0.0
 40
0.0
 40
0.0
 40
0.2826817966
 40
0.4202438101
 40
0.553107882
 40
0.6793995029
 40
0.7970975851
 40
0.9042744575
 40
1.0
 40
1.0
 40
1.0
 40
1.0
 10
104.4140625
 20
159.8406236301
 30
0.0
 10
104.0772296568
 20
160.0749506722
 30
0.0
 10
103.5766948172
 20
160.4237152997
 30
0.0
 10
102.9057709977
 20
160.8647972982
 30
0.0
 10
102.4152645911
 20
161.1667314235
 30
0.0
 10
101.936486826
 20
161.4318308546
 30
0.0
 10
101.4735467341
 20
161.6469110426
 30
0.0
 10
101.0317301652
 20
161.7962735395
 30
0.0
 10
100.737303628
 20
161.8406259465
 30
0.0
 10
100.5983542585
 20
161.8406236294
 30
0.0
  0
SPLINE
  5
2E6
100
AcDbEntity
  8
RUNDUNGEN
100
AcDbSpline
 62
7
  6
CONTINUOUS
 70
0
 71
3
 72
13
 73
9
 74
0
 42
0.0000001
 43
0.0000001
 44
0.0000000001
 40
0.0
 40
0.0
 40
0.0
 40
0.0
 40
0.1099498435
 40
0.2225723566
 40
0.4622080964
 40
0.5911345526
 40
0.7248093286
 40
1.0
 40
1.0
 40
1.0
 40
1.0
 10
115.0140625
 20
161.8406236301
 30
0.0
 10
114.9801928831
 20
161.840624621
 30
0.0
 10
114.9114206604
 20
161.8333982232
 30
0.0
 10
114.7749582203
 20
161.7901503996
 30
0.0
 10
114.6491529986
 20
161.7052544067
 30
0.0
 10
114.544479467
 20
161.59056373
 30
0.0
 10
114.4537946781
 20
161.4518662332
 30
0.0
 10
114.4140542053
 20
161.3254908393
 30
0.0
 10
114.4140625076
 20
161.2407194356
 30
0.0
  0
SPLINE
  5
2E7
100
AcDbEntity
  8
RUNDUNGEN
100
AcDbSpline
 62
7
  6
CONTINUOUS
 70
0
 71
3
 72
9
 73
5
 74
0
 42
0.0000001
 43
0.0000001
 44
0.0000000001
 40
0.0
 40
0.0
 40
0.0
 40
0.0
 40
0.2547567881
 40
1.0
 40
1.0
 40
1.0
 40
1.0
 10
93.8549515085
 20
157.8171949116
 30
0.0
 10
93.8490862053
 20
157.8742566198
 30
0.0
 10
93.8275302129
 20
158.0983540884
 30
0.0
 10
93.8140772223
 20
158.3235120166
 30
0.0
 10
93.8140625
 20
158.4913148429
 30
0.0
  0
SPLINE
  5
2E8
100
AcDbEntity
  8
RUNDUNGEN
100
AcDbSpline
 62
7
  6
CONTINUOUS
 70
0
 71
3
 72
9
 73
5
 74
0
 42
0.0000001
 43
0.0000001
 44
0.0000000001
 40
0.0
 40
0.0
 40
0.0
 40
0.0
 40
0.5070807748
 40
1.0
 40
1.0
 40
1.0
 40
1.0
 10
93.9536663072
 20
155.8406236301
 30
0.0
 10
93.95366334
 20
156.1752420788
 30
0.0
 10
93.9374984931
 20
156.8352346459
 30
0.0
 10
93.8882222193
 20
157.4936275812
 30
0.0
 10
93.8549515085
 20
157.8171949116
 30
0.0
  0
SPLINE
  5
2E9
100
AcDbEntity
  8
RUNDUNGEN
100
AcDbSpline
 62
7
  6
CONTINUOUS
 70
0
 71
3
 72
14
 73
10
 74
0
 42
0.0000001
 43
0.0000001
 44
0.0000000001
 40
0.0
 40
0.0
 40
0.0
 40
0.0
 40
0.0752274136
 40
0.1609953504
 40
0.2631953889
 40
0.3836241399
 40
0.5210165191
 40
0.6724408567
 40
1.0
 40
1.0
 40
1.0
 40
1.0
 10
114.4140625
 20
158.7563839642
 30
0.0
 10
114.4140625
 20
158.7387367153
 30
0.0
 10
114.4232735651
 20
158.7006907574
 30
0.0
 10
114.4603077548
 20
158.6499809383
 30
0.0
 10
114.5174572511
 20
158.6046595102
 30
0.0
 10
114.5926383564
 20
158.5654048275
 30
0.0
 10
114.683352722
 20
158.5332047655
 30
0.0
 10
114.8244187299
 20
158.5005520309
 30
0.0
 10
114.9372219249
 20
158.4913151519
 30
0.0
 10
115.0140625
 20
158.4913148429
 30
0.0
  0
SPLINE
  5
2EA
100
AcDbEntity
  8
RUNDUNGEN
100
AcDbSpline
 62
7
  6
CONTINUOUS
 70
0
 71
3
 72
9
 73
5
 74
0
 42
0.0000001
 43
0.0000001
 44
0.0000000001
 40
0.0
 40
0.0
 40
0.0
 40
0.0
 40
0.4929168227
 40
1.0
 40
1.0
 40
1.0
 40
1.0
 10
93.8549515085
 20
153.8640523487
 30
0.0
 10
93.8882218989
 20
154.1876181203
 30
0.0
 10
93.9374993825
 20
154.8460109938
 30
0.0
 10
93.953662519
 20
155.506003594
 30
0.0
 10
93.9536663072
 20
155.8406236301
 30
0.0
  0
SPLINE
  5
2EB
100
AcDbEntity
  8
RUNDUNGEN
100
AcDbSpline
 62
7
  6
CONTINUOUS
 70
0
 71
3
 72
9
 73
5
 74
0
 42
0.0000001
 43
0.0000001
 44
0.0000000001
 40
0.0
 40
0.0
 40
0.0
 40
0.0
 40
0.2450354458
 40
1.0
 40
1.0
 40
1.0
 40
1.0
 10
93.8140625
 20
153.1899324173
 30
0.0
 10
93.8140673526
 20
153.2451104044
 30
0.0
 10
93.8186075823
 20
153.4703035031
 30
0.0
 10
93.8375682663
 20
153.6949377017
 30
0.0
 10
93.8549515085
 20
153.8640523487
 30
0.0
  0
SPLINE
  5
2EC
100
AcDbEntity
  8
RUNDUNGEN
100
AcDbSpline
 62
7
  6
CONTINUOUS
 70
0
 71
3
 72
13
 73
9
 74
0
 42
0.0000001
 43
0.0000001
 44
0.0000000001
 40
0.0
 40
0.0
 40
0.0
 40
0.0
 40
0.0741628373
 40
0.1657900552
 40
0.274748263
 40
0.3994546052
 40
0.6860587902
 40
1.0
 40
1.0
 40
1.0
 40
1.0
 10
114.3936189477
 20
158.0148520398
 30
0.0
 10
114.4026119112
 20
158.0023008014
 30
0.0
 10
114.4274114435
 20
157.9776729326
 30
0.0
 10
114.4749607383
 20
157.9455927781
 30
0.0
 10
114.5357334526
 20
157.9153370234
 30
0.0
 10
114.6370247968
 20
157.876634369
 30
0.0
 10
114.7839148336
 20
157.8395918113
 30
0.0
 10
114.9080379027
 20
157.82262185
 30
0.0
 10
114.9731734916
 20
157.8171932088
 30
0.0
  0
SPLINE
  5
2ED
100
AcDbEntity
  8
RUNDUNGEN
100
AcDbSpline
 62
7
  6
CONTINUOUS
 70
0
 71
3
 72
13
 73
9
 74
0
 42
0.0000001
 43
0.0000001
 44
0.0000000001
 40
0.0
 40
0.0
 40
0.0
 40
0.0
 40
0.074163531
 40
0.1657914525
 40
0.2747501636
 40
0.3994567039
 40
0.6860602741
 40
1.0
 40
1.0
 40
1.0
 40
1.0
 10
114.3936177733
 20
153.6663952205
 30
0.0
 10
114.4026111271
 20
153.6789463538
 30
0.0
 10
114.4274113012
 20
153.703573942
 30
0.0
 10
114.4749612774
 20
153.7356537581
 30
0.0
 10
114.5357344575
 20
153.765909188
 30
0.0
 10
114.6370259718
 20
153.8046113796
 30
0.0
 10
114.7839156334
 20
153.8416536045
 30
0.0
 10
114.9080382298
 20
153.858623577
 30
0.0
 10
114.9731734915
 20
153.8640522924
 30
0.0
  0
SPLINE
  5
2EE
100
AcDbEntity
  8
RUNDUNGEN
100
AcDbSpline
 62
7
  6
CONTINUOUS
 70
0
 71
3
 72
14
 73
10
 74
0
 42
0.0000001
 43
0.0000001
 44
0.0000000001
 40
0.0
 40
0.0
 40
0.0
 40
0.0
 40
0.0752283202
 40
0.1609966783
 40
0.2631967624
 40
0.3836253344
 40
0.521017425
 40
0.6724414356
 40
1.0
 40
1.0
 40
1.0
 40
1.0
 10
114.4140625
 20
152.9248632961
 30
0.0
 10
114.4140625
 20
152.9425107824
 30
0.0
 10
114.4232734725
 20
152.9805571248
 30
0.0
 10
114.4603076512
 20
153.0312674867
 30
0.0
 10
114.5174572028
 20
153.0765891469
 30
0.0
 10
114.592638346
 20
153.115843817
 30
0.0
 10
114.6833527358
 20
153.1480436744
 30
0.0
 10
114.8244187749
 20
153.1806959396
 30
0.0
 10
114.9372219529
 20
153.1899324174
 30
0.0
 10
115.0140625
 20
153.1899324174
 30
0.0
  0
SPLINE
  5
2EF
100
AcDbEntity
  8
RUNDUNGEN
100
AcDbSpline
 62
7
  6
CONTINUOUS
 70
0
 71
3
 72
13
 73
9
 74
0
 42
0.0000001
 43
0.0000001
 44
0.0000000001
 40
0.0
 40
0.0
 40
0.0
 40
0.0
 40
0.2751916542
 40
0.4088676507
 40
0.5377920549
 40
0.7774275874
 40
0.8900512685
 40
1.0
 40
1.0
 40
1.0
 40
1.0
 10
114.4140625081
 20
150.4405249279
 30
0.0
 10
114.4140539663
 20
150.3557534952
 30
0.0
 10
114.4537940901
 20
150.2293769767
 30
0.0
 10
114.5444828073
 20
150.0906827735
 30
0.0
 10
114.6491540885
 20
149.9759913851
 30
0.0
 10
114.7749595551
 20
149.8910966095
 30
0.0
 10
114.9114212377
 20
149.8478489917
 30
0.0
 10
114.9801933351
 20
149.8406215522
 30
0.0
 10
115.0140625
 20
149.8406236301
 30
0.0
  0
SPLINE
  5
2F0
100
AcDbEntity
  8
RUNDUNGEN
100
AcDbSpline
 62
7
  6
CONTINUOUS
 70
0
 71
3
 72
9
 73
5
 74
0
 42
0.0000001
 43
0.0000001
 44
0.0000000001
 40
0.0
 40
0.0
 40
0.0
 40
0.0
 40
0.5070909827
 40
1.0
 40
1.0
 40
1.0
 40
1.0
 10
114.294903197
 20
155.8406236301
 30
0.0
 10
114.2949081846
 20
155.4726359841
 30
0.0
 10
114.3110573812
 20
154.7468607689
 30
0.0
 10
114.3603286003
 20
154.022538819
 30
0.0
 10
114.3936179958
 20
153.6663952205
 30
0.0
  0
SPLINE
  5
2F1
100
AcDbEntity
  8
RUNDUNGEN
100
AcDbSpline
 62
7
  6
CONTINUOUS
 70
0
 71
3
 72
14
 73
10
 74
0
 42
0.0000001
 43
0.0000001
 44
0.0000000001
 40
0.0
 40
0.0
 40
0.0
 40
0.0
 40
0.0957246298
 40
0.202900686
 40
0.3205981032
 40
0.4468893
 40
0.5797530796
 40
0.7173147572
 40
1.0
 40
1.0
 40
1.0
 40
1.0
 10
108.2297722025
 20
161.8406236294
 30
0.0
 10
108.0908241096
 20
161.8406258775
 30
0.0
 10
107.7963999165
 20
161.7962747899
 30
0.0
 10
107.354586154
 20
161.6469141852
 30
0.0
 10
106.8916479081
 20
161.4318362146
 30
0.0
 10
106.4128714284
 20
161.1667381481
 30
0.0
 10
105.9223662427
 20
160.8648046052
 30
0.0
 10
105.2514375828
 20
160.4237219724
 30
0.0
 10
104.7509015124
 20
160.0749508134
 30
0.0
 10
104.4140625
 20
159.8406236301
 30
0.0
  0
SPLINE
  5
2F2
100
AcDbEntity
  8
RUNDUNGEN
100
AcDbSpline
 62
7
  6
CONTINUOUS
 70
0
 71
3
 72
13
 73
9
 74
0
 42
0.0000001
 43
0.0000001
 44
0.0000000001
 40
0.0
 40
0.0
 40
0.0
 40
0.0
 40
0.1099498919
 40
0.2225721214
 40
0.4622078211
 40
0.591133792
 40
0.7248084083
 40
1.0
 40
1.0
 40
1.0
 40
1.0
 10
93.8140625
 20
149.8406236301
 30
0.0
 10
93.8479323272
 20
149.8406228528
 30
0.0
 10
93.9167049111
 20
149.847848783
 30
0.0
 10
94.0531679091
 20
149.8910973924
 30
0.0
 10
94.1789739527
 20
149.9759933873
 30
0.0
 10
94.2836469646
 20
150.0906853804
 30
0.0
 10
94.3743331133
 20
150.2293834776
 30
0.0
 10
94.4140703607
 20
150.3557606937
 30
0.0
 10
94.4140624932
 20
150.44053287
 30
0.0
  0
SPLINE
  5
2F3
100
AcDbEntity
  8
RUNDUNGEN
100
AcDbSpline
 62
7
  6
CONTINUOUS
 70
0
 71
3
 72
14
 73
10
 74
0
 42
0.0000001
 43
0.0000001
 44
0.0000000001
 40
0.0
 40
0.0
 40
0.0
 40
0.0
 40
0.0752274212
 40
0.1609953614
 40
0.2631954003
 40
0.3836241498
 40
0.5210165266
 40
0.6724408614
 40
1.0
 40
1.0
 40
1.0
 40
1.0
 10
94.4140625
 20
152.9248632961
 30
0.0
 10
94.4140625
 20
152.9425105469
 30
0.0
 10
94.4048514356
 20
152.980556508
 30
0.0
 10
94.3678172461
 20
153.0312663317
 30
0.0
 10
94.3106677493
 20
153.0765877617
 30
0.0
 10
94.2354866437
 20
153.1158424443
 30
0.0
 10
94.1447722779
 20
153.1480425046
 30
0.0
 10
94.0037062697
 20
153.1806952353
 30
0.0
 10
93.8909030748
 20
153.189932111
 30
0.0
 10
93.8140625
 20
153.1899324174
 30
0.0
  0
SPLINE
  5
2F4
100
AcDbEntity
  8
RUNDUNGEN
100
AcDbSpline
 62
7
  6
CONTINUOUS
 70
0
 71
3
 72
14
 73
10
 74
0
 42
0.0000001
 43
0.0000001
 44
0.0000000001
 40
0.0
 40
0.0
 40
0.0
 40
0.0
 40
0.2826589808
 40
0.4202225307
 40
0.5530843243
 40
0.6793794272
 40
0.7970756876
 40
0.9042649386
 40
1.0
 40
1.0
 40
1.0
 40
1.0
 10
104.4140625
 20
151.8406236301
 30
0.0
 10
104.7508771461
 20
151.6063204611
 30
0.0
 10
105.2513840571
 20
151.2575576777
 30
0.0
 10
105.9222883586
 20
150.8164925323
 30
0.0
 10
106.4127908325
 20
150.5145317245
 30
0.0
 10
106.8915819811
 20
150.2494455486
 30
0.0
 10
107.3545438129
 20
150.0343506838
 30
0.0
 10
107.7963924426
 20
149.8849777343
 30
0.0
 10
108.0908545795
 20
149.8406150828
 30
0.0
 10
108.2298193057
 20
149.8406236301
 30
0.0
  0
SPLINE
  5
2F5
100
AcDbEntity
  8
RUNDUNGEN
100
AcDbSpline
 62
7
  6
CONTINUOUS
 70
0
 71
3
 72
14
 73
10
 74
0
 42
0.0000001
 43
0.0000001
 44
0.0000000001
 40
0.0
 40
0.0
 40
0.0
 40
0.0
 40
0.2690559524
 40
0.401473069
 40
0.5312517118
 40
0.6572983113
 40
0.7783554619
 40
0.8930184783
 40
1.0
 40
1.0
 40
1.0
 40
1.0
 10
104.4140625
 20
159.8406236301
 30
0.0
 10
104.0486436087
 20
160.0022359908
 30
0.0
 10
103.5033785613
 20
160.2434587216
 30
0.0
 10
102.7755760785
 20
160.5480627845
 30
0.0
 10
102.2388304925
 20
160.7588002755
 30
0.0
 10
101.7111392868
 20
160.9457405462
 30
0.0
 10
101.1960045696
 20
161.0995994779
 30
0.0
 10
100.6982931497
 20
161.2082714499
 30
0.0
 10
100.3691355855
 20
161.2406252917
 30
0.0
 10
100.2102626293
 20
161.2406236301
 30
0.0
  0
SPLINE
  5
2F6
100
AcDbEntity
  8
RUNDUNGEN
100
AcDbSpline
 62
7
  6
CONTINUOUS
 70
0
 71
3
 72
9
 73
5
 74
0
 42
0.0000001
 43
0.0000001
 44
0.0000000001
 40
0.0
 40
0.0
 40
0.0
 40
0.0
 40
0.2485956921
 40
1.0
 40
1.0
 40
1.0
 40
1.0
 10
114.4140625
 20
158.7563839642
 30
0.0
 10
114.4140619206
 20
158.6949097446
 30
0.0
 10
114.4117635955
 20
158.447621681
 30
0.0
 10
114.4022936164
 20
158.2004611165
 30
0.0
 10
114.3936179958
 20
158.0148520398
 30
0.0
  0
SPLINE
  5
2F7
100
AcDbEntity
  8
RUNDUNGEN
100
AcDbSpline
 62
7
  6
CONTINUOUS
 70
0
 71
3
 72
9
 73
5
 74
0
 42
0.0000001
 43
0.0000001
 44
0.0000000001
 40
0.0
 40
0.0
 40
0.0
 40
0.0
 40
0.2513074919
 40
1.0
 40
1.0
 40
1.0
 40
1.0
 10
114.3936179958
 20
153.6663952205
 30
0.0
 10
114.3965195016
 20
153.6043192903
 30
0.0
 10
114.4073204272
 20
153.3572813479
 30
0.0
 10
114.4140607614
 20
153.1100011314
 30
0.0
 10
114.4140625
 20
152.9248632961
 30
0.0
  0
SPLINE
  5
2F8
100
AcDbEntity
  8
RUNDUNGEN
100
AcDbSpline
 62
7
  6
CONTINUOUS
 70
0
 71
3
 72
9
 73
5
 74
0
 42
0.0000001
 43
0.0000001
 44
0.0000000001
 40
0.0
 40
0.0
 40
0.0
 40
0.0
 40
0.2513075015
 40
1.0
 40
1.0
 40
1.0
 40
1.0
 10
94.4345070042
 20
158.0148520398
 30
0.0
 10
94.4316054988
 20
158.0769279724
 30
0.0
 10
94.4208045618
 20
158.3239659143
 30
0.0
 10
94.414064237
 20
158.5712461313
 30
0.0
 10
94.4140625
 20
158.7563839642
 30
0.0
  0
SPLINE
  5
2F9
100
AcDbEntity
  8
RUNDUNGEN
100
AcDbSpline
 62
7
  6
CONTINUOUS
 70
0
 71
3
 72
9
 73
5
 74
0
 42
0.0000001
 43
0.0000001
 44
0.0000000001
 40
0.0
 40
0.0
 40
0.0
 40
0.0
 40
0.2485956898
 40
1.0
 40
1.0
 40
1.0
 40
1.0
 10
94.4140625
 20
152.9248632961
 30
0.0
 10
94.4140630786
 20
152.9863375151
 30
0.0
 10
94.4163614177
 20
153.2336255786
 30
0.0
 10
94.4258313846
 20
153.4807861432
 30
0.0
 10
94.4345070042
 20
153.6663952205
 30
0.0
  0
SPLINE
  5
2FA
100
AcDbEntity
  8
RUNDUNGEN
100
AcDbSpline
 62
7
  6
CONTINUOUS
 70
0
 71
3
 72
13
 73
9
 74
0
 42
0.0000001
 43
0.0000001
 44
0.0000000001
 40
0.0
 40
0.0
 40
0.0
 40
0.0
 40
0.2751929081
 40
0.4088690432
 40
0.5377922469
 40
0.7774281638
 40
0.8900510937
 40
1.0
 40
1.0
 40
1.0
 40
1.0
 10
94.4140624926
 20
161.2407181445
 30
0.0
 10
94.4140706716
 20
161.3254903856
 30
0.0
 10
94.3743337584
 20
161.4518690195
 30
0.0
 10
94.283642824
 20
161.5905629862
 30
0.0
 10
94.1789728774
 20
161.7052563125
 30
0.0
 10
94.0531662622
 20
161.7901498695
 30
0.0
 10
93.916704212
 20
161.8333989905
 30
0.0
 10
93.8479318875
 20
161.8406247257
 30
0.0
 10
93.8140625
 20
161.8406236301
 30
0.0
  0
SPLINE
  5
2FB
100
AcDbEntity
  8
RUNDUNGEN
100
AcDbSpline
 62
7
  6
CONTINUOUS
 70
0
 71
3
 72
14
 73
10
 74
0
 42
0.0000001
 43
0.0000001
 44
0.0000000001
 40
0.0
 40
0.0
 40
0.0
 40
0.0
 40
0.0752283202
 40
0.1609966783
 40
0.2631967625
 40
0.3836253345
 40
0.5210174251
 40
0.6724414356
 40
1.0
 40
1.0
 40
1.0
 40
1.0
 10
94.4140625
 20
158.7563839642
 30
0.0
 10
94.4140625
 20
158.7387364779
 30
0.0
 10
94.4048515275
 20
158.7006901355
 30
0.0
 10
94.3678173488
 20
158.6499797735
 30
0.0
 10
94.3106677971
 20
158.6046581134
 30
0.0
 10
94.235486654
 20
158.5654034433
 30
0.0
 10
94.1447722641
 20
158.5332035858
 30
0.0
 10
94.0037062251
 20
158.5005513207
 30
0.0
 10
93.890903047
 20
158.4913148429
 30
0.0
 10
93.8140625
 20
158.4913148429
 30
0.0
  0
SPLINE
  5
2FC
100
AcDbEntity
  8
RUNDUNGEN
100
AcDbSpline
 62
7
  6
CONTINUOUS
 70
0
 71
3
 72
13
 73
9
 74
0
 42
0.0000001
 43
0.0000001
 44
0.0000000001
 40
0.0
 40
0.0
 40
0.0
 40
0.0
 40
0.0741635303
 40
0.1657914525
 40
0.2747501647
 40
0.3994567058
 40
0.6860602754
 40
1.0
 40
1.0
 40
1.0
 40
1.0
 10
94.4345072198
 20
158.0148520398
 30
0.0
 10
94.4255138656
 20
158.0023009073
 30
0.0
 10
94.4007136905
 20
157.9776733209
 30
0.0
 10
94.3531637138
 20
157.9455935068
 30
0.0
 10
94.2923905336
 20
157.9153380782
 30
0.0
 10
94.1910990206
 20
157.8766358875
 30
0.0
 10
94.0442093622
 20
157.8395936613
 30
0.0
 10
93.9200867687
 20
157.8226236857
 30
0.0
 10
93.8549515085
 20
157.8171949682
 30
0.0
  0
SPLINE
  5
2FD
100
AcDbEntity
  8
RUNDUNGEN
100
AcDbSpline
 62
7
  6
CONTINUOUS
 70
0
 71
3
 72
13
 73
9
 74
0
 42
0.0000001
 43
0.0000001
 44
0.0000000001
 40
0.0
 40
0.0
 40
0.0
 40
0.0
 40
0.0741628229
 40
0.1657900282
 40
0.2747482281
 40
0.3994545678
 40
0.6860587637
 40
1.0
 40
1.0
 40
1.0
 40
1.0
 10
94.4345060297
 20
153.6663952205
 30
0.0
 10
94.4255130732
 20
153.6789464602
 30
0.0
 10
94.400713552
 20
153.7035743329
 30
0.0
 10
94.3531642689
 20
153.735654492
 30
0.0
 10
94.2923915625
 20
153.7659102518
 30
0.0
 10
94.1911002214
 20
153.8046129145
 30
0.0
 10
94.044210179
 20
153.8416554805
 30
0.0
 10
93.9200871027
 20
153.8586254458
 30
0.0
 10
93.8549515084
 20
153.8640540886
 30
0.0
  0
SPLINE
  5
2FE
100
AcDbEntity
  8
RUNDUNGEN
100
AcDbSpline
 62
7
  6
CONTINUOUS
 70
0
 71
3
 72
15
 73
11
 74
0
 42
0.0000001
 43
0.0000001
 44
0.0000000001
 40
0.0
 40
0.0
 40
0.0
 40
0.0
 40
0.1820838727
 40
0.3579944764
 40
0.5209463339
 40
0.6655707194
 40
0.7873644435
 40
0.838665567
 40
0.8833356794
 40
1.0
 40
1.0
 40
1.0
 40
1.0
 10
224.13070917
 20
161.2406236301
 30
0.0
 10
224.13070917
 20
161.2796214844
 30
0.0
 10
224.1287760364
 20
161.3563084197
 30
0.0
 10
224.1202193445
 20
161.4676104896
 30
0.0
 10
224.1063490972
 20
161.5702797978
 30
0.0
 10
224.0876358729
 20
161.6604696894
 30
0.0
 10
224.068039745
 20
161.7255992328
 30
0.0
 10
224.0495339547
 20
161.768852072
 30
0.0
 10
224.028805367
 20
161.8079541421
 30
0.0
 10
224.0004043499
 20
161.8406236301
 30
0.0
 10
223.9754177429
 20
161.8406236301
 30
0.0
  0
SPLINE
  5
2FF
100
AcDbEntity
  8
RUNDUNGEN
100
AcDbSpline
 62
7
  6
CONTINUOUS
 70
0
 71
3
 72
15
 73
11
 74
0
 42
0.0000001
 43
0.0000001
 44
0.0000000001
 40
0.0
 40
0.0
 40
0.0
 40
0.0
 40
0.1820837824
 40
0.3579942672
 40
0.5209461965
 40
0.6655706563
 40
0.7873644103
 40
0.8386655432
 40
0.8833356644
 40
1.0
 40
1.0
 40
1.0
 40
1.0
 10
211.2211312005
 20
161.2406236301
 30
0.0
 10
211.2211312005
 20
161.279621465
 30
0.0
 10
211.2191980801
 20
161.3563083559
 30
0.0
 10
211.2106413777
 20
161.4676103954
 30
0.0
 10
211.1967711432
 20
161.5702797108
 30
0.0
 10
211.1780579164
 20
161.6604696406
 30
0.0
 10
211.1584617847
 20
161.7255992082
 30
0.0
 10
211.1399559919
 20
161.7688520577
 30
0.0
 10
211.1192274036
 20
161.8079541349
 30
0.0
 10
211.0908263837
 20
161.8406236301
 30
0.0
 10
211.0658397734
 20
161.8406236301
 30
0.0
  0
SPLINE
  5
300
100
AcDbEntity
  8
RUNDUNGEN
100
AcDbSpline
 62
7
  6
CONTINUOUS
 70
0
 71
3
 72
15
 73
11
 74
0
 42
0.0000001
 43
0.0000001
 44
0.0000000001
 40
0.0
 40
0.0
 40
0.0
 40
0.0
 40
0.3936017327
 40
0.5641236502
 40
0.7107137445
 40
0.8296119223
 40
0.9179795419
 40
0.9500585746
 40
0.9740498459
 40
1.0
 40
1.0
 40
1.0
 40
1.0
 10
211.2211314616
 20
153.6663952205
 30
0.0
 10
211.1645426188
 20
153.6875568061
 30
0.0
 10
211.0838403818
 20
153.718990026
 30
0.0
 10
210.9834468605
 20
153.7617399599
 30
0.0
 10
210.9225775731
 20
153.7894874865
 30
0.0
 10
210.8739237304
 20
153.8139219021
 30
0.0
 10
210.8421585949
 20
153.8319295594
 30
0.0
 10
210.8237064074
 20
153.8449658746
 30
0.0
 10
210.8147569548
 20
153.8526557355
 30
0.0
 10
210.808597248
 20
153.8602931596
 30
0.0
 10
210.8099093349
 20
153.8640540886
 30
0.0
  0
SPLINE
  5
301
100
AcDbEntity
  8
RUNDUNGEN
100
AcDbSpline
 62
7
  6
CONTINUOUS
 70
0
 71
3
 72
15
 73
11
 74
0
 42
0.0000001
 43
0.0000001
 44
0.0000000001
 40
0.0
 40
0.0
 40
0.0
 40
0.0
 40
0.3936025402
 40
0.5641242774
 40
0.7107139789
 40
0.8296117229
 40
0.9179790566
 40
0.9500580616
 40
0.9740494041
 40
1.0
 40
1.0
 40
1.0
 40
1.0
 10
211.2211311427
 20
158.0148520398
 30
0.0
 10
211.1645428732
 20
157.9936906948
 30
0.0
 10
211.0838415411
 20
157.9622578236
 30
0.0
 10
210.9834492684
 20
157.9195083031
 30
0.0
 10
210.9225809174
 20
157.8917610749
 30
0.0
 10
210.8739278965
 20
157.8673269194
 30
0.0
 10
210.8421633057
 20
157.8493194023
 30
0.0
 10
210.8237114591
 20
157.8362832014
 30
0.0
 10
210.8147620735
 20
157.8285932904
 30
0.0
 10
210.8086024989
 20
157.8209559523
 30
0.0
 10
210.8099144846
 20
157.8171949682
 30
0.0
  0
SPLINE
  5
302
100
AcDbEntity
  8
RUNDUNGEN
100
AcDbSpline
 62
7
  6
CONTINUOUS
 70
0
 71
3
 72
11
 73
7
 74
0
 42
0.0000001
 43
0.0000001
 44
0.0000000001
 40
0.0
 40
0.0
 40
0.0
 40
0.0
 40
0.2527244862
 40
0.5031896494
 40
0.7519899253
 40
1.0
 40
1.0
 40
1.0
 40
1.0
 10
208.9392661773
 20
161.2407181445
 30
0.0
 10
208.6267863015
 20
161.3287349287
 30
0.0
 10
208.0017363289
 20
161.4942822813
 30
0.0
 10
207.0548661379
 20
161.688970005
 30
0.0
 10
206.1019337703
 20
161.8124376256
 30
0.0
 10
205.4634145636
 20
161.8406258168
 30
0.0
 10
205.144831272
 20
161.8406236301
 30
0.0
  0
SPLINE
  5
303
100
AcDbEntity
  8
RUNDUNGEN
100
AcDbSpline
 62
7
  6
CONTINUOUS
 70
0
 71
3
 72
15
 73
11
 74
0
 42
0.0000001
 43
0.0000001
 44
0.0000000001
 40
0.0
 40
0.0
 40
0.0
 40
0.0
 40
0.1055303994
 40
0.2127940485
 40
0.3235086879
 40
0.4395273923
 40
0.5628212746
 40
0.6955855421
 40
0.8403257709
 40
1.0
 40
1.0
 40
1.0
 40
1.0
 10
236.144831272
 20
159.8406236301
 30
0.0
 10
236.1448061466
 20
159.9218301675
 30
0.0
 10
236.1289988083
 20
160.0859988772
 30
0.0
 10
236.057851972
 20
160.3260778164
 30
0.0
 10
235.9385527827
 20
160.5555054753
 30
0.0
 10
235.7702928319
 20
160.7679040743
 30
0.0
 10
235.5518520457
 20
160.9556893832
 30
0.0
 10
235.2820004908
 20
161.1090830824
 30
0.0
 10
234.9604306852
 20
161.2150930641
 30
0.0
 10
234.72532907
 20
161.2406251457
 30
0.0
 10
234.6024583906
 20
161.2406236301
 30
0.0
  0
SPLINE
  5
304
100
AcDbEntity
  8
RUNDUNGEN
100
AcDbSpline
 62
7
  6
CONTINUOUS
 70
0
 71
3
 72
15
 73
11
 74
0
 42
0.0000001
 43
0.0000001
 44
0.0000000001
 40
0.0
 40
0.0
 40
0.0
 40
0.0
 40
0.1597251855
 40
0.3045070391
 40
0.4372871499
 40
0.5605843951
 40
0.6765901037
 40
0.7872841712
 40
0.8945025032
 40
1.0
 40
1.0
 40
1.0
 40
1.0
 10
234.6024583906
 20
150.4406236301
 30
0.0
 10
234.7253681764
 20
150.4406203014
 30
0.0
 10
234.9605409514
 20
150.4661768121
 30
0.0
 10
235.2821812618
 20
150.5722434613
 30
0.0
 10
235.5520491294
 20
150.7257040269
 30
0.0
 10
235.7704691443
 20
150.9135193215
 30
0.0
 10
235.9386820672
 20
151.1259284148
 30
0.0
 10
236.0578879077
 20
151.3553332349
 30
0.0
 10
236.1290260146
 20
151.5953297129
 30
0.0
 10
236.1448294539
 20
151.759442477
 30
0.0
 10
236.144831272
 20
151.8406236301
 30
0.0
  0
SPLINE
  5
305
100
AcDbEntity
  8
RUNDUNGEN
100
AcDbSpline
 62
7
  6
CONTINUOUS
 70
0
 71
3
 72
11
 73
7
 74
0
 42
0.0000001
 43
0.0000001
 44
0.0000000001
 40
0.0
 40
0.0
 40
0.0
 40
0.0
 40
0.248010586
 40
0.4968119286
 40
0.7472771401
 40
1.0
 40
1.0
 40
1.0
 40
1.0
 10
205.144831272
 20
149.8406236301
 30
0.0
 10
205.4634162293
 20
149.8406220787
 30
0.0
 10
206.1019394441
 20
149.8688097989
 30
0.0
 10
207.0548770722
 20
149.9922775781
 30
0.0
 10
208.0017490284
 20
150.1869686537
 30
0.0
 10
208.6267990157
 20
150.3525159382
 30
0.0
 10
208.9392777476
 20
150.44053287
 30
0.0
  0
SPLINE
  5
306
100
AcDbEntity
  8
RUNDUNGEN
100
AcDbSpline
 62
7
  6
CONTINUOUS
 70
0
 71
3
 72
15
 73
11
 74
0
 42
0.0000001
 43
0.0000001
 44
0.0000000001
 40
0.0
 40
0.0
 40
0.0
 40
0.0
 40
0.1820837825
 40
0.3579942671
 40
0.520946196
 40
0.665570656
 40
0.7873644105
 40
0.8386655433
 40
0.8833356644
 40
1.0
 40
1.0
 40
1.0
 40
1.0
 10
211.2211312005
 20
150.4406236301
 30
0.0
 10
211.2211312005
 20
150.4016257952
 30
0.0
 10
211.2191980801
 20
150.3249389044
 30
0.0
 10
211.2106413777
 20
150.213636865
 30
0.0
 10
211.1967711433
 20
150.1109675496
 30
0.0
 10
211.1780579163
 20
150.0207776198
 30
0.0
 10
211.1584617847
 20
149.9556480521
 30
0.0
 10
211.1399559919
 20
149.9123952025
 30
0.0
 10
211.1192274036
 20
149.8732931253
 30
0.0
 10
211.0908263837
 20
149.8406236301
 30
0.0
 10
211.0658397734
 20
149.8406236301
 30
0.0
  0
SPLINE
  5
307
100
AcDbEntity
  8
RUNDUNGEN
100
AcDbSpline
 62
7
  6
CONTINUOUS
 70
0
 71
3
 72
15
 73
11
 74
0
 42
0.0000001
 43
0.0000001
 44
0.0000000001
 40
0.0
 40
0.0
 40
0.0
 40
0.0
 40
0.1820838727
 40
0.3579944764
 40
0.5209463339
 40
0.6655707194
 40
0.7873644435
 40
0.838665567
 40
0.8833356794
 40
1.0
 40
1.0
 40
1.0
 40
1.0
 10
224.13070917
 20
150.4406236301
 30
0.0
 10
224.13070917
 20
150.4016257759
 30
0.0
 10
224.1287760364
 20
150.3249388406
 30
0.0
 10
224.1202193445
 20
150.2136367706
 30
0.0
 10
224.1063490972
 20
150.1109674624
 30
0.0
 10
224.0876358729
 20
150.0207775709
 30
0.0
 10
224.068039745
 20
149.9556480275
 30
0.0
 10
224.0495339547
 20
149.9123951883
 30
0.0
 10
224.028805367
 20
149.8732931182
 30
0.0
 10
224.0004043499
 20
149.8406236301
 30
0.0
 10
223.9754177429
 20
149.8406236301
 30
0.0
  0
SPLINE
  5
308
100
AcDbEntity
  8
RUNDUNGEN
100
AcDbSpline
 62
7
  6
CONTINUOUS
 70
0
 71
3
 72
12
 73
8
 74
0
 42
0.0000001
 43
0.0000001
 44
0.0000000001
 40
0.0
 40
0.0
 40
0.0
 40
0.0
 40
0.2796734675
 40
0.542697887
 40
0.7803435392
 40
0.8916933289
 40
1.0
 40
1.0
 40
1.0
 40
1.0
 10
234.6024583907
 20
150.4406236301
 30
0.0
 10
234.6024583937
 20
150.3632021294
 30
0.0
 10
234.5802553934
 20
150.2118914187
 30
0.0
 10
234.4835994972
 20
150.0145581115
 30
0.0
 10
234.3544274493
 20
149.8962823672
 30
0.0
 10
234.2358852429
 20
149.8486767816
 30
0.0
 10
234.1748136119
 20
149.8406236301
 30
0.0
 10
234.1448312718
 20
149.8406236301
 30
0.0
  0
SPLINE
  5
309
100
AcDbEntity
  8
RUNDUNGEN
100
AcDbSpline
 62
7
  6
CONTINUOUS
 70
0
 71
3
 72
12
 73
8
 74
0
 42
0.0000001
 43
0.0000001
 44
0.0000000001
 40
0.0
 40
0.0
 40
0.0
 40
0.0
 40
0.279673463
 40
0.5426978843
 40
0.780343539
 40
0.8916933309
 40
1.0
 40
1.0
 40
1.0
 40
1.0
 10
234.6024583907
 20
161.2406236301
 30
0.0
 10
234.6024583906
 20
161.318045129
 30
0.0
 10
234.5802553863
 20
161.4693558367
 30
0.0
 10
234.4835994912
 20
161.6666891409
 30
0.0
 10
234.3544274474
 20
161.7849648905
 30
0.0
 10
234.2358852416
 20
161.8325704768
 30
0.0
 10
234.1748136113
 20
161.8406236301
 30
0.0
 10
234.144831272
 20
161.8406236301
 30
0.0
  0
LINE
  5
30A
100
AcDbEntity
  8
RUNDUNGEN
100
AcDbLine
 62
7
  6
CONTINUOUS
 10
114.9731734915
 20
78.6418860455
 11
114.8744586922
 21
78.3069690954
  0
SPLINE
  5
30B
100
AcDbEntity
  8
RUNDUNGEN
100
AcDbSpline
 62
7
  6
CONTINUOUS
 70
0
 71
3
 72
13
 73
9
 74
0
 42
0.0000001
 43
0.0000001
 44
0.0000000001
 40
0.0
 40
0.0
 40
0.0
 40
0.0
 40
0.2535838733
 40
0.505424989
 40
0.6302806918
 40
0.7543094958
 40
0.8775294082
 40
1.0
 40
1.0
 40
1.0
 40
1.0
 10
115.0140625
 20
84.306969096
 30
0.0
 10
114.9465572744
 20
83.9888362207
 30
0.0
 10
114.8120569915
 20
83.3547567529
 30
0.0
 10
114.654640765
 20
82.5618162015
 30
0.0
 10
114.5460752685
 20
81.928843967
 30
0.0
 10
114.4778235585
 20
81.4564430802
 30
0.0
 10
114.4284553928
 20
80.9847285873
 30
0.0
 10
114.4140581746
 20
80.6696045763
 30
0.0
 10
114.4140625076
 20
80.5125385844
 30
0.0
  0
SPLINE
  5
30C
100
AcDbEntity
  8
RUNDUNGEN
100
AcDbSpline
 62
7
  6
CONTINUOUS
 70
0
 71
3
 72
11
 73
7
 74
0
 42
0.0000001
 43
0.0000001
 44
0.0000000001
 40
0.0
 40
0.0
 40
0.0
 40
0.0
 40
0.2373871904
 40
0.4823126208
 40
0.7375841482
 40
1.0
 40
1.0
 40
1.0
 40
1.0
 10
114.4140625
 20
78.3859605946
 30
0.0
 10
114.4140625
 20
78.4562993016
 30
0.0
 10
114.4465946615
 20
78.6009875821
 30
0.0
 10
114.582546246
 20
78.7796249077
 30
0.0
 10
114.781478069
 20
78.8971827029
 30
0.0
 10
114.9363077076
 20
78.9242342486
 30
0.0
 10
115.0140625
 20
78.9242340947
 30
0.0
  0
SPLINE
  5
30D
100
AcDbEntity
  8
RUNDUNGEN
100
AcDbSpline
 62
7
  6
CONTINUOUS
 70
0
 71
3
 72
11
 73
7
 74
0
 42
0.0000001
 43
0.0000001
 44
0.0000000001
 40
0.0
 40
0.0
 40
0.0
 40
0.0
 40
0.2498347991
 40
0.4998402958
 40
0.7499162042
 40
1.0
 40
1.0
 40
1.0
 40
1.0
 10
95.0140625
 20
80.5122359038
 30
0.0
 10
95.014126944
 20
80.8461196278
 30
0.0
 10
94.9234598382
 20
81.5144248708
 30
0.0
 10
94.6279213198
 20
82.4739613114
 30
0.0
 10
94.2415964621
 20
83.400065859
 30
0.0
 10
93.9566486977
 20
84.0046946495
 30
0.0
 10
93.8140625
 20
84.306969096
 30
0.0
  0
SPLINE
  5
30E
100
AcDbEntity
  8
RUNDUNGEN
100
AcDbSpline
 62
7
  6
CONTINUOUS
 70
0
 71
3
 72
11
 73
7
 74
0
 42
0.0000001
 43
0.0000001
 44
0.0000000001
 40
0.0
 40
0.0
 40
0.0
 40
0.0
 40
0.2446029158
 40
0.4924939891
 40
0.7446646042
 40
1.0
 40
1.0
 40
1.0
 40
1.0
 10
114.4502857864
 20
78.3649322927
 30
0.0
 10
114.4760227542
 20
78.4083165643
 30
0.0
 10
114.5406617361
 20
78.4886719234
 30
0.0
 10
114.6672569204
 20
78.5787500105
 30
0.0
 10
114.8150395984
 20
78.6332456819
 30
0.0
 10
114.9205385073
 20
78.643421364
 30
0.0
 10
114.9731734916
 20
78.6418909266
 30
0.0
  0
LINE
  5
30F
100
AcDbEntity
  8
RUNDUNGEN
100
AcDbLine
 62
7
  6
CONTINUOUS
 10
93.9536663072
 20
78.306969096
 11
93.8549515085
 21
78.6418860455
  0
SPLINE
  5
310
100
AcDbEntity
  8
RUNDUNGEN
100
AcDbSpline
 62
7
  6
CONTINUOUS
 70
0
 71
3
 72
11
 73
7
 74
0
 42
0.0000001
 43
0.0000001
 44
0.0000000001
 40
0.0
 40
0.0
 40
0.0
 40
0.0
 40
0.2446029959
 40
0.4924941163
 40
0.7446646996
 40
1.0
 40
1.0
 40
1.0
 40
1.0
 10
94.3778388399
 20
78.3649315403
 30
0.0
 10
94.3521014621
 20
78.4083152817
 30
0.0
 10
94.2874618817
 20
78.4886694734
 30
0.0
 10
94.1608665885
 20
78.5787459607
 30
0.0
 10
94.0130844857
 20
78.6332406021
 30
0.0
 10
93.9075862017
 20
78.6434161982
 30
0.0
 10
93.8549515085
 20
78.6418858834
 30
0.0
  0
SPLINE
  5
311
100
AcDbEntity
  8
RUNDUNGEN
100
AcDbSpline
 62
7
  6
CONTINUOUS
 70
0
 71
3
 72
11
 73
7
 74
0
 42
0.0000001
 43
0.0000001
 44
0.0000000001
 40
0.0
 40
0.0
 40
0.0
 40
0.0
 40
0.2373866814
 40
0.4823121557
 40
0.7375839516
 40
1.0
 40
1.0
 40
1.0
 40
1.0
 10
94.4140625
 20
78.3859605946
 30
0.0
 10
94.4140625
 20
78.4562991164
 30
0.0
 10
94.3815302105
 20
78.6009871625
 30
0.0
 10
94.2455786544
 20
78.7796242404
 30
0.0
 10
94.0466469576
 20
78.8971822623
 30
0.0
 10
93.8918173127
 20
78.9242340947
 30
0.0
 10
93.8140625
 20
78.9242340947
 30
0.0
  0
SPLINE
  5
312
100
AcDbEntity
  8
RUNDUNGEN
100
AcDbSpline
 62
7
  6
CONTINUOUS
 70
0
 71
3
 72
13
 73
9
 74
0
 42
0.0000001
 43
0.0000001
 44
0.0000000001
 40
0.0
 40
0.0
 40
0.0
 40
0.0
 40
0.1224709106
 40
0.2456922259
 40
0.3697211788
 40
0.4945768855
 40
0.7464170233
 40
1.0
 40
1.0
 40
1.0
 40
1.0
 10
94.4140624926
 20
80.5125341907
 30
0.0
 10
94.4140667611
 20
80.6696007787
 30
0.0
 10
94.3996739403
 20
80.9847275439
 30
0.0
 10
94.3503028177
 20
81.456444908
 30
0.0
 10
94.2820455156
 20
81.9288474753
 30
0.0
 10
94.173487857
 20
82.5618207364
 30
0.0
 10
94.0160669859
 20
83.354759036
 30
0.0
 10
93.8815662616
 20
83.9888366893
 30
0.0
 10
93.8140625
 20
84.306969096
 30
0.0
  0
SPLINE
  5
313
100
AcDbEntity
  8
RUNDUNGEN
100
AcDbSpline
 62
7
  6
CONTINUOUS
 70
0
 71
3
 72
13
 73
9
 74
0
 42
0.0000001
 43
0.0000001
 44
0.0000000001
 40
0.0
 40
0.0
 40
0.0
 40
0.0
 40
0.1144874532
 40
0.230238052
 40
0.3483568298
 40
0.4699502777
 40
0.7262818491
 40
1.0
 40
1.0
 40
1.0
 40
1.0
 10
104.4140625
 20
53.306969096
 30
0.0
 10
104.2443263893
 20
53.3069946815
 30
0.0
 10
103.9026165141
 20
53.3281367948
 30
0.0
 10
103.3937311815
 20
53.4231401616
 30
0.0
 10
102.889880751
 20
53.5819482662
 30
0.0
 10
102.2176898426
 20
53.8838803003
 30
0.0
 10
101.4103521465
 20
54.4289687224
 30
0.0
 10
100.8567098397
 20
54.9939731851
 30
0.0
 10
100.5983542585
 20
55.3069141277
 30
0.0
  0
SPLINE
  5
314
100
AcDbEntity
  8
RUNDUNGEN
100
AcDbSpline
 62
7
  6
CONTINUOUS
 70
0
 71
3
 72
13
 73
9
 74
0
 42
0.0000001
 43
0.0000001
 44
0.0000000001
 40
0.0
 40
0.0
 40
0.0
 40
0.0
 40
0.2737161541
 40
0.5300471149
 40
0.6516404868
 40
0.7697591582
 40
0.8855112435
 40
1.0
 40
1.0
 40
1.0
 40
1.0
 10
108.2297722025
 20
55.306915768
 30
0.0
 10
107.9714188366
 20
54.9939765857
 30
0.0
 10
107.4177789177
 20
54.4289747456
 30
0.0
 10
106.6104455218
 20
53.8838865306
 30
0.0
 10
105.9382563251
 20
53.5819528214
 30
0.0
 10
105.4344044345
 20
53.4231418424
 30
0.0
 10
104.9255145899
 20
53.3281390437
 30
0.0
 10
104.5838006232
 20
53.3069961117
 30
0.0
 10
104.4140625
 20
53.306969096
 30
0.0
  0
SPLINE
  5
315
100
AcDbEntity
  8
RUNDUNGEN
100
AcDbSpline
 62
7
  6
CONTINUOUS
 70
0
 71
3
 72
11
 73
7
 74
0
 42
0.0000001
 43
0.0000001
 44
0.0000000001
 40
0.0
 40
0.0
 40
0.0
 40
0.0
 40
0.2500850131
 40
0.5001623697
 40
0.7501689701
 40
1.0
 40
1.0
 40
1.0
 40
1.0
 10
115.0140625
 20
84.306969096
 30
0.0
 10
114.871472709
 20
84.004694611
 30
0.0
 10
114.5865284336
 20
83.4000604723
 30
0.0
 10
114.2001984373
 20
82.4739525141
 30
0.0
 10
113.9046706658
 20
81.5144149611
 30
0.0
 10
113.8139982767
 20
80.8461145316
 30
0.0
 10
113.8140625
 20
80.5122359038
 30
0.0
  0
LINE
  5
316
100
AcDbEntity
  8
RUNDUNGEN
100
AcDbLine
 62
7
  6
CONTINUOUS
 10
96.7755558365
 20
84.306969096
 11
94.8101165714
 21
90.306969096
  0
LINE
  5
317
100
AcDbEntity
  8
RUNDUNGEN
100
AcDbLine
 62
7
  6
CONTINUOUS
 10
114.0180084285
 20
90.306969096
 11
112.0525691635
 21
84.306969096
  0
ELLIPSE
  5
318
100
AcDbEntity
  8
0
100
AcDbEllipse
 62
7
  6
CONTINUOUS
 10
111.4143712907
 20
155.8406236301
 30
0.0
 11
0.0
 21
2.695
 31
0.0
 40
0.2679491924
 41
-3.1415926536
 42
-0.0
  0
ELLIPSE
  5
319
100
AcDbEntity
  8
0
100
AcDbEllipse
 62
7
  6
CONTINUOUS
 10
97.4137537093
 20
155.8406236301
 30
0.0
 11
-0.0
 21
2.695
 31
0.0
 40
0.2679491924
 41
-0.0
 42
3.1415926536
  0
ENDSEC
  0
SECTION
  2
OBJECTS
  0
DICTIONARY
  5
C
100
AcDbDictionary
280
0
281
1
  3
ACAD_GROUP
350
D
  3
ACAD_MLINESTYLE
350
17
  3
ACAD_LAYOUT
350
1A
  3
ACAD_PLOTSETTINGS
350
19
  3
ACAD_PLOTSTYLENAME
350
E
  0
DICTIONARY
  5
D
102
{ACAD_REACTORS
330
C
102
}
100
AcDbDictionary
280
0
281
1
  0
ACDBDICTIONARYWDFLT
  5
E
102
{ACAD_REACTORS
330
C
102
}
100
AcDbDictionary
281
1
  3
Normal
350
F
100
AcDbDictionaryWithDefault
340
F
  0
DICTIONARY
  5
17
102
{ACAD_REACTORS
330
C
102
}
100
AcDbDictionary
280
0
281
1
  3
Standard
350
18
  0
DICTIONARY
  5
19
102
{ACAD_REACTORS
330
C
102
}
100
AcDbDictionary
281
1
  0
DICTIONARY
  5
1A
102
{ACAD_REACTORS
330
C
102
}
100
AcDbDictionary
281
1
  3
Model
350
31A
  3
Layout1
350
31B
  0
ACDBPLACEHOLDER
  5
F
102
{ACAD_REACTORS
330
E
102
}
  0
MLINESTYLE
  5
18
102
{ACAD_REACTORS
330
17
102
}
100
AcDbMlineStyle
  2
STANDARD
 70
0
  3

 62
256
 51
90.0
 52
90.0
 71
2
 49
0.5
 62
256
  6
BYLAYER
 49
-0.5
 62
256
  6
BYLAYER
  0
LAYOUT
  5
31A
102
{ACAD_REACTORS
330
1A
102
}
100
AcDbPlotSettings
  1

  2
none_device
  4
ISO_A4_(297.00_x_210.00_MM)
  6

 40
0.0
 41
0.0
 42
0.0
 43
0.0
 44
297.0
 45
210.0
 46
0.0
 47
0.0
 48
0.0
 49
0.0
140
0.0
141
0.0
142
1.0
143
1.0
 70
1024
 72
1
 73
0
 74
0
  7

 75
0
147
1.0
148
0.0
149
0.0
100
AcDbLayout
  1
Model
 70
0
 71
0
 10
0.0
 20
0.0
 11
297.0
 21
210.0
 12
0.0
 22
0.0
 32
0.0
 14
0.0
 24
0.0
 34
0.0
 15
0.0
 25
0.0
 35
0.0
146
0.0
 13
0.0
 23
0.0
 33
0.0
 16
1.0
 26
0.0
 36
0.0
 17
0.0
 27
1.0
 37
0.0
 76
0
330
20F
345
0
346
0
  0
LAYOUT
  5
31B
102
{ACAD_REACTORS
330
1A
102
}
100
AcDbPlotSettings
  1

  2
none_device
  4
ISO_A4_(297.00_x_210.00_MM)
  6

 40
0.0
 41
0.0
 42
0.0
 43
0.0
 44
297.0
 45
210.0
 46
0.0
 47
0.0
 48
0.0
 49
0.0
140
0.0
141
0.0
142
1.0
143
1.0
 70
0
 72
1
 73
0
 74
0
  7

 75
0
147
1.0
148
0.0
149
0.0
100
AcDbLayout
  1
Layout1
 70
0
 71
1
 10
0.0
 20
0.0
 11
297.0
 21
210.0
 12
0.0
 22
0.0
 32
0.0
 14
0.0
 24
0.0
 34
0.0
 15
0.0
 25
0.0
 35
0.0
146
0.0
 13
0.0
 23
0.0
 33
0.0
 16
1.0
 26
0.0
 36
0.0
 17
0.0
 27
1.0
 37
0.0
 76
0
330
210
345
0
346
0
  0
ENDSEC
  0
EOF
