  0
SECTION
  2
HEADER
  9
$ACADVER
  1
AC1018
  9
$ACADMAINTVER
 70
   104
  9
$DWGCODEPAGE
  3
ANSI_1252
  9
$LASTSAVEDBY
  1
dkskpe
  9
$INSBASE
 10
0.0
 20
0.0
 30
0.0
  9
$EXTMIN
 10
85.33401129171318
 20
101.5968601538277
 30
-0.0000000349181948
  9
$EXTMAX
 10
230.285564459432
 20
139.1197481366316
 30
0.0000000814935746
  9
$LIMMIN
 10
69.84411190053283
 20
-7.6008333333333
  9
$LIMMAX
 10
366.8441119005328
 20
202.3991666666667
  9
$ORTHOMODE
 70
     1
  9
$REGENMODE
 70
     1
  9
$FILLMODE
 70
     1
  9
$QTEXTMODE
 70
     0
  9
$MIRRTEXT
 70
     0
  9
$LTSCALE
 40
1.0
  9
$ATTMODE
 70
     1
  9
$TEXTSIZE
 40
2.5
  9
$TRACEWID
 40
1.0
  9
$TEXTSTYLE
  7
STANDARD
  9
$CLAYER
  8
Main lines
  9
$CELTYPE
  6
ByLayer
  9
$CECOLOR
 62
   256
  9
$CELTSCALE
 40
1.0
  9
$DISPSILH
 70
     0
  9
$DIMSCALE
 40
1.0
  9
$DIMASZ
 40
2.5
  9
$DIMEXO
 40
0.625
  9
$DIMDLI
 40
3.75
  9
$DIMRND
 40
0.0000001
  9
$DIMDLE
 40
0.0
  9
$DIMEXE
 40
1.25
  9
$DIMTP
 40
0.0
  9
$DIMTM
 40
0.0
  9
$DIMTXT
 40
2.5
  9
$DIMCEN
 40
0.09
  9
$DIMTSZ
 40
0.0
  9
$DIMTOL
 70
     0
  9
$DIMLIM
 70
     0
  9
$DIMTIH
 70
     0
  9
$DIMTOH
 70
     0
  9
$DIMSE1
 70
     0
  9
$DIMSE2
 70
     0
  9
$DIMTAD
 70
     1
  9
$DIMZIN
 70
     8
  9
$DIMBLK
  1

  9
$DIMASO
 70
     1
  9
$DIMSHO
 70
     1
  9
$DIMPOST
  1

  9
$DIMAPOST
  1

  9
$DIMALT
 70
     0
  9
$DIMALTD
 70
     3
  9
$DIMALTF
 40
0.03937007874016
  9
$DIMLFAC
 40
1.0
  9
$DIMTOFL
 70
     1
  9
$DIMTVP
 40
0.0
  9
$DIMTIX
 70
     0
  9
$DIMSOXD
 70
     0
  9
$DIMSAH
 70
     0
  9
$DIMBLK1
  1

  9
$DIMBLK2
  1

  9
$DIMSTYLE
  2
Forbo standard 1-1
  9
$DIMCLRD
 70
     0
  9
$DIMCLRE
 70
     0
  9
$DIMCLRT
 70
     1
  9
$DIMTFAC
 40
1.0
  9
$DIMGAP
 40
0.625
  9
$DIMJUST
 70
     0
  9
$DIMSD1
 70
     0
  9
$DIMSD2
 70
     0
  9
$DIMTOLJ
 70
     0
  9
$DIMTZIN
 70
     8
  9
$DIMALTZ
 70
     0
  9
$DIMALTTZ
 70
     0
  9
$DIMUPT
 70
     0
  9
$DIMDEC
 70
     1
  9
$DIMTDEC
 70
     1
  9
$DIMALTU
 70
     2
  9
$DIMALTTD
 70
     3
  9
$DIMTXSTY
  7
STANDARD
  9
$DIMAUNIT
 70
     0
  9
$DIMADEC
 70
     1
  9
$DIMALTRND
 40
0.0000001
  9
$DIMAZIN
 70
     0
  9
$DIMDSEP
 70
    46
  9
$DIMATFIT
 70
     3
  9
$DIMFRAC
 70
     0
  9
$DIMLDRBLK
  1

  9
$DIMLUNIT
 70
     2
  9
$DIMLWD
 70
    -2
  9
$DIMLWE
 70
    -2
  9
$DIMTMOVE
 70
     0
  9
$LUNITS
 70
     2
  9
$LUPREC
 70
     4
  9
$SKETCHINC
 40
1.0
  9
$FILLETRAD
 40
0.0
  9
$AUNITS
 70
     0
  9
$AUPREC
 70
     0
  9
$MENU
  1
.
  9
$ELEVATION
 40
0.0
  9
$PELEVATION
 40
0.0
  9
$THICKNESS
 40
0.0
  9
$LIMCHECK
 70
     0
  9
$CHAMFERA
 40
0.5
  9
$CHAMFERB
 40
0.5
  9
$CHAMFERC
 40
1.0
  9
$CHAMFERD
 40
0.0
  9
$SKPOLY
 70
     0
  9
$TDCREATE
 40
2454425.702904433
  9
$TDUCREATE
 40
2454425.661237766
  9
$TDUPDATE
 40
2454783.586793889
  9
$TDUUPDATE
 40
2454783.545127222
  9
$TDINDWG
 40
0.0079541435
  9
$TDUSRTIMER
 40
0.0079541435
  9
$USRTIMER
 70
     1
  9
$ANGBASE
 50
0.0
  9
$ANGDIR
 70
     0
  9
$PDMODE
 70
     0
  9
$PDSIZE
 40
0.0
  9
$PLINEWID
 40
0.0
  9
$SPLFRAME
 70
     0
  9
$SPLINETYPE
 70
     6
  9
$SPLINESEGS
 70
     8
  9
$HANDSEED
  5
4E6
  9
$SURFTAB1
 70
     6
  9
$SURFTAB2
 70
     6
  9
$SURFTYPE
 70
     6
  9
$SURFU
 70
     6
  9
$SURFV
 70
     6
  9
$UCSBASE
  2

  9
$UCSNAME
  2

  9
$UCSORG
 10
0.0
 20
0.0
 30
0.0
  9
$UCSXDIR
 10
1.0
 20
0.0
 30
0.0
  9
$UCSYDIR
 10
0.0
 20
1.0
 30
0.0
  9
$UCSORTHOREF
  2

  9
$UCSORTHOVIEW
 70
     0
  9
$UCSORGTOP
 10
0.0
 20
0.0
 30
0.0
  9
$UCSORGBOTTOM
 10
0.0
 20
0.0
 30
0.0
  9
$UCSORGLEFT
 10
0.0
 20
0.0
 30
0.0
  9
$UCSORGRIGHT
 10
0.0
 20
0.0
 30
0.0
  9
$UCSORGFRONT
 10
0.0
 20
0.0
 30
0.0
  9
$UCSORGBACK
 10
0.0
 20
0.0
 30
0.0
  9
$PUCSBASE
  2

  9
$PUCSNAME
  2

  9
$PUCSORG
 10
0.0
 20
0.0
 30
0.0
  9
$PUCSXDIR
 10
1.0
 20
0.0
 30
0.0
  9
$PUCSYDIR
 10
0.0
 20
1.0
 30
0.0
  9
$PUCSORTHOREF
  2

  9
$PUCSORTHOVIEW
 70
     0
  9
$PUCSORGTOP
 10
0.0
 20
0.0
 30
0.0
  9
$PUCSORGBOTTOM
 10
0.0
 20
0.0
 30
0.0
  9
$PUCSORGLEFT
 10
0.0
 20
0.0
 30
0.0
  9
$PUCSORGRIGHT
 10
0.0
 20
0.0
 30
0.0
  9
$PUCSORGFRONT
 10
0.0
 20
0.0
 30
0.0
  9
$PUCSORGBACK
 10
0.0
 20
0.0
 30
0.0
  9
$USERI1
 70
     0
  9
$USERI2
 70
     0
  9
$USERI3
 70
     0
  9
$USERI4
 70
     0
  9
$USERI5
 70
     0
  9
$USERR1
 40
0.0
  9
$USERR2
 40
0.0
  9
$USERR3
 40
0.0
  9
$USERR4
 40
0.0
  9
$USERR5
 40
0.0
  9
$WORLDVIEW
 70
     1
  9
$SHADEDGE
 70
     3
  9
$SHADEDIF
 70
    70
  9
$TILEMODE
 70
     1
  9
$MAXACTVP
 70
    64
  9
$PINSBASE
 10
0.0
 20
0.0
 30
0.0
  9
$PLIMCHECK
 70
     0
  9
$PEXTMIN
 10
0.0
 20
0.0
 30
0.0
  9
$PEXTMAX
 10
0.0
 20
0.0
 30
0.0
  9
$PLIMMIN
 10
0.0
 20
0.0
  9
$PLIMMAX
 10
0.0
 20
0.0
  9
$UNITMODE
 70
     0
  9
$VISRETAIN
 70
     1
  9
$PLINEGEN
 70
     0
  9
$PSLTSCALE
 70
     1
  9
$TREEDEPTH
 70
  3020
  9
$CMLSTYLE
  2
Standard
  9
$CMLJUST
 70
     0
  9
$CMLSCALE
 40
1.0
  9
$PROXYGRAPHICS
 70
     1
  9
$MEASUREMENT
 70
     0
  9
$CELWEIGHT
370
    -1
  9
$ENDCAPS
280
     0
  9
$JOINSTYLE
280
     0
  9
$LWDISPLAY
290
     0
  9
$INSUNITS
 70
     1
  9
$HYPERLINKBASE
  1

  9
$STYLESHEET
  1

  9
$XEDIT
290
     1
  9
$CEPSNTYPE
380
     0
  9
$PSTYLEMODE
290
     1
  9
$FINGERPRINTGUID
  2
{037A46CA-4B6F-432D-8713-477DE4A15148}
  9
$VERSIONGUID
  2
{1419F153-E089-4E6B-BFAD-3773884CB2FF}
  9
$EXTNAMES
290
     1
  9
$PSVPSCALE
 40
0.0
  9
$OLESTARTUP
290
     0
  9
$SORTENTS
280
   127
  9
$INDEXCTL
280
     0
  9
$HIDETEXT
280
     1
  9
$XCLIPFRAME
290
     0
  9
$HALOGAP
280
     0
  9
$OBSCOLOR
 70
   257
  9
$OBSLTYPE
280
     0
  9
$INTERSECTIONDISPLAY
280
     0
  9
$INTERSECTIONCOLOR
 70
   257
  9
$DIMASSOC
280
     2
  9
$PROJECTNAME
  1

  0
ENDSEC
  0
SECTION
  2
CLASSES
  0
CLASS
  1
ACDBDICTIONARYWDFLT
  2
AcDbDictionaryWithDefault
  3
ObjectDBX Classes
 90
        0
 91
        1
280
     0
281
     0
  0
CLASS
  1
MATERIAL
  2
AcDbMaterial
  3
ObjectDBX Classes
 90
     1153
 91
        3
280
     0
281
     0
  0
CLASS
  1
VISUALSTYLE
  2
AcDbVisualStyle
  3
ObjectDBX Classes
 90
     4095
 91
       16
280
     0
281
     0
  0
CLASS
  1
TABLESTYLE
  2
AcDbTableStyle
  3
ObjectDBX Classes
 90
     4095
 91
        1
280
     0
281
     0
  0
CLASS
  1
SCALE
  2
AcDbScale
  3
ObjectDBX Classes
 90
     1153
 91
       33
280
     0
281
     0
  0
CLASS
  1
MLEADERSTYLE
  2
AcDbMLeaderStyle
  3
ACDB_MLEADERSTYLE_CLASS
 90
     4095
 91
        1
280
     0
281
     0
  0
CLASS
  1
CELLSTYLEMAP
  2
AcDbCellStyleMap
  3
ObjectDBX Classes
 90
     1152
 91
        3
280
     0
281
     0
  0
CLASS
  1
DICTIONARYVAR
  2
AcDbDictionaryVar
  3
ObjectDBX Classes
 90
        0
 91
        3
280
     0
281
     0
  0
CLASS
  1
DIMASSOC
  2
AcDbDimAssoc
  3
"AcDbDimAssoc|Product Desc:     AcDim ARX App For Dimension|Company:          Autodesk, Inc.|WEB Address:      www.autodesk.com"
 90
        0
 91
        4
280
     0
281
     0
  0
ENDSEC
  0
SECTION
  2
TABLES
  0
TABLE
  2
VPORT
  5
8
102
{ACAD_XDICTIONARY
360
F5
102
}
330
0
100
AcDbSymbolTable
 70
     1
  0
VPORT
  5
29
330
8
100
AcDbSymbolTableRecord
100
AcDbViewportTableRecord
  2
*Active
 70
     0
 10
0.0
 20
0.0
 11
1.0
 21
1.0
 12
9.30118101223806
 22
15.35283322847805
 13
0.0
 23
0.0
 14
10.0
 24
10.0
 15
10.0
 25
10.0
 16
0.0
 26
0.0
 36
1.0
 17
148.5086068633345
 27
105.0054709167516
 37
0.0
 40
75.04769341334314
 41
1.940548780487804
 42
50.0
 43
0.0
 44
0.0
 50
0.0
 51
0.0
 71
     0
 72
   100
 73
     1
 74
     3
 75
     0
 76
     0
 77
     0
 78
     0
281
     0
 65
     1
110
0.0
120
0.0
130
0.0
111
1.0
121
0.0
131
0.0
112
0.0
122
1.0
132
0.0
 79
     0
146
0.0
  0
ENDTAB
  0
TABLE
  2
LTYPE
  5
5
330
0
100
AcDbSymbolTable
 70
    11
  0
LTYPE
  5
14
330
5
100
AcDbSymbolTableRecord
100
AcDbLinetypeTableRecord
  2
ByBlock
 70
     0
  3

 72
    65
 73
     0
 40
0.0
  0
LTYPE
  5
15
330
5
100
AcDbSymbolTableRecord
100
AcDbLinetypeTableRecord
  2
ByLayer
 70
     0
  3

 72
    65
 73
     0
 40
0.0
  0
LTYPE
  5
16
330
5
100
AcDbSymbolTableRecord
100
AcDbLinetypeTableRecord
  2
Continuous
 70
     0
  3
Solid line
 72
    65
 73
     0
 40
0.0
  0
LTYPE
  5
2B
330
5
100
AcDbSymbolTableRecord
100
AcDbLinetypeTableRecord
  2
BORDER
 70
     0
  3
BORDER
 72
    65
 73
     6
 40
1.75
 49
0.5
 74
     0
 49
-0.25
 74
     0
 49
0.5
 74
     0
 49
-0.25
 74
     0
 49
0.0
 74
     0
 49
-0.25
 74
     0
  0
LTYPE
  5
2C
330
5
100
AcDbSymbolTableRecord
100
AcDbLinetypeTableRecord
  2
CENTER
 70
     0
  3
CENTER
 72
    65
 73
     4
 40
50.8
 49
31.75
 74
     0
 49
-6.349999999999999
 74
     0
 49
6.349999999999999
 74
     0
 49
-6.349999999999999
 74
     0
  0
LTYPE
  5
2D
330
5
100
AcDbSymbolTableRecord
100
AcDbLinetypeTableRecord
  2
DASHDOT
 70
     0
  3
DASHDOT
 72
    65
 73
     4
 40
1.0
 49
0.5
 74
     0
 49
-0.25
 74
     0
 49
0.0
 74
     0
 49
-0.25
 74
     0
  0
LTYPE
  5
2E
330
5
100
AcDbSymbolTableRecord
100
AcDbLinetypeTableRecord
  2
DASHED
 70
     0
  3
DASHED
 72
    65
 73
     2
 40
0.75
 49
0.5
 74
     0
 49
-0.25
 74
     0
  0
LTYPE
  5
2F
330
5
100
AcDbSymbolTableRecord
100
AcDbLinetypeTableRecord
  2
DIVIDE
 70
     0
  3
DIVIDE
 72
    65
 73
     6
 40
1.25
 49
0.5
 74
     0
 49
-0.25
 74
     0
 49
0.0
 74
     0
 49
-0.25
 74
     0
 49
0.0
 74
     0
 49
-0.25
 74
     0
  0
LTYPE
  5
30
330
5
100
AcDbSymbolTableRecord
100
AcDbLinetypeTableRecord
  2
DOT
 70
     0
  3
DOT
 72
    65
 73
     2
 40
0.25
 49
0.0
 74
     0
 49
-0.25
 74
     0
  0
LTYPE
  5
31
330
5
100
AcDbSymbolTableRecord
100
AcDbLinetypeTableRecord
  2
HIDDEN
 70
     0
  3
HIDDEN
 72
    65
 73
     2
 40
9.524999999999998
 49
6.349999999999999
 74
     0
 49
-3.174999999999999
 74
     0
  0
LTYPE
  5
32
330
5
100
AcDbSymbolTableRecord
100
AcDbLinetypeTableRecord
  2
PHANTOM
 70
     0
  3
PHANTOM
 72
    65
 73
     6
 40
2.5
 49
1.25
 74
     0
 49
-0.25
 74
     0
 49
0.25
 74
     0
 49
-0.25
 74
     0
 49
0.25
 74
     0
 49
-0.25
 74
     0
  0
LTYPE
  5
33
330
5
100
AcDbSymbolTableRecord
100
AcDbLinetypeTableRecord
  2
$INVISIBLE
 70
     0
  3
$INVISIBLE
 72
    65
 73
     2
 40
200.0
 49
-100.0
 74
     0
 49
-100.0
 74
     0
  0
LTYPE
  5
34
330
5
100
AcDbSymbolTableRecord
100
AcDbLinetypeTableRecord
  2
$SNAPEXT
 70
     0
  3
$SNAPEXT
 72
    65
 73
     2
 40
0.04
 49
0.02
 74
     0
 49
-0.02
 74
     0
  0
ENDTAB
  0
TABLE
  2
LAYER
  5
2
102
{ACAD_XDICTIONARY
360
E1
102
}
330
0
100
AcDbSymbolTable
 70
     5
  0
LAYER
  5
10
102
{ACAD_XDICTIONARY
360
E4
102
}
330
2
100
AcDbSymbolTableRecord
100
AcDbLayerTableRecord
  2
0
 70
     0
 62
     5
420
      255
  6
Continuous
370
    50
390
F
1001
TCAD
1000
TCW_LAYER_ORDER
1002
{
1071
        0
1002
}
  0
LAYER
  5
35
102
{ACAD_XDICTIONARY
360
E6
102
}
330
2
100
AcDbSymbolTableRecord
100
AcDbLayerTableRecord
  2
Center
 70
     0
 62
     2
420
 16776960
  6
CENTER
370
    25
390
F
1001
TCAD
1000
TCW_LAYER_ORDER
1002
{
1071
        0
1002
}
  0
LAYER
  5
36
102
{ACAD_XDICTIONARY
360
E8
102
}
330
2
100
AcDbSymbolTableRecord
100
AcDbLayerTableRecord
  2
Dimension
 70
     0
 62
   150
420
    32767
  6
Continuous
370
    25
390
F
1001
TCAD
1000
TCW_LAYER_ORDER
1002
{
1071
        0
1002
}
  0
LAYER
  5
37
102
{ACAD_XDICTIONARY
360
EA
102
}
330
2
100
AcDbSymbolTableRecord
100
AcDbLayerTableRecord
  2
Main lines
 70
     0
 62
     1
420
 16711680
  6
Continuous
370
    50
390
F
1001
TCAD
1000
TCW_LAYER_ORDER
1002
{
1071
        0
1002
}
  0
LAYER
  5
119
330
2
100
AcDbSymbolTableRecord
100
AcDbLayerTableRecord
  2
DEFPOINTS
 70
     0
 62
     7
  6
Continuous
290
     0
370
    -3
390
F
  0
ENDTAB
  0
TABLE
  2
STYLE
  5
3
330
0
100
AcDbSymbolTable
 70
     7
  0
STYLE
  5
11
330
3
100
AcDbSymbolTableRecord
100
AcDbTextStyleTableRecord
  2
STANDARD
 70
     0
 40
0.0
 41
1.0
 50
0.0
 71
     0
 42
2.5
  3
TXT.SHX
  4

  0
STYLE
  5
3D
330
3
100
AcDbSymbolTableRecord
100
AcDbTextStyleTableRecord
  2
ISO Proportional
 70
     0
 40
0.0
 41
1.0
 50
0.0
 71
     0
 42
2.5
  3
ISOCP.SHX
  4

  0
STYLE
  5
3E
330
3
100
AcDbSymbolTableRecord
100
AcDbTextStyleTableRecord
  2

 70
     1
 40
0.0
 41
1.0
 50
0.0
 71
     0
 42
2.5
  3
LTYPESHP.SHX
  4

  0
STYLE
  5
3F
330
3
100
AcDbSymbolTableRecord
100
AcDbTextStyleTableRecord
  2
Arial
 70
     0
 40
0.0
 41
1.0
 50
0.0
 71
     0
 42
2.5
  3
ARIAL.TTF
  4

1001
ACAD
1000
Arial
1071
       34
  0
STYLE
  5
40
330
3
100
AcDbSymbolTableRecord
100
AcDbTextStyleTableRecord
  2
_TCW_TXTSTY_1
 70
     0
 40
0.0
 41
1.0
 50
0.0
 71
     0
 42
0.6000000238418579
  3
TIMES.TTF
  4

1001
ACAD
1000
Times New Roman
1071
      290
  0
STYLE
  5
7E
330
3
100
AcDbSymbolTableRecord
100
AcDbTextStyleTableRecord
  2
_TCW_TXTSTY_2
 70
     0
 40
0.0
 41
1.0
 50
0.0
 71
     0
 42
1.700000047683715
  3
ARIAL.TTF
  4

1001
ACAD
1000
Arial
1071
       34
  0
STYLE
  5
11A
330
3
100
AcDbSymbolTableRecord
100
AcDbTextStyleTableRecord
  2
YUSIMPLE
 70
     0
 40
0.0
 41
0.7
 50
0.0
 71
     0
 42
2.5
  3
yusimple.shx
  4

  0
ENDTAB
  0
TABLE
  2
VIEW
  5
6
330
0
100
AcDbSymbolTable
 70
     2
  0
VIEW
  5
3B
330
6
100
AcDbSymbolTableRecord
100
AcDbViewTableRecord
  2
View_0
 70
     0
 40
8.267716535433072
 10
5.846456692913386
 20
4.133858267716536
 41
11.69291338582677
 11
0.0
 21
0.0
 31
1.0
 12
0.0
 22
0.0
 32
0.0
 42
50.0
 43
0.0
 44
0.0
 50
0.0
 71
     0
281
     0
 72
     0
  0
VIEW
  5
3C
330
6
100
AcDbSymbolTableRecord
100
AcDbViewTableRecord
  2
View_1
 70
     0
 40
201.3931071366347
 10
148.0754245736627
 20
106.9509239418353
 41
280.2283968543264
 11
0.0
 21
0.0
 31
1.0
 12
0.0
 22
0.0
 32
0.0
 42
50.0
 43
0.0
 44
0.0
 50
0.0
 71
     0
281
     0
 72
     0
  0
ENDTAB
  0
TABLE
  2
UCS
  5
7
330
0
100
AcDbSymbolTable
 70
     0
  0
ENDTAB
  0
TABLE
  2
APPID
  5
9
330
0
100
AcDbSymbolTable
 70
     3
  0
APPID
  5
12
330
9
100
AcDbSymbolTableRecord
100
AcDbRegAppTableRecord
  2
ACAD
 70
     0
  0
APPID
  5
2A
330
9
100
AcDbSymbolTableRecord
100
AcDbRegAppTableRecord
  2
TCAD
 70
     0
  0
APPID
  5
D8
330
9
100
AcDbSymbolTableRecord
100
AcDbRegAppTableRecord
  2
ACAD_MLEADERVER
 70
     0
  0
ENDTAB
  0
TABLE
  2
DIMSTYLE
  5
A
330
0
100
AcDbSymbolTable
 70
     3
100
AcDbDimStyleTable
 71
     2
340
42
340
27
  0
DIMSTYLE
105
27
330
A
100
AcDbSymbolTableRecord
100
AcDbDimStyleTableRecord
  2
Standard
 70
     0
  3
in
 41
2.5
 42
0.625
 43
3.75
 44
1.25
 45
0.0000002
 73
     0
 74
     0
 77
     1
 78
     8
140
1.5
143
1.0
147
0.625
148
0.01
171
     3
172
     1
178
     1
179
     2
271
     2
274
     3
285
     1
340
40
  0
DIMSTYLE
105
41
330
A
100
AcDbSymbolTableRecord
100
AcDbDimStyleTableRecord
  2
ISO-25
 70
     0
 41
2.5
 42
0.625
 43
3.75
 44
1.25
 45
0.0000001
 73
     0
 74
     0
 77
     1
 78
     8
140
2.5
143
0.03937007874016
147
0.625
148
0.0000001
171
     3
172
     1
178
     1
179
     1
271
     1
272
     1
274
     3
283
     0
284
     8
340
11
  0
DIMSTYLE
105
42
330
A
100
AcDbSymbolTableRecord
100
AcDbDimStyleTableRecord
  2
Forbo standard 1-1
 70
     0
 41
2.5
 42
0.625
 43
3.75
 44
1.25
 45
0.0000001
 73
     0
 74
     0
 77
     1
 78
     8
140
2.5
143
0.03937007874016
147
0.625
148
0.0000001
171
     3
172
     1
178
     1
179
     1
271
     1
272
     1
274
     3
283
     0
284
     8
340
11
  0
ENDTAB
  0
TABLE
  2
BLOCK_RECORD
  5
1
330
0
100
AcDbSymbolTable
 70
     6
  0
BLOCK_RECORD
  5
1F
330
1
100
AcDbSymbolTableRecord
100
AcDbBlockTableRecord
  2
*Model_Space
340
22
  0
BLOCK_RECORD
  5
1B
330
1
100
AcDbSymbolTableRecord
100
AcDbBlockTableRecord
  2
*Paper_Space
340
1E
  0
BLOCK_RECORD
  5
80
330
1
100
AcDbSymbolTableRecord
100
AcDbBlockTableRecord
  2
*Paper_Space0
340
81
  0
BLOCK_RECORD
  5
405
330
1
100
AcDbSymbolTableRecord
100
AcDbBlockTableRecord
  2
*D2
340
0
  0
BLOCK_RECORD
  5
426
330
1
100
AcDbSymbolTableRecord
100
AcDbBlockTableRecord
  2
*D3
340
0
  0
BLOCK_RECORD
  5
44B
330
1
100
AcDbSymbolTableRecord
100
AcDbBlockTableRecord
  2
*D4
340
0
  0
BLOCK_RECORD
  5
464
330
1
100
AcDbSymbolTableRecord
100
AcDbBlockTableRecord
  2
*D5
340
0
  0
ENDTAB
  0
ENDSEC
  0
SECTION
  2
BLOCKS
  0
BLOCK
  5
20
330
1F
100
AcDbEntity
  8
0
100
AcDbBlockBegin
  2
*Model_Space
 70
     0
 10
0.0
 20
0.0
 30
0.0
  3
*Model_Space
  1

  0
ENDBLK
  5
21
330
1F
100
AcDbEntity
  8
0
100
AcDbBlockEnd
  0
BLOCK
  5
1C
330
1B
100
AcDbEntity
 67
     1
  8
0
100
AcDbBlockBegin
  2
*Paper_Space
 70
     0
 10
0.0
 20
0.0
 30
0.0
  3
*Paper_Space
  1

  0
ENDBLK
  5
1D
330
1B
100
AcDbEntity
 67
     1
  8
0
100
AcDbBlockEnd
  0
BLOCK
  5
82
330
80
100
AcDbEntity
 67
     1
  8
0
100
AcDbBlockBegin
  2
*Paper_Space0
 70
     0
 10
0.0
 20
0.0
 30
0.0
  3
*Paper_Space0
  1

  0
VIEWPORT
  5
84
330
80
100
AcDbEntity
 67
     1
  8
0
100
AcDbViewport
 10
148.5
 20
105.0
 30
0.0
 40
297.0
 41
210.0
 68
     0
 69
     0
 12
148.5
 22
105.0
 13
0.0
 23
0.0
 14
10.0
 24
10.0
 15
10.0
 25
10.0
 16
0.0
 26
0.0
 36
1.0
 17
0.0
 27
0.0
 37
0.0
 42
50.0
 43
0.0
 44
0.0
 45
210.0
 50
0.0
 51
0.0
 72
   100
 90
    32800
  1

281
     0
 71
     1
 74
     0
110
0.0
120
0.0
130
0.0
111
1.0
121
0.0
131
0.0
112
0.0
122
1.0
132
0.0
 79
     0
146
0.0
170
     0
  0
VIEWPORT
  5
85
330
80
100
AcDbEntity
 67
     1
  8
Center
  6
Continuous
100
AcDbViewport
 10
140.0218848823794
 20
101.9028953504165
 30
0.0
 40
280.2283957583874
 41
201.3931063490108
 68
     0
 69
     0
 12
148.0754283525266
 22
106.9509262258455
 13
0.0
 23
0.0
 14
0.5
 24
0.5
 15
0.0
 25
0.0
 16
0.0
 26
0.0
 36
1.0
 17
0.0
 27
0.0
 37
0.0
 42
50.0
 43
0.0
 44
0.0
 45
201.3931071366347
 50
0.0
 51
0.0
 72
   100
 90
    32800
  1

281
     0
 71
     1
 74
     0
110
0.0
120
0.0
130
0.0
111
1.0
121
0.0
131
0.0
112
0.0
122
1.0
132
0.0
 79
     0
146
0.0
170
     0
  0
ENDBLK
  5
83
330
80
100
AcDbEntity
 67
     1
  8
0
100
AcDbBlockEnd
  0
BLOCK
  5
406
330
405
100
AcDbEntity
  8
0
 62
     7
100
AcDbBlockBegin
  2
*D2
 70
     1
 10
0.0
 20
0.0
 30
0.0
  3
*D2
  1

  0
LINE
  5
47F
330
405
100
AcDbEntity
  8
Dimension
 62
     0
370
    -2
100
AcDbLine
 10
185.3466831642051
 20
100.9849692718207
 30
0.0
 11
185.3466831642051
 21
89.85699509657377
 31
0.0
  0
LINE
  5
480
330
405
100
AcDbEntity
  8
Dimension
 62
     0
370
    -2
100
AcDbLine
 10
85.34668316420516
 20
100.9849692718207
 30
0.0
 11
85.34668316420516
 21
89.85699509657377
 31
0.0
  0
LINE
  5
481
330
405
100
AcDbEntity
  8
Dimension
 62
     0
370
    -2
100
AcDbLine
 10
182.8466831642051
 20
91.10699509657377
 30
0.0
 11
87.84668316420516
 21
91.10699509657377
 31
0.0
  0
SOLID
  5
482
330
405
100
AcDbEntity
  8
Dimension
 62
     0
100
AcDbTrace
 10
182.8466831642051
 20
91.52366176324044
 30
0.0
 11
182.8466831642051
 21
90.6903284299071
 31
0.0
 12
185.3466831642051
 22
91.10699509657377
 32
0.0
 13
185.3466831642051
 23
91.10699509657377
 33
0.0
  0
SOLID
  5
483
330
405
100
AcDbEntity
  8
Dimension
 62
     0
100
AcDbTrace
 10
87.84668316420516
 20
91.52366176324044
 30
0.0
 11
87.84668316420516
 21
90.6903284299071
 31
0.0
 12
85.34668316420516
 22
91.10699509657377
 32
0.0
 13
85.34668316420516
 23
91.10699509657377
 33
0.0
  0
MTEXT
  5
484
330
405
100
AcDbEntity
  8
Dimension
 62
     1
420
 16711680
100
AcDbMText
 10
135.3466831642051
 20
92.98199509657377
 30
0.0
 40
2.5
 41
0.0
 71
     5
 72
     1
  1
100
 73
     1
 44
1.0
  0
POINT
  5
485
330
405
100
AcDbEntity
  8
DEFPOINTS
 62
     0
100
AcDbPoint
 10
185.3466831642051
 20
101.6099692718207
 30
0.0
  0
POINT
  5
486
330
405
100
AcDbEntity
  8
DEFPOINTS
 62
     0
100
AcDbPoint
 10
85.34668316420516
 20
101.6099692718207
 30
0.0
  0
POINT
  5
487
330
405
100
AcDbEntity
  8
DEFPOINTS
 62
     0
100
AcDbPoint
 10
85.34668316420516
 20
91.10699509657377
 30
0.0
  0
ENDBLK
  5
407
330
405
100
AcDbEntity
  8
0
 62
     7
100
AcDbBlockEnd
  0
BLOCK
  5
427
330
426
100
AcDbEntity
  8
0
100
AcDbBlockBegin
  2
*D3
 70
     1
 10
0.0
 20
0.0
 30
0.0
  3
*D3
  1

  0
LINE
  5
488
330
426
100
AcDbEntity
  8
Dimension
 62
     0
370
    -2
100
AcDbLine
 10
185.9716831642051
 20
101.6099692718207
 30
0.0
 11
193.1164727461666
 21
101.6099692718207
 31
0.0
  0
LINE
  5
489
330
426
100
AcDbEntity
  8
Dimension
 62
     0
370
    -2
100
AcDbLine
 10
173.4716831642051
 20
138.6099692718207
 30
0.0
 11
193.1164727461666
 21
138.6099692718207
 31
0.0
  0
LINE
  5
48A
330
426
100
AcDbEntity
  8
Dimension
 62
     0
370
    -2
100
AcDbLine
 10
191.8664727461666
 20
104.1099692718207
 30
0.0
 11
191.8664727461666
 21
136.1099692718207
 31
0.0
  0
SOLID
  5
48B
330
426
100
AcDbEntity
  8
Dimension
 62
     0
100
AcDbTrace
 10
191.4498060795
 20
104.1099692718207
 30
0.0
 11
192.2831394128333
 21
104.1099692718207
 31
0.0
 12
191.8664727461666
 22
101.6099692718207
 32
0.0
 13
191.8664727461666
 23
101.6099692718207
 33
0.0
  0
SOLID
  5
48C
330
426
100
AcDbEntity
  8
Dimension
 62
     0
100
AcDbTrace
 10
191.4498060795
 20
136.1099692718207
 30
0.0
 11
192.2831394128333
 21
136.1099692718207
 31
0.0
 12
191.8664727461666
 22
138.6099692718207
 32
0.0
 13
191.8664727461666
 23
138.6099692718207
 33
0.0
  0
MTEXT
  5
48D
330
426
100
AcDbEntity
  8
Dimension
 62
     1
420
 16711680
100
AcDbMText
 10
189.9914727461666
 20
120.1099692718208
 30
0.0
 40
2.5
 41
0.0
 71
     5
 72
     1
  1
37
 11
0.0000000000000001
 21
1.0
 31
0.0
 73
     1
 44
1.0
  0
POINT
  5
48E
330
426
100
AcDbEntity
  8
DEFPOINTS
 62
     0
100
AcDbPoint
 10
185.3466831642051
 20
101.6099692718207
 30
0.0
  0
POINT
  5
48F
330
426
100
AcDbEntity
  8
DEFPOINTS
 62
     0
100
AcDbPoint
 10
172.8466831642051
 20
138.6099692718207
 30
0.0
  0
POINT
  5
490
330
426
100
AcDbEntity
  8
DEFPOINTS
 62
     0
100
AcDbPoint
 10
191.8664727461666
 20
138.6099692718207
 30
0.0
  0
ENDBLK
  5
428
330
426
100
AcDbEntity
  8
0
100
AcDbBlockEnd
  0
BLOCK
  5
44C
330
44B
100
AcDbEntity
  8
0
100
AcDbBlockBegin
  2
*D4
 70
     1
 10
0.0
 20
0.0
 30
0.0
  3
*D4
  1

  0
LINE
  5
491
330
44B
100
AcDbEntity
  8
Dimension
 62
     0
370
    -2
100
AcDbLine
 10
84.72168316420516
 20
107.6099692718208
 30
0.0
 11
76.97432327761885
 21
107.6099692718208
 31
0.0
  0
LINE
  5
492
330
44B
100
AcDbEntity
  8
Dimension
 62
     0
370
    -2
100
AcDbLine
 10
96.22168316420516
 20
132.1099692718207
 30
0.0
 11
76.97432327761885
 21
132.1099692718207
 31
0.0
  0
LINE
  5
493
330
44B
100
AcDbEntity
  8
Dimension
 62
     0
370
    -2
100
AcDbLine
 10
78.22432327761885
 20
110.1099692718207
 30
0.0
 11
78.22432327761885
 21
129.6099692718208
 31
0.0
  0
SOLID
  5
494
330
44B
100
AcDbEntity
  8
Dimension
 62
     0
100
AcDbTrace
 10
77.80765661095218
 20
110.1099692718207
 30
0.0
 11
78.64098994428552
 21
110.1099692718207
 31
0.0
 12
78.22432327761885
 22
107.6099692718208
 32
0.0
 13
78.22432327761885
 23
107.6099692718208
 33
0.0
  0
SOLID
  5
495
330
44B
100
AcDbEntity
  8
Dimension
 62
     0
100
AcDbTrace
 10
77.80765661095218
 20
129.6099692718208
 30
0.0
 11
78.64098994428552
 21
129.6099692718208
 31
0.0
 12
78.22432327761885
 22
132.1099692718207
 32
0.0
 13
78.22432327761885
 23
132.1099692718207
 33
0.0
  0
MTEXT
  5
496
330
44B
100
AcDbEntity
  8
Dimension
 62
     1
420
 16711680
100
AcDbMText
 10
76.34932327761884
 20
119.8599692718208
 30
0.0
 40
2.5
 41
0.0
 71
     5
 72
     1
  1
24.5
 11
0.0000000000000001
 21
1.0
 31
0.0
 73
     1
 44
1.0
  0
POINT
  5
497
330
44B
100
AcDbEntity
  8
DEFPOINTS
 62
     0
100
AcDbPoint
 10
85.34668316420516
 20
107.6099692718208
 30
0.0
  0
POINT
  5
498
330
44B
100
AcDbEntity
  8
DEFPOINTS
 62
     0
100
AcDbPoint
 10
96.84668316420516
 20
132.1099692718207
 30
0.0
  0
POINT
  5
499
330
44B
100
AcDbEntity
  8
DEFPOINTS
 62
     0
100
AcDbPoint
 10
78.22432327761885
 20
132.1099692718207
 30
0.0
  0
ENDBLK
  5
44D
330
44B
100
AcDbEntity
  8
0
100
AcDbBlockEnd
  0
BLOCK
  5
465
330
464
100
AcDbEntity
  8
0
100
AcDbBlockBegin
  2
*D5
 70
     1
 10
0.0
 20
0.0
 30
0.0
  3
*D5
  1

  0
LINE
  5
49A
330
464
100
AcDbEntity
  8
Dimension
 62
     0
370
    -2
100
AcDbLine
 10
230.2761521642052
 20
106.9849692718207
 30
0.0
 11
230.2761521642052
 21
89.85699509657377
 31
0.0
  0
LINE
  5
49B
330
464
100
AcDbEntity
  8
Dimension
 62
     0
370
    -2
100
AcDbLine
 10
218.2761521642052
 20
106.9849692718207
 30
0.0
 11
218.2761521642052
 21
89.85699509657377
 31
0.0
  0
LINE
  5
49C
330
464
100
AcDbEntity
  8
Dimension
 62
     0
370
    -2
100
AcDbLine
 10
227.7761521642052
 20
91.10699509657377
 30
0.0
 11
220.7761521642052
 21
91.10699509657377
 31
0.0
  0
SOLID
  5
49D
330
464
100
AcDbEntity
  8
Dimension
 62
     0
100
AcDbTrace
 10
227.7761521642052
 20
91.52366176324044
 30
0.0
 11
227.7761521642052
 21
90.6903284299071
 31
0.0
 12
230.2761521642052
 22
91.10699509657377
 32
0.0
 13
230.2761521642052
 23
91.10699509657377
 33
0.0
  0
SOLID
  5
49E
330
464
100
AcDbEntity
  8
Dimension
 62
     0
100
AcDbTrace
 10
220.7761521642052
 20
91.52366176324044
 30
0.0
 11
220.7761521642052
 21
90.6903284299071
 31
0.0
 12
218.2761521642052
 22
91.10699509657377
 32
0.0
 13
218.2761521642052
 23
91.10699509657377
 33
0.0
  0
MTEXT
  5
49F
330
464
100
AcDbEntity
  8
Dimension
 62
     1
420
 16711680
100
AcDbMText
 10
224.2761521642052
 20
92.98199509657377
 30
0.0
 40
2.5
 41
0.0
 71
     5
 72
     1
  1
12
 73
     1
 44
1.0
  0
POINT
  5
4A0
330
464
100
AcDbEntity
  8
DEFPOINTS
 62
     0
100
AcDbPoint
 10
230.2761521642052
 20
107.6099692718208
 30
0.0
  0
POINT
  5
4A1
330
464
100
AcDbEntity
  8
DEFPOINTS
 62
     0
100
AcDbPoint
 10
218.2761521642052
 20
107.6099692718208
 30
0.0
  0
POINT
  5
4A2
330
464
100
AcDbEntity
  8
DEFPOINTS
 62
     0
100
AcDbPoint
 10
218.2761521642052
 20
91.10699509657377
 30
0.0
  0
ENDBLK
  5
466
330
464
100
AcDbEntity
  8
0
100
AcDbBlockEnd
  0
ENDSEC
  0
SECTION
  2
ENTITIES
  0
ARC
  5
286
330
1F
100
AcDbEntity
  8
Main lines
100
AcDbCircle
 10
122.8466831642051
 20
114.6099692718207
 30
0.0
 40
7.0
100
AcDbArc
 50
0.0
 51
180.0
  0
LINE
  5
287
330
1F
100
AcDbEntity
  8
Main lines
100
AcDbLine
 10
132.8466831642051
 20
113.6099692718207
 30
0.0
 11
129.3466831642051
 21
126.6721472718208
 31
0.0
  0
ARC
  5
288
330
1F
100
AcDbEntity
  8
Main lines
100
AcDbCircle
 10
97.84668316420516
 20
132.1099692718207
 30
0.0
 40
6.5
100
AcDbArc
 50
0.0
 51
180.0
  0
ARC
  5
289
330
1F
100
AcDbEntity
  8
Main lines
100
AcDbCircle
 10
97.84668316420516
 20
114.6099692718207
 30
0.0
 40
7.0
100
AcDbArc
 50
0.0
 51
180.0
  0
ARC
  5
28A
330
1F
100
AcDbEntity
  8
Main lines
100
AcDbCircle
 10
97.84668316420516
 20
132.6099692718208
 30
0.0
 40
2.5
100
AcDbArc
 50
0.0
 51
180.0
  0
ARC
  5
28B
330
1F
100
AcDbEntity
  8
Main lines
100
AcDbCircle
 10
97.84668316420516
 20
124.6099692718207
 30
0.0
 40
2.5
100
AcDbArc
 50
180.0
 51
0.0
  0
LINE
  5
28C
330
1F
100
AcDbEntity
  8
Main lines
100
AcDbLine
 10
93.15626716420519
 20
136.6099692718208
 30
0.0
 11
102.5370991642052
 21
136.6099692718208
 31
0.0
  0
LINE
  5
28D
330
1F
100
AcDbEntity
  8
Main lines
100
AcDbLine
 10
91.34668316420516
 20
126.6721472718208
 30
0.0
 11
87.84668316420516
 21
113.6099692718207
 31
0.0
  0
LINE
  5
28E
330
1F
100
AcDbEntity
  8
Main lines
100
AcDbLine
 10
90.84668316420517
 20
107.6099692718208
 30
0.0
 11
87.46302016420514
 21
107.6099692718208
 31
0.0
  0
LINE
  5
28F
330
1F
100
AcDbEntity
  8
Main lines
100
AcDbLine
 10
85.34668316420516
 20
101.6099692718207
 30
0.0
 11
88.66286216420519
 21
101.6099692718207
 31
0.0
  0
LINE
  5
290
330
1F
100
AcDbEntity
  8
Main lines
100
AcDbLine
 10
87.84668316420516
 20
113.6099692718207
 30
0.0
 11
87.84668316420516
 21
109.0881052718208
 31
0.0
  0
LINE
  5
291
330
1F
100
AcDbEntity
  8
Main lines
100
AcDbLine
 10
87.46302016420514
 20
113.6099692718207
 30
0.0
 11
87.46302016420514
 21
107.6099692718208
 31
0.0
  0
LINE
  5
292
330
1F
100
AcDbEntity
  8
Main lines
100
AcDbLine
 10
85.34668316420516
 20
113.6099692718207
 30
0.0
 11
85.34668316420516
 21
101.6099692718207
 31
0.0
  0
ARC
  5
293
330
1F
100
AcDbEntity
  8
Main lines
100
AcDbCircle
 10
87.46302016420514
 20
114.1099692718207
 30
0.0
 40
0.5
100
AcDbArc
 50
270.0
 51
326.2500000000003
  0
LINE
  5
294
330
1F
100
AcDbEntity
  8
Main lines
100
AcDbLine
 10
85.34668316420516
 20
113.6099692718207
 30
0.0
 11
87.46302016420514
 21
113.6099692718207
 31
0.0
  0
LINE
  5
295
330
1F
100
AcDbEntity
  8
Main lines
100
AcDbLine
 10
90.84668316420517
 20
107.6099692718208
 30
0.0
 11
90.84668316420517
 21
114.6099692718207
 31
0.0
  0
LINE
  5
296
330
1F
100
AcDbEntity
  8
Main lines
100
AcDbLine
 10
90.84668316420517
 20
107.6099692718208
 30
0.0
 11
88.66286216420519
 21
101.6099692718207
 31
0.0
  0
LINE
  5
297
330
1F
100
AcDbEntity
  8
Main lines
100
AcDbLine
 10
91.34668316420516
 20
132.1099692718207
 30
0.0
 11
91.34668316420516
 21
126.6721472718208
 31
0.0
  0
LINE
  5
298
330
1F
100
AcDbEntity
  8
Main lines
100
AcDbLine
 10
95.34668316420516
 20
132.6099692718208
 30
0.0
 11
95.34668316420516
 21
124.6099692718207
 31
0.0
  0
LINE
  5
299
330
1F
100
AcDbEntity
  8
Main lines
100
AcDbLine
 10
115.8466831642051
 20
107.6099692718208
 30
0.0
 11
112.4630201642051
 21
107.6099692718208
 31
0.0
  0
LINE
  5
29A
330
1F
100
AcDbEntity
  8
Main lines
100
AcDbLine
 10
107.0305051642052
 20
101.6099692718207
 30
0.0
 11
113.6628621642052
 21
101.6099692718207
 31
0.0
  0
LINE
  5
29B
330
1F
100
AcDbEntity
  8
Main lines
100
AcDbLine
 10
116.3466831642051
 20
126.6721472718208
 30
0.0
 11
112.8466831642051
 21
113.6099692718207
 31
0.0
  0
LINE
  5
29D
330
1F
100
AcDbEntity
  8
Main lines
100
AcDbLine
 10
107.8466831642051
 20
113.6099692718207
 30
0.0
 11
104.3466831642051
 21
126.6721472718208
 31
0.0
  0
LINE
  5
29E
330
1F
100
AcDbEntity
  8
Main lines
100
AcDbLine
 10
112.8466831642051
 20
113.6099692718207
 30
0.0
 11
112.8466831642051
 21
109.0881052718208
 31
0.0
  0
LINE
  5
29F
330
1F
100
AcDbEntity
  8
Main lines
100
AcDbLine
 10
112.4630201642051
 20
113.6099692718207
 30
0.0
 11
112.4630201642051
 21
107.6099692718208
 31
0.0
  0
LINE
  5
2A0
330
1F
100
AcDbEntity
  8
Main lines
100
AcDbLine
 10
108.2303471642051
 20
113.6099692718207
 30
0.0
 11
108.2303471642051
 21
107.6099692718208
 31
0.0
  0
LINE
  5
2A1
330
1F
100
AcDbEntity
  8
Main lines
100
AcDbLine
 10
107.8466831642051
 20
109.0881092718207
 30
0.0
 11
107.8466831642051
 21
113.6099692718207
 31
0.0
  0
LINE
  5
2A2
330
1F
100
AcDbEntity
  8
Main lines
100
AcDbLine
 10
104.8466831642051
 20
107.6099692718208
 30
0.0
 11
104.8466831642051
 21
114.6099692718207
 31
0.0
  0
LINE
  5
2A3
330
1F
100
AcDbEntity
  8
Main lines
100
AcDbLine
 10
108.2303471642051
 20
107.6099692718208
 30
0.0
 11
104.8466831642051
 21
107.6099692718208
 31
0.0
  0
LINE
  5
2A4
330
1F
100
AcDbEntity
  8
Main lines
100
AcDbLine
 10
104.8466831642051
 20
107.6099692718208
 30
0.0
 11
107.0305051642052
 21
101.6099692718207
 31
0.0
  0
LINE
  5
2A5
330
1F
100
AcDbEntity
  8
Main lines
100
AcDbLine
 10
108.2303471642051
 20
113.6099692718207
 30
0.0
 11
112.4630201642051
 21
113.6099692718207
 31
0.0
  0
ARC
  5
2A6
330
1F
100
AcDbEntity
  8
Main lines
100
AcDbCircle
 10
108.2303471642051
 20
114.1099692718207
 30
0.0
 40
0.5
100
AcDbArc
 50
213.7499999999996
 51
270.0
  0
ARC
  5
2A7
330
1F
100
AcDbEntity
  8
Main lines
100
AcDbCircle
 10
112.4630201642051
 20
114.1099692718207
 30
0.0
 40
0.5
100
AcDbArc
 50
270.0
 51
326.2500000000003
  0
LINE
  5
2A8
330
1F
100
AcDbEntity
  8
Main lines
100
AcDbLine
 10
100.3466831642051
 20
124.6099692718207
 30
0.0
 11
100.3466831642051
 21
132.6099692718208
 31
0.0
  0
LINE
  5
2A9
330
1F
100
AcDbEntity
  8
Main lines
100
AcDbLine
 10
104.3466831642051
 20
126.6721472718208
 30
0.0
 11
104.3466831642051
 21
132.1099692718207
 31
0.0
  0
ARC
  5
2AB
330
1F
100
AcDbEntity
  8
Main lines
100
AcDbCircle
 10
122.8466831642051
 20
124.6099692718207
 30
0.0
 40
2.5
100
AcDbArc
 50
180.0
 51
0.0
  0
LINE
  5
2AC
330
1F
100
AcDbEntity
  8
Main lines
100
AcDbLine
 10
115.8466831642051
 20
107.6099692718208
 30
0.0
 11
115.8466831642051
 21
114.6099692718207
 31
0.0
  0
LINE
  5
2AD
330
1F
100
AcDbEntity
  8
Main lines
100
AcDbLine
 10
115.8466831642051
 20
107.6099692718208
 30
0.0
 11
113.6628621642052
 21
101.6099692718207
 31
0.0
  0
ARC
  5
2AE
330
1F
100
AcDbEntity
  8
Main lines
100
AcDbCircle
 10
122.8466831642051
 20
132.1099692718207
 30
0.0
 40
6.5
100
AcDbArc
 50
0.0
 51
180.0
  0
ARC
  5
2AF
330
1F
100
AcDbEntity
  8
Main lines
100
AcDbCircle
 10
122.8466831642051
 20
132.6099692718208
 30
0.0
 40
2.5
100
AcDbArc
 50
0.0
 51
180.0
  0
LINE
  5
2B0
330
1F
100
AcDbEntity
  8
Main lines
100
AcDbLine
 10
118.1562671642052
 20
136.6099692718208
 30
0.0
 11
127.5370991642052
 21
136.6099692718208
 31
0.0
  0
LINE
  5
2B1
330
1F
100
AcDbEntity
  8
Main lines
100
AcDbLine
 10
116.3466831642051
 20
132.1099692718207
 30
0.0
 11
116.3466831642051
 21
126.6721472718208
 31
0.0
  0
LINE
  5
2B2
330
1F
100
AcDbEntity
  8
Main lines
100
AcDbLine
 10
120.3466831642051
 20
132.6099692718208
 30
0.0
 11
120.3466831642051
 21
124.6099692718207
 31
0.0
  0
LINE
  5
2B3
330
1F
100
AcDbEntity
  8
Main lines
100
AcDbLine
 10
129.3466831642051
 20
126.6721472718208
 30
0.0
 11
129.3466831642051
 21
132.1099692718207
 31
0.0
  0
LINE
  5
2B4
330
1F
100
AcDbEntity
  8
Main lines
100
AcDbLine
 10
125.3466831642051
 20
124.6099692718207
 30
0.0
 11
125.3466831642051
 21
132.6099692718208
 31
0.0
  0
LINE
  5
2B6
330
1F
100
AcDbEntity
  8
Main lines
100
AcDbLine
 10
158.2303471642051
 20
113.6099692718207
 30
0.0
 11
162.4630201642051
 21
113.6099692718207
 31
0.0
  0
LINE
  5
2B7
330
1F
100
AcDbEntity
  8
Main lines
100
AcDbLine
 10
157.0305051642051
 20
101.6099692718207
 30
0.0
 11
163.6628621642052
 21
101.6099692718207
 31
0.0
  0
ARC
  5
2B8
330
1F
100
AcDbEntity
  8
Main lines
100
AcDbCircle
 10
147.8466831642051
 20
132.1099692718207
 30
0.0
 40
6.5
100
AcDbArc
 50
0.0
 51
180.0
  0
ARC
  5
2B9
330
1F
100
AcDbEntity
  8
Main lines
100
AcDbCircle
 10
147.8466831642051
 20
114.6099692718207
 30
0.0
 40
7.0
100
AcDbArc
 50
0.0
 51
180.0
  0
ARC
  5
2BA
330
1F
100
AcDbEntity
  8
Main lines
100
AcDbCircle
 10
147.8466831642051
 20
132.6099692718208
 30
0.0
 40
2.5
100
AcDbArc
 50
0.0
 51
180.0
  0
ARC
  5
2BB
330
1F
100
AcDbEntity
  8
Main lines
100
AcDbCircle
 10
147.8466831642051
 20
124.6099692718207
 30
0.0
 40
2.5
100
AcDbArc
 50
180.0
 51
0.0
  0
LINE
  5
2BC
330
1F
100
AcDbEntity
  8
Main lines
100
AcDbLine
 10
143.1562671642052
 20
136.6099692718208
 30
0.0
 11
152.5370991642052
 21
136.6099692718208
 31
0.0
  0
LINE
  5
2BD
330
1F
100
AcDbEntity
  8
Main lines
100
AcDbLine
 10
141.3466831642051
 20
126.6721472718208
 30
0.0
 11
137.8466831642051
 21
113.6099692718207
 31
0.0
  0
ARC
  5
2BE
330
1F
100
AcDbEntity
  8
Main lines
100
AcDbCircle
 10
137.4630201642051
 20
114.1099692718207
 30
0.0
 40
0.5
100
AcDbArc
 50
270.0
 51
326.2500000000003
  0
LINE
  5
2BF
330
1F
100
AcDbEntity
  8
Main lines
100
AcDbLine
 10
140.8466831642051
 20
107.6099692718208
 30
0.0
 11
137.4630201642051
 21
107.6099692718208
 31
0.0
  0
LINE
  5
2C0
330
1F
100
AcDbEntity
  8
Main lines
100
AcDbLine
 10
132.0305051642052
 20
101.6099692718207
 30
0.0
 11
138.6628621642052
 21
101.6099692718207
 31
0.0
  0
LINE
  5
2C1
330
1F
100
AcDbEntity
  8
Main lines
100
AcDbLine
 10
137.4630201642051
 20
113.6099692718207
 30
0.0
 11
137.4630201642051
 21
107.6099692718208
 31
0.0
  0
LINE
  5
2C2
330
1F
100
AcDbEntity
  8
Main lines
100
AcDbLine
 10
133.2303471642051
 20
113.6099692718207
 30
0.0
 11
133.2303471642051
 21
107.6099692718208
 31
0.0
  0
LINE
  5
2C3
330
1F
100
AcDbEntity
  8
Main lines
100
AcDbLine
 10
132.8466831642051
 20
109.0881092718207
 30
0.0
 11
132.8466831642051
 21
113.6099692718207
 31
0.0
  0
LINE
  5
2C4
330
1F
100
AcDbEntity
  8
Main lines
100
AcDbLine
 10
129.8466831642051
 20
107.6099692718208
 30
0.0
 11
129.8466831642051
 21
114.6099692718207
 31
0.0
  0
LINE
  5
2C5
330
1F
100
AcDbEntity
  8
Main lines
100
AcDbLine
 10
129.8466831642051
 20
107.6099692718208
 30
0.0
 11
132.0305051642052
 21
101.6099692718207
 31
0.0
  0
LINE
  5
2C6
330
1F
100
AcDbEntity
  8
Main lines
100
AcDbLine
 10
133.2303471642051
 20
107.6099692718208
 30
0.0
 11
129.8466831642051
 21
107.6099692718208
 31
0.0
  0
LINE
  5
2C7
330
1F
100
AcDbEntity
  8
Main lines
100
AcDbLine
 10
133.2303471642051
 20
113.6099692718207
 30
0.0
 11
137.4630201642051
 21
113.6099692718207
 31
0.0
  0
ARC
  5
2C8
330
1F
100
AcDbEntity
  8
Main lines
100
AcDbCircle
 10
133.2303471642051
 20
114.1099692718207
 30
0.0
 40
0.5
100
AcDbArc
 50
213.7499999999996
 51
270.0
  0
LINE
  5
2C9
330
1F
100
AcDbEntity
  8
Main lines
100
AcDbLine
 10
140.8466831642051
 20
107.6099692718208
 30
0.0
 11
140.8466831642051
 21
114.6099692718207
 31
0.0
  0
LINE
  5
2CA
330
1F
100
AcDbEntity
  8
Main lines
100
AcDbLine
 10
137.8466831642051
 20
113.6099692718207
 30
0.0
 11
137.8466831642051
 21
109.0881052718208
 31
0.0
  0
LINE
  5
2CB
330
1F
100
AcDbEntity
  8
Main lines
100
AcDbLine
 10
140.8466831642051
 20
107.6099692718208
 30
0.0
 11
138.6628621642052
 21
101.6099692718207
 31
0.0
  0
LINE
  5
2CD
330
1F
100
AcDbEntity
  8
Main lines
100
AcDbLine
 10
141.3466831642051
 20
132.1099692718207
 30
0.0
 11
141.3466831642051
 21
126.6721472718208
 31
0.0
  0
LINE
  5
2CE
330
1F
100
AcDbEntity
  8
Main lines
100
AcDbLine
 10
145.3466831642051
 20
132.6099692718208
 30
0.0
 11
145.3466831642051
 21
124.6099692718207
 31
0.0
  0
LINE
  5
2D0
330
1F
100
AcDbEntity
  8
Main lines
100
AcDbLine
 10
157.8466831642051
 20
113.6099692718207
 30
0.0
 11
154.3466831642051
 21
126.6721472718208
 31
0.0
  0
LINE
  5
2D1
330
1F
100
AcDbEntity
  8
Main lines
100
AcDbLine
 10
158.2303471642051
 20
113.6099692718207
 30
0.0
 11
158.2303471642051
 21
107.6099692718208
 31
0.0
  0
LINE
  5
2D2
330
1F
100
AcDbEntity
  8
Main lines
100
AcDbLine
 10
157.8466831642051
 20
109.0881092718207
 30
0.0
 11
157.8466831642051
 21
113.6099692718207
 31
0.0
  0
LINE
  5
2D3
330
1F
100
AcDbEntity
  8
Main lines
100
AcDbLine
 10
154.8466831642051
 20
107.6099692718208
 30
0.0
 11
154.8466831642051
 21
114.6099692718207
 31
0.0
  0
LINE
  5
2D4
330
1F
100
AcDbEntity
  8
Main lines
100
AcDbLine
 10
158.2303471642051
 20
107.6099692718208
 30
0.0
 11
154.8466831642051
 21
107.6099692718208
 31
0.0
  0
LINE
  5
2D5
330
1F
100
AcDbEntity
  8
Main lines
100
AcDbLine
 10
154.8466831642051
 20
107.6099692718208
 30
0.0
 11
157.0305051642051
 21
101.6099692718207
 31
0.0
  0
ARC
  5
2D6
330
1F
100
AcDbEntity
  8
Main lines
100
AcDbCircle
 10
158.2303471642051
 20
114.1099692718207
 30
0.0
 40
0.5
100
AcDbArc
 50
213.7499999999996
 51
270.0
  0
LINE
  5
2D7
330
1F
100
AcDbEntity
  8
Main lines
100
AcDbLine
 10
150.3466831642051
 20
124.6099692718207
 30
0.0
 11
150.3466831642051
 21
132.6099692718208
 31
0.0
  0
LINE
  5
2D8
330
1F
100
AcDbEntity
  8
Main lines
100
AcDbLine
 10
154.3466831642051
 20
126.6721472718208
 30
0.0
 11
154.3466831642051
 21
132.1099692718207
 31
0.0
  0
ARC
  5
2D9
330
1F
100
AcDbEntity
  8
Main lines
100
AcDbCircle
 10
172.8466831642051
 20
132.1099692718207
 30
0.0
 40
6.5
100
AcDbArc
 50
0.0
 51
180.0
  0
ARC
  5
2DA
330
1F
100
AcDbEntity
  8
Main lines
100
AcDbCircle
 10
172.8466831642051
 20
114.6099692718207
 30
0.0
 40
7.0
100
AcDbArc
 50
0.0
 51
180.0
  0
ARC
  5
2DC
330
1F
100
AcDbEntity
  8
Main lines
100
AcDbCircle
 10
172.8466831642051
 20
124.6099692718207
 30
0.0
 40
2.5
100
AcDbArc
 50
180.0
 51
0.0
  0
LINE
  5
2DD
330
1F
100
AcDbEntity
  8
Main lines
100
AcDbLine
 10
166.3466831642051
 20
126.6721472718208
 30
0.0
 11
162.8466831642051
 21
113.6099692718207
 31
0.0
  0
LINE
  5
2DE
330
1F
100
AcDbEntity
  8
Main lines
100
AcDbLine
 10
165.8466831642051
 20
107.6099692718208
 30
0.0
 11
165.8466831642051
 21
114.6099692718207
 31
0.0
  0
LINE
  5
2DF
330
1F
100
AcDbEntity
  8
Main lines
100
AcDbLine
 10
162.8466831642051
 20
113.6099692718207
 30
0.0
 11
162.8466831642051
 21
109.0881052718208
 31
0.0
  0
LINE
  5
2E0
330
1F
100
AcDbEntity
  8
Main lines
100
AcDbLine
 10
162.4630201642051
 20
113.6099692718207
 30
0.0
 11
162.4630201642051
 21
107.6099692718208
 31
0.0
  0
LINE
  5
2E1
330
1F
100
AcDbEntity
  8
Main lines
100
AcDbLine
 10
165.8466831642051
 20
107.6099692718208
 30
0.0
 11
163.6628621642052
 21
101.6099692718207
 31
0.0
  0
LINE
  5
2E2
330
1F
100
AcDbEntity
  8
Main lines
100
AcDbLine
 10
165.8466831642051
 20
107.6099692718208
 30
0.0
 11
162.4630201642051
 21
107.6099692718208
 31
0.0
  0
ARC
  5
2E3
330
1F
100
AcDbEntity
  8
Main lines
100
AcDbCircle
 10
162.4630201642051
 20
114.1099692718207
 30
0.0
 40
0.5
100
AcDbArc
 50
270.0
 51
326.2500000000003
  0
ARC
  5
2E4
330
1F
100
AcDbEntity
  8
Main lines
100
AcDbCircle
 10
172.8466831642051
 20
132.6099692718208
 30
0.0
 40
2.5
100
AcDbArc
 50
0.0
 51
180.0
  0
LINE
  5
2E5
330
1F
100
AcDbEntity
  8
Main lines
100
AcDbLine
 10
168.1562671642051
 20
136.6099692718208
 30
0.0
 11
177.5370991642052
 21
136.6099692718208
 31
0.0
  0
LINE
  5
2E6
330
1F
100
AcDbEntity
  8
Main lines
100
AcDbLine
 10
170.3466831642051
 20
132.6099692718208
 30
0.0
 11
170.3466831642051
 21
124.6099692718207
 31
0.0
  0
LINE
  5
2E7
330
1F
100
AcDbEntity
  8
Main lines
100
AcDbLine
 10
166.3466831642051
 20
132.1099692718207
 30
0.0
 11
166.3466831642051
 21
126.6721472718208
 31
0.0
  0
LINE
  5
2EA
330
1F
100
AcDbEntity
  8
Main lines
100
AcDbLine
 10
175.3466831642051
 20
124.6099692718207
 30
0.0
 11
175.3466831642051
 21
132.6099692718208
 31
0.0
  0
LINE
  5
2EB
330
1F
100
AcDbEntity
  8
Main lines
100
AcDbLine
 10
182.8466831642051
 20
113.6099692718207
 30
0.0
 11
179.3466831642051
 21
126.6721472718208
 31
0.0
  0
LINE
  5
2EC
330
1F
100
AcDbEntity
  8
Main lines
100
AcDbLine
 10
185.3466831642051
 20
113.6099692718207
 30
0.0
 11
185.3466831642051
 21
101.6099692718207
 31
0.0
  0
LINE
  5
2ED
330
1F
100
AcDbEntity
  8
Main lines
100
AcDbLine
 10
183.2303471642051
 20
113.6099692718207
 30
0.0
 11
183.2303471642051
 21
107.6099692718208
 31
0.0
  0
LINE
  5
2EE
330
1F
100
AcDbEntity
  8
Main lines
100
AcDbLine
 10
182.8466831642051
 20
109.0881092718207
 30
0.0
 11
182.8466831642051
 21
113.6099692718207
 31
0.0
  0
LINE
  5
2EF
330
1F
100
AcDbEntity
  8
Main lines
100
AcDbLine
 10
179.8466831642051
 20
107.6099692718208
 30
0.0
 11
179.8466831642051
 21
114.6099692718207
 31
0.0
  0
LINE
  5
2F0
330
1F
100
AcDbEntity
  8
Main lines
100
AcDbLine
 10
183.2303471642051
 20
107.6099692718208
 30
0.0
 11
179.8466831642051
 21
107.6099692718208
 31
0.0
  0
LINE
  5
2F1
330
1F
100
AcDbEntity
  8
Main lines
100
AcDbLine
 10
182.0305051642051
 20
101.6099692718207
 30
0.0
 11
185.3466831642051
 21
101.6099692718207
 31
0.0
  0
LINE
  5
2F2
330
1F
100
AcDbEntity
  8
Main lines
100
AcDbLine
 10
179.8466831642051
 20
107.6099692718208
 30
0.0
 11
182.0305051642051
 21
101.6099692718207
 31
0.0
  0
ARC
  5
2F3
330
1F
100
AcDbEntity
  8
Main lines
100
AcDbCircle
 10
183.2303471642051
 20
114.1099692718207
 30
0.0
 40
0.5
100
AcDbArc
 50
213.7499999999996
 51
270.0
  0
LINE
  5
2F4
330
1F
100
AcDbEntity
  8
Main lines
100
AcDbLine
 10
183.2303471642051
 20
113.6099692718207
 30
0.0
 11
185.3466831642051
 21
113.6099692718207
 31
0.0
  0
LINE
  5
2F5
330
1F
100
AcDbEntity
  8
Main lines
100
AcDbLine
 10
179.3466831642051
 20
126.6721472718208
 30
0.0
 11
179.3466831642051
 21
132.1099692718207
 31
0.0
  0
ARC
  5
2F7
330
1F
100
AcDbEntity
  8
Main lines
100
AcDbCircle
 10
224.2761521642052
 20
107.6099692718208
 30
0.0
 40
6.179371999999999
100
AcDbArc
 50
13.83881600000001
 51
76.16118400000039
  0
CIRCLE
  5
2F8
330
1F
100
AcDbEntity
  8
Main lines
100
AcDbCircle
 10
224.2761521642052
 20
107.6099692718208
 30
0.0
 40
6.0
  0
LINE
  5
2F9
330
1F
100
AcDbEntity
  8
Main lines
100
AcDbLine
 10
220.2761521642052
 20
138.6099692718207
 30
0.0
 11
228.2761521642052
 21
138.6099692718207
 31
0.0
  0
LINE
  5
2FA
330
1F
100
AcDbEntity
  8
Main lines
100
AcDbLine
 10
226.9722311642051
 20
132.1099692718207
 30
0.0
 11
230.2761521642052
 21
132.1099692718207
 31
0.0
  0
LINE
  5
2FB
330
1F
100
AcDbEntity
  8
Main lines
100
AcDbLine
 10
226.9722311642051
 20
126.6721472718208
 30
0.0
 11
230.2761521642052
 21
126.6721472718208
 31
0.0
  0
LINE
  5
2FC
330
1F
100
AcDbEntity
  8
Main lines
100
AcDbLine
 10
225.7542051642051
 20
113.6099692718207
 30
0.0
 11
230.2761521642052
 21
113.6099692718207
 31
0.0
  0
ARC
  5
2FE
330
1F
100
AcDbEntity
  8
Main lines
100
AcDbCircle
 10
224.2761521642052
 20
124.8060472718208
 30
0.0
 40
2.696077999999999
100
AcDbArc
 50
180.0
 51
0.0
  0
LINE
  5
2FF
330
1F
100
AcDbEntity
  8
Main lines
100
AcDbLine
 10
218.2761521642052
 20
136.6099692718208
 30
0.0
 11
218.2761521642052
 21
107.6099692718208
 31
0.0
  0
ARC
  5
300
330
1F
100
AcDbEntity
  8
Main lines
100
AcDbCircle
 10
224.2761521642052
 20
107.6099692718208
 30
0.0
 40
6.179371999999999
100
AcDbArc
 50
103.8388159999996
 51
166.161184
  0
LINE
  5
301
330
1F
100
AcDbEntity
  8
Main lines
100
AcDbLine
 10
218.2761521642052
 20
113.6099692718207
 30
0.0
 11
222.7981001642052
 21
113.6099692718207
 31
0.0
  0
CIRCLE
  5
302
330
1F
100
AcDbEntity
  8
Main lines
100
AcDbCircle
 10
224.2761521642052
 20
107.6099692718208
 30
0.0
 40
2.696077999999999
  0
ARC
  5
303
330
1F
100
AcDbEntity
  8
Main lines
100
AcDbCircle
 10
220.2761521642052
 20
136.6099692718208
 30
0.0
 40
2.0
100
AcDbArc
 50
90.0
 51
180.0
  0
LINE
  5
304
330
1F
100
AcDbEntity
  8
Main lines
100
AcDbLine
 10
218.2761521642052
 20
132.1099692718207
 30
0.0
 11
221.5800741642051
 21
132.1099692718207
 31
0.0
  0
LINE
  5
305
330
1F
100
AcDbEntity
  8
Main lines
100
AcDbLine
 10
218.2761521642052
 20
126.6721472718208
 30
0.0
 11
221.5800741642051
 21
126.6721472718208
 31
0.0
  0
ARC
  5
306
330
1F
100
AcDbEntity
  8
Main lines
100
AcDbCircle
 10
224.2761521642052
 20
132.4138902718207
 30
0.0
 40
2.696077999999999
100
AcDbArc
 50
0.0
 51
180.0
  0
LINE
  5
307
330
1F
100
AcDbEntity
  8
Main lines
100
AcDbLine
 10
221.5800741642051
 20
132.4138902718207
 30
0.0
 11
221.5800741642051
 21
124.8060472718208
 31
0.0
  0
LINE
  5
308
330
1F
100
AcDbEntity
  8
Main lines
100
AcDbLine
 10
226.9722311642051
 20
132.4138902718207
 30
0.0
 11
226.9722311642051
 21
124.8060472718208
 31
0.0
  0
LINE
  5
309
330
1F
100
AcDbEntity
  8
Main lines
100
AcDbLine
 10
230.2761521642052
 20
107.6099692718208
 30
0.0
 11
230.2761521642052
 21
136.6099692718208
 31
0.0
  0
ARC
  5
30A
330
1F
100
AcDbEntity
  8
Main lines
100
AcDbCircle
 10
228.2761521642052
 20
136.6099692718208
 30
0.0
 40
2.0
100
AcDbArc
 50
0.0
 51
90.0
  0
POINT
  5
30F
330
1F
100
AcDbEntity
  8
Main lines
  6
ByBlock
100
AcDbPoint
 10
226.7307311642053
 20
108.7252652718208
 30
0.0
  0
POINT
  5
310
330
1F
100
AcDbEntity
  8
Main lines
  6
ByBlock
100
AcDbPoint
 10
221.8215741642052
 20
106.4946732718208
 30
0.0
  0
POINT
  5
316
330
1F
100
AcDbEntity
  8
Main lines
  6
ByBlock
100
AcDbPoint
 10
185.3466831642051
 20
101.6099692718207
 30
0.0
  0
POINT
  5
317
330
1F
100
AcDbEntity
  8
Main lines
  6
ByBlock
100
AcDbPoint
 10
185.3466831642051
 20
113.6099692718207
 30
0.0
  0
POINT
  5
31F
330
1F
100
AcDbEntity
  8
Main lines
  6
ByBlock
100
AcDbPoint
 10
140.8466831642051
 20
107.6099692718207
 30
0.0
  0
POINT
  5
320
330
1F
100
AcDbEntity
  8
Main lines
  6
ByBlock
100
AcDbPoint
 10
147.8466831642051
 20
138.6099692718207
 30
0.0
  0
POINT
  5
322
330
1F
100
AcDbEntity
  8
Main lines
  6
ByBlock
100
AcDbPoint
 10
138.6628621642052
 20
101.6099692718208
 30
0.0
  0
POINT
  5
328
330
1F
100
AcDbEntity
  8
Main lines
  6
ByBlock
100
AcDbPoint
 10
185.3466831642051
 20
101.6099692718207
 30
0.0
  0
POINT
  5
329
330
1F
100
AcDbEntity
  8
Main lines
  6
ByBlock
100
AcDbPoint
 10
172.8466831642051
 20
138.6099692718207
 30
0.0
  0
POINT
  5
32D
330
1F
100
AcDbEntity
  8
Main lines
  6
ByBlock
100
AcDbPoint
 10
125.2234951642052
 20
121.1940992718208
 30
0.0
  0
POINT
  5
338
330
1F
100
AcDbEntity
  8
Main lines
  6
ByBlock
100
AcDbPoint
 10
85.34668316420516
 20
101.6099692718207
 30
0.0
  0
POINT
  5
339
330
1F
100
AcDbEntity
  8
Main lines
  6
ByBlock
100
AcDbPoint
 10
185.3466831642051
 20
101.6099692718207
 30
0.0
  0
LINE
  5
33B
330
1F
100
AcDbEntity
  8
Main lines
100
AcDbLine
 10
87.46302016420514
 20
107.6099692718208
 30
0.0
 11
87.67758916420518
 21
108.3734532718207
 31
0.0
  0
LINE
  5
33C
330
1F
100
AcDbEntity
  8
Main lines
100
AcDbLine
 10
87.67758916420518
 20
108.3734532718207
 30
0.0
 11
87.84668316420516
 21
109.0881052718208
 31
0.0
  0
LINE
  5
33D
330
1F
100
AcDbEntity
  8
Main lines
100
AcDbLine
 10
112.4630201642051
 20
107.6099692718208
 30
0.0
 11
112.6775891642052
 21
108.3734532718207
 31
0.0
  0
LINE
  5
33E
330
1F
100
AcDbEntity
  8
Main lines
100
AcDbLine
 10
112.6775891642052
 20
108.3734532718207
 30
0.0
 11
112.8466831642051
 21
109.0881052718208
 31
0.0
  0
LINE
  5
33F
330
1F
100
AcDbEntity
  8
Main lines
100
AcDbLine
 10
107.8466831642051
 20
109.0881092718207
 30
0.0
 11
108.0157731642051
 21
108.3734712718208
 31
0.0
  0
LINE
  5
340
330
1F
100
AcDbEntity
  8
Main lines
100
AcDbLine
 10
108.0157731642051
 20
108.3734712718208
 30
0.0
 11
108.2303471642051
 21
107.6099692718208
 31
0.0
  0
LINE
  5
341
330
1F
100
AcDbEntity
  8
Main lines
100
AcDbLine
 10
132.8466831642051
 20
109.0881092718207
 30
0.0
 11
133.0157731642051
 21
108.3734712718208
 31
0.0
  0
LINE
  5
342
330
1F
100
AcDbEntity
  8
Main lines
100
AcDbLine
 10
133.0157731642051
 20
108.3734712718208
 30
0.0
 11
133.2303471642051
 21
107.6099692718208
 31
0.0
  0
LINE
  5
343
330
1F
100
AcDbEntity
  8
Main lines
100
AcDbLine
 10
137.4630201642051
 20
107.6099692718208
 30
0.0
 11
137.6775891642052
 21
108.3734532718207
 31
0.0
  0
LINE
  5
344
330
1F
100
AcDbEntity
  8
Main lines
100
AcDbLine
 10
137.6775891642052
 20
108.3734532718207
 30
0.0
 11
137.8466831642051
 21
109.0881052718208
 31
0.0
  0
POINT
  5
34A
330
1F
100
AcDbEntity
  8
Main lines
  6
ByBlock
100
AcDbPoint
 10
165.8466831642051
 20
107.6099692718208
 30
0.0
  0
POINT
  5
34B
330
1F
100
AcDbEntity
  8
Main lines
  6
ByBlock
100
AcDbPoint
 10
179.8466831642051
 20
107.6099692718208
 30
0.0
  0
LINE
  5
34D
330
1F
100
AcDbEntity
  8
Main lines
100
AcDbLine
 10
157.8466831642051
 20
109.0881092718207
 30
0.0
 11
158.0157731642051
 21
108.3734712718208
 31
0.0
  0
LINE
  5
34E
330
1F
100
AcDbEntity
  8
Main lines
100
AcDbLine
 10
158.0157731642051
 20
108.3734712718208
 30
0.0
 11
158.2303471642051
 21
107.6099692718208
 31
0.0
  0
LINE
  5
34F
330
1F
100
AcDbEntity
  8
Main lines
100
AcDbLine
 10
162.4630201642051
 20
107.6099692718208
 30
0.0
 11
162.6775891642052
 21
108.3734532718207
 31
0.0
  0
LINE
  5
350
330
1F
100
AcDbEntity
  8
Main lines
100
AcDbLine
 10
162.6775891642052
 20
108.3734532718207
 30
0.0
 11
162.8466831642051
 21
109.0881052718208
 31
0.0
  0
LINE
  5
351
330
1F
100
AcDbEntity
  8
Main lines
100
AcDbLine
 10
182.8466831642051
 20
109.0881092718207
 30
0.0
 11
183.0157731642051
 21
108.3734712718208
 31
0.0
  0
LINE
  5
352
330
1F
100
AcDbEntity
  8
Main lines
100
AcDbLine
 10
183.0157731642051
 20
108.3734712718208
 30
0.0
 11
183.2303471642051
 21
107.6099692718208
 31
0.0
  0
POINT
  5
358
330
1F
100
AcDbEntity
  8
Main lines
  6
ByBlock
100
AcDbPoint
 10
218.2761521642052
 20
107.6099692718208
 30
0.0
  0
POINT
  5
359
330
1F
100
AcDbEntity
  8
Main lines
  6
ByBlock
100
AcDbPoint
 10
230.2761521642052
 20
107.6099692718208
 30
0.0
  0
POINT
  5
360
330
1F
100
AcDbEntity
  8
Main lines
  6
ByBlock
100
AcDbPoint
 10
157.8466831642051
 20
113.6099692718207
 30
0.0
  0
POINT
  5
361
330
1F
100
AcDbEntity
  8
Main lines
  6
ByBlock
100
AcDbPoint
 10
154.3466831642051
 20
126.6721472718207
 30
0.0
  0
POINT
  5
362
330
1F
100
AcDbEntity
  8
Main lines
  6
ByBlock
100
AcDbPoint
 10
154.3466831642051
 20
132.1099692718207
 30
0.0
  0
POINT
  5
363
330
1F
100
AcDbEntity
  8
Main lines
  6
ByBlock
100
AcDbPoint
 10
154.3466831642051
 20
126.6721472718207
 30
0.0
  0
POINT
  5
369
330
1F
100
AcDbEntity
  8
Main lines
  6
ByBlock
100
AcDbPoint
 10
172.8466831642051
 20
138.6099692718207
 30
0.0
  0
POINT
  5
36A
330
1F
100
AcDbEntity
  8
Main lines
  6
ByBlock
100
AcDbPoint
 10
147.8466831642051
 20
138.6099692718207
 30
0.0
  0
POINT
  5
371
330
1F
100
AcDbEntity
  8
Main lines
  6
ByBlock
100
AcDbPoint
 10
85.34668316420516
 20
113.6099692718207
 30
0.0
  0
POINT
  5
372
330
1F
100
AcDbEntity
  8
Main lines
  6
ByBlock
100
AcDbPoint
 10
97.84668316420516
 20
138.6099692718207
 30
0.0
  0
POINT
  5
379
330
1F
100
AcDbEntity
  8
Main lines
  6
ByBlock
100
AcDbPoint
 10
97.84668316420516
 20
138.6099692718207
 30
0.0
  0
POINT
  5
37A
330
1F
100
AcDbEntity
  8
Main lines
  6
ByBlock
100
AcDbPoint
 10
122.8466831642051
 20
138.6099692718207
 30
0.0
  0
POINT
  5
381
330
1F
100
AcDbEntity
  8
Main lines
  6
ByBlock
100
AcDbPoint
 10
122.8466831642051
 20
139.1099692718207
 30
0.0
  0
POINT
  5
382
330
1F
100
AcDbEntity
  8
Main lines
  6
ByBlock
100
AcDbPoint
 10
147.8466831642051
 20
138.6099692718207
 30
0.0
  0
POINT
  5
38A
330
1F
100
AcDbEntity
  8
Main lines
  6
ByBlock
100
AcDbPoint
 10
107.8466831642051
 20
113.6099692718207
 30
0.0
  0
POINT
  5
38B
330
1F
100
AcDbEntity
  8
Main lines
  6
ByBlock
100
AcDbPoint
 10
112.8466831642051
 20
113.6099692718207
 30
0.0
  0
POINT
  5
393
330
1F
100
AcDbEntity
  8
Main lines
  6
ByBlock
100
AcDbPoint
 10
87.84668316420516
 20
113.6099692718207
 30
0.0
  0
POINT
  5
394
330
1F
100
AcDbEntity
  8
Main lines
  6
ByBlock
100
AcDbPoint
 10
85.34668316420516
 20
113.6099692718207
 30
0.0
  0
POINT
  5
39E
330
1F
100
AcDbEntity
  8
Main lines
  6
ByBlock
100
AcDbPoint
 10
150.3466831642051
 20
132.6099692718208
 30
0.0
  0
POINT
  5
39F
330
1F
100
AcDbEntity
  8
Main lines
  6
ByBlock
100
AcDbPoint
 10
145.3466831642051
 20
132.6099692718208
 30
0.0
  0
POINT
  5
3A7
330
1F
100
AcDbEntity
  8
Main lines
  6
ByBlock
100
AcDbPoint
 10
224.2761521642052
 20
122.1099692718208
 30
0.0
  0
POINT
  5
3A8
330
1F
100
AcDbEntity
  8
Main lines
  6
ByBlock
100
AcDbPoint
 10
224.2761521642052
 20
135.1099692718207
 30
0.0
  0
POINT
  5
3AF
330
1F
100
AcDbEntity
  8
Main lines
  6
ByBlock
100
AcDbPoint
 10
172.8466831642051
 20
121.6099692718207
 30
0.0
  0
POINT
  5
3B0
330
1F
100
AcDbEntity
  8
Main lines
  6
ByBlock
100
AcDbPoint
 10
172.8466831642051
 20
138.6099692718207
 30
0.0
  0
POINT
  5
3B9
330
1F
100
AcDbEntity
  8
Main lines
  6
ByBlock
100
AcDbPoint
 10
224.2761521642052
 20
135.1099692718207
 30
0.0
  0
POINT
  5
3BA
330
1F
100
AcDbEntity
  8
Main lines
  6
ByBlock
100
AcDbPoint
 10
228.2761521642052
 20
138.6099692718207
 30
0.0
  0
POINT
  5
3C2
330
1F
100
AcDbEntity
  8
Main lines
  6
ByBlock
100
AcDbPoint
 10
226.9722311642051
 20
132.4138902718207
 30
0.0
  0
POINT
  5
3C3
330
1F
100
AcDbEntity
  8
Main lines
  6
ByBlock
100
AcDbPoint
 10
221.5800741642051
 20
132.4138902718207
 30
0.0
  0
LINE
  5
3C5
330
1F
100
AcDbEntity
  8
Main lines
100
AcDbLine
 10
225.7542051642051
 20
113.6099692718207
 30
0.0
 11
225.2611141642052
 21
113.7715252718207
 31
0.0
  0
LINE
  5
3C6
330
1F
100
AcDbEntity
  8
Main lines
100
AcDbLine
 10
225.2611141642052
 20
113.7715252718207
 30
0.0
 11
224.7676521642052
 21
113.8947522718207
 31
0.0
  0
LINE
  5
3C7
330
1F
100
AcDbEntity
  8
Main lines
100
AcDbLine
 10
224.7676521642052
 20
113.8947522718207
 30
0.0
 11
224.2761521642052
 21
113.9805592718208
 31
0.0
  0
LINE
  5
3C8
330
1F
100
AcDbEntity
  8
Main lines
100
AcDbLine
 10
224.2761521642052
 20
113.9805592718208
 30
0.0
 11
223.7847271642051
 21
113.8947672718208
 31
0.0
  0
LINE
  5
3C9
330
1F
100
AcDbEntity
  8
Main lines
100
AcDbLine
 10
223.7847271642051
 20
113.8947672718208
 30
0.0
 11
223.2914601642052
 21
113.7716022718207
 31
0.0
  0
LINE
  5
3CA
330
1F
100
AcDbEntity
  8
Main lines
100
AcDbLine
 10
223.2914601642052
 20
113.7716022718207
 30
0.0
 11
222.7981001642052
 21
113.6099692718207
 31
0.0
  0
POINT
  5
3CF
330
1F
100
AcDbEntity
  8
Main lines
  6
ByBlock
100
AcDbPoint
 10
218.8346281642051
 20
137.9963342718208
 30
0.0
  0
ENDSEC
  0
SECTION
  2
OBJECTS
  0
DICTIONARY
  5
C
330
0
100
AcDbDictionary
281
     1
  3
ACAD_COLOR
350
B1
  3
ACAD_GROUP
350
D
  3
ACAD_LAYOUT
350
1A
  3
ACAD_MATERIAL
350
87
  3
ACAD_MLEADERSTYLE
350
D6
  3
ACAD_MLINESTYLE
350
17
  3
ACAD_PLOTSETTINGS
350
19
  3
ACAD_PLOTSTYLENAME
350
E
  3
ACAD_SCALELIST
350
B4
  3
ACAD_TABLESTYLE
350
B2
  3
ACAD_VISUALSTYLE
350
A0
  3
ACDB_RECOMPOSE_DATA
350
F4
  3
AcDbVariableDictionary
350
10A
  0
DICTIONARY
  5
F5
330
8
100
AcDbDictionary
280
     1
281
     1
  0
DICTIONARY
  5
E1
330
2
100
AcDbDictionary
280
     1
281
     1
  3
ACAD_LAYERFILTERS
360
4AA
  3
ACLYDICTIONARY
360
4A9
  0
DICTIONARY
  5
E4
330
10
100
AcDbDictionary
280
     1
281
     1
  3
ADSK_XREC_LAYER_RECONCILED
360
E5
  0
DICTIONARY
  5
E6
330
35
100
AcDbDictionary
280
     1
281
     1
  3
ADSK_XREC_LAYER_RECONCILED
360
E7
  0
DICTIONARY
  5
E8
330
36
100
AcDbDictionary
280
     1
281
     1
  3
ADSK_XREC_LAYER_RECONCILED
360
E9
  0
DICTIONARY
  5
EA
330
37
100
AcDbDictionary
280
     1
281
     1
  3
ADSK_XREC_LAYER_RECONCILED
360
EB
  0
DICTIONARY
  5
B1
102
{ACAD_REACTORS
330
C
102
}
330
C
100
AcDbDictionary
281
     1
  0
DICTIONARY
  5
D
102
{ACAD_REACTORS
330
C
102
}
330
C
100
AcDbDictionary
281
     1
  0
DICTIONARY
  5
1A
102
{ACAD_REACTORS
330
C
102
}
330
C
100
AcDbDictionary
281
     1
  3
Layout1
350
81
  3
Layout2
350
1E
  3
Model
350
22
  0
DICTIONARY
  5
87
102
{ACAD_REACTORS
330
C
102
}
330
C
100
AcDbDictionary
281
     1
  3
ByBlock
350
90
  3
ByLayer
350
88
  3
Global
350
98
  0
DICTIONARY
  5
D6
102
{ACAD_REACTORS
330
C
102
}
330
C
100
AcDbDictionary
281
     1
  3
Standard
350
D7
  0
DICTIONARY
  5
17
102
{ACAD_REACTORS
330
C
102
}
330
C
100
AcDbDictionary
281
     1
  3
Standard
350
18
  0
DICTIONARY
  5
19
102
{ACAD_REACTORS
330
C
102
}
330
C
100
AcDbDictionary
281
     1
  0
ACDBDICTIONARYWDFLT
  5
E
102
{ACAD_REACTORS
330
C
102
}
330
C
100
AcDbDictionary
281
     1
  3
Normal
350
F
100
AcDbDictionaryWithDefault
340
F
  0
DICTIONARY
  5
B4
102
{ACAD_REACTORS
330
C
102
}
330
C
100
AcDbDictionary
281
     1
  3
A0
350
B5
  3
A1
350
B6
  3
A2
350
B7
  3
A3
350
B8
  3
A4
350
B9
  3
A5
350
BA
  3
A6
350
BB
  3
A7
350
BC
  3
A8
350
BD
  3
A9
350
BE
  3
B0
350
BF
  3
B1
350
C0
  3
B2
350
C1
  3
B3
350
C2
  3
B4
350
C3
  3
B5
350
C4
  3
B6
350
C5
  3
B7
350
C6
  3
B8
350
C7
  3
B9
350
C8
  3
C0
350
C9
  3
C1
350
CA
  3
C2
350
CB
  3
C3
350
CC
  3
C4
350
CD
  3
C5
350
CE
  3
C6
350
CF
  3
C7
350
D0
  3
C8
350
D1
  3
C9
350
D2
  3
D0
350
D3
  3
D1
350
D4
  3
D2
350
D5
  0
DICTIONARY
  5
B2
102
{ACAD_REACTORS
330
C
102
}
330
C
100
AcDbDictionary
281
     1
  3
Standard
350
B3
  0
DICTIONARY
  5
A0
102
{ACAD_REACTORS
330
C
102
}
330
C
100
AcDbDictionary
281
     1
  3
2dWireframe
350
A6
  3
3D Hidden
350
A8
  3
3dWireframe
350
A7
  3
Basic
350
A5
  3
Brighten
350
AC
  3
ColorChange
350
B0
  3
Conceptual
350
A9
  3
Dim
350
AB
  3
Facepattern
350
AF
  3
Flat
350
A1
  3
FlatWithEdges
350
A2
  3
Gouraud
350
A3
  3
GouraudWithEdges
350
A4
  3
Linepattern
350
AE
  3
Realistic
350
AA
  3
Thicken
350
AD
  0
XRECORD
  5
F4
102
{ACAD_REACTORS
330
C
102
}
330
C
100
AcDbXrecord
280
     1
 90
        1
330
B3
  0
DICTIONARY
  5
10A
102
{ACAD_REACTORS
330
C
102
}
330
C
100
AcDbDictionary
281
     1
  3
CANNOSCALE
350
10D
  3
CMLEADERSTYLE
350
10C
  3
CTABLESTYLE
350
10B
  0
DICTIONARY
  5
4AA
102
{ACAD_REACTORS
330
E1
102
}
330
E1
100
AcDbDictionary
281
     1
  0
DICTIONARY
  5
4A9
102
{ACAD_REACTORS
330
E1
102
}
330
E1
100
AcDbDictionary
281
     1
1001
ACAD
1000
<All
  0
XRECORD
  5
E5
102
{ACAD_REACTORS
330
E4
102
}
330
E4
100
AcDbXrecord
280
     1
290
     1
  0
XRECORD
  5
E7
102
{ACAD_REACTORS
330
E6
102
}
330
E6
100
AcDbXrecord
280
     1
290
     1
  0
XRECORD
  5
E9
102
{ACAD_REACTORS
330
E8
102
}
330
E8
100
AcDbXrecord
280
     1
290
     1
  0
XRECORD
  5
EB
102
{ACAD_REACTORS
330
EA
102
}
330
EA
100
AcDbXrecord
280
     1
290
     1
  0
LAYOUT
  5
81
102
{ACAD_REACTORS
330
1A
102
}
330
1A
100
AcDbPlotSettings
  1

  2
none_device
  4

  6

 40
3.17498779296875
 41
4.18040466308594
 42
13.23975372314453
 43
4.180416584014889
 44
296.9259948730469
 45
209.9733276367187
 46
10.15707892699004
 47
-1.206330254982109
 48
0.0
 49
0.0
140
0.0
141
0.0
142
1.0
143
1.0
 70
   688
 72
     1
 73
     0
 74
     5
  7

 75
    16
147
1.0
 76
     0
 77
     2
 78
   300
148
0.0
149
0.0
100
AcDbLayout
  1
Layout1
 70
     1
 71
     1
 10
-13.33206671995879
 20
-2.97407440810383
 11
283.5939281530881
 21
206.9992532286149
 12
0.0
 22
0.0
 32
0.0
 14
-13.33206671995879
 24
-2.97407440810383
 34
0.0
 15
283.5939281530881
 25
206.9992532286149
 35
0.0
146
0.0
 13
0.0
 23
0.0
 33
0.0
 16
1.0
 26
0.0
 36
0.0
 17
0.0
 27
1.0
 37
0.0
 76
     0
330
80
331
84
  0
LAYOUT
  5
1E
102
{ACAD_REACTORS
330
1A
102
}
330
1A
100
AcDbPlotSettings
  1

  2
none_device
  4

  6

 40
0.0
 41
0.0
 42
0.0
 43
0.0
 44
0.0
 45
0.0
 46
0.0
 47
0.0
 48
0.0
 49
0.0
140
0.0
141
0.0
142
1.0
143
0.0393700787401575
 70
   688
 72
     0
 73
     0
 74
     5
  7

 75
    16
147
25.4
 76
     0
 77
     2
 78
   300
148
0.0
149
0.0
100
AcDbLayout
  1
Layout2
 70
     1
 71
     2
 10
0.0
 20
0.0
 11
0.0
 21
0.0
 12
0.0
 22
0.0
 32
0.0
 14
0.0
 24
0.0
 34
0.0
 15
0.0
 25
0.0
 35
0.0
146
0.0
 13
0.0
 23
0.0
 33
0.0
 16
1.0
 26
0.0
 36
0.0
 17
0.0
 27
1.0
 37
0.0
 76
     0
330
1B
  0
LAYOUT
  5
22
102
{ACAD_REACTORS
330
1A
102
}
330
1A
100
AcDbPlotSettings
  1

  2
none_device
  4

  6

 40
0.0
 41
0.0
 42
0.0
 43
0.0
 44
7543.799999999999
 45
5334.0
 46
-1774.040442273534
 47
193.0611666666658
 48
0.0
 49
0.0
140
0.0
141
0.0
142
1.0
143
0.0393700787401575
 70
  1712
 72
     1
 73
     0
 74
     0
  7

 75
     0
147
25.4
 76
     0
 77
     2
 78
   300
148
0.0
149
0.0
100
AcDbLayout
  1
Model
 70
     1
 71
     0
 10
69.84411190053283
 20
-7.6008333333333
 11
366.8441119005328
 21
202.3991666666667
 12
0.0
 22
0.0
 32
0.0
 14
69.84411190053283
 24
-7.6008333333333
 34
0.0
 15
366.8441119005328
 25
202.3991666666667
 35
0.0
146
0.0
 13
0.0
 23
0.0
 33
0.0
 16
1.0
 26
0.0
 36
0.0
 17
0.0
 27
1.0
 37
0.0
 76
     0
330
1F
331
29
  0
MATERIAL
  5
90
102
{ACAD_XDICTIONARY
360
91
102
}
102
{ACAD_REACTORS
330
87
102
}
330
87
100
AcDbMaterial
  1
ByBlock
 72
     0
 43
0.0208333333333333
 43
0.0
 43
0.0
 43
0.0
 43
0.0
 43
0.0208333333333333
 43
0.0
 43
0.0
 43
0.0
 43
0.0
 43
1.0
 43
0.0
 43
0.0
 43
0.0
 43
0.0
 43
1.0
 77
     0
 47
0.0208333333333333
 47
0.0
 47
0.0
 47
0.0
 47
0.0
 47
0.0208333333333333
 47
0.0
 47
0.0
 47
0.0
 47
0.0
 47
1.0
 47
0.0
 47
0.0
 47
0.0
 47
0.0
 47
1.0
171
     0
 49
0.0208333333333333
 49
0.0
 49
0.0
 49
0.0
 49
0.0
 49
0.0208333333333333
 49
0.0
 49
0.0
 49
0.0
 49
0.0
 49
1.0
 49
0.0
 49
0.0
 49
0.0
 49
0.0
 49
1.0
175
     0
142
0.0208333333333333
142
0.0
142
0.0
142
0.0
142
0.0
142
0.0208333333333333
142
0.0
142
0.0
142
0.0
142
0.0
142
1.0
142
0.0
142
0.0
142
0.0
142
0.0
142
1.0
179
     0
144
0.0208333333333333
144
0.0
144
0.0
144
0.0
144
0.0
144
0.0208333333333333
144
0.0
144
0.0
144
0.0
144
0.0
144
1.0
144
0.0
144
0.0
144
0.0
144
0.0
144
1.0
147
0.0208333333333333
147
0.0
147
0.0
147
0.0
147
0.0
147
0.0208333333333333
147
0.0
147
0.0
147
0.0
147
0.0
147
1.0
147
0.0
147
0.0
147
0.0
147
0.0
147
1.0
  0
MATERIAL
  5
88
102
{ACAD_XDICTIONARY
360
89
102
}
102
{ACAD_REACTORS
330
87
102
}
330
87
100
AcDbMaterial
  1
ByLayer
 72
     0
 43
0.0208333333333333
 43
0.0
 43
0.0
 43
0.0
 43
0.0
 43
0.0208333333333333
 43
0.0
 43
0.0
 43
0.0
 43
0.0
 43
1.0
 43
0.0
 43
0.0
 43
0.0
 43
0.0
 43
1.0
 77
     0
 47
0.0208333333333333
 47
0.0
 47
0.0
 47
0.0
 47
0.0
 47
0.0208333333333333
 47
0.0
 47
0.0
 47
0.0
 47
0.0
 47
1.0
 47
0.0
 47
0.0
 47
0.0
 47
0.0
 47
1.0
171
     0
 49
0.0208333333333333
 49
0.0
 49
0.0
 49
0.0
 49
0.0
 49
0.0208333333333333
 49
0.0
 49
0.0
 49
0.0
 49
0.0
 49
1.0
 49
0.0
 49
0.0
 49
0.0
 49
0.0
 49
1.0
175
     0
142
0.0208333333333333
142
0.0
142
0.0
142
0.0
142
0.0
142
0.0208333333333333
142
0.0
142
0.0
142
0.0
142
0.0
142
1.0
142
0.0
142
0.0
142
0.0
142
0.0
142
1.0
179
     0
144
0.0208333333333333
144
0.0
144
0.0
144
0.0
144
0.0
144
0.0208333333333333
144
0.0
144
0.0
144
0.0
144
0.0
144
1.0
144
0.0
144
0.0
144
0.0
144
0.0
144
1.0
147
0.0208333333333333
147
0.0
147
0.0
147
0.0
147
0.0
147
0.0208333333333333
147
0.0
147
0.0
147
0.0
147
0.0
147
1.0
147
0.0
147
0.0
147
0.0
147
0.0
147
1.0
  0
MATERIAL
  5
98
102
{ACAD_XDICTIONARY
360
99
102
}
102
{ACAD_REACTORS
330
87
102
}
330
87
100
AcDbMaterial
  1
Global
 72
     0
 43
0.0208333333333333
 43
0.0
 43
0.0
 43
0.0
 43
0.0
 43
0.0208333333333333
 43
0.0
 43
0.0
 43
0.0
 43
0.0
 43
1.0
 43
0.0
 43
0.0
 43
0.0
 43
0.0
 43
1.0
 77
     0
 47
0.0208333333333333
 47
0.0
 47
0.0
 47
0.0
 47
0.0
 47
0.0208333333333333
 47
0.0
 47
0.0
 47
0.0
 47
0.0
 47
1.0
 47
0.0
 47
0.0
 47
0.0
 47
0.0
 47
1.0
171
     0
 49
0.0208333333333333
 49
0.0
 49
0.0
 49
0.0
 49
0.0
 49
0.0208333333333333
 49
0.0
 49
0.0
 49
0.0
 49
0.0
 49
1.0
 49
0.0
 49
0.0
 49
0.0
 49
0.0
 49
1.0
175
     0
142
0.0208333333333333
142
0.0
142
0.0
142
0.0
142
0.0
142
0.0208333333333333
142
0.0
142
0.0
142
0.0
142
0.0
142
1.0
142
0.0
142
0.0
142
0.0
142
0.0
142
1.0
179
     0
144
0.0208333333333333
144
0.0
144
0.0
144
0.0
144
0.0
144
0.0208333333333333
144
0.0
144
0.0
144
0.0
144
0.0
144
1.0
144
0.0
144
0.0
144
0.0
144
0.0
144
1.0
147
0.0208333333333333
147
0.0
147
0.0
147
0.0
147
0.0
147
0.0208333333333333
147
0.0
147
0.0
147
0.0
147
0.0
147
1.0
147
0.0
147
0.0
147
0.0
147
0.0
147
1.0
  0
MLEADERSTYLE
  5
D7
102
{ACAD_REACTORS
330
D6
102
}
330
D6
100
AcDbMLeaderStyle
170
     2
171
     1
172
     0
 90
        2
 40
0.0
 41
0.0
173
     1
 91
-1056964608
340
14
 92
       -2
290
     1
 42
0.09
291
     1
 43
0.36
  3
Standard
 44
0.18
300

342
11
174
     1
178
     6
175
     1
176
     0
 93
-1056964608
 45
0.18
292
     0
297
     0
 46
0.18
 94
-1056964608
 47
1.0
 49
1.0
140
1.0
293
     1
141
0.0
294
     1
177
     0
142
1.0
295
     0
296
     0
143
0.125
1001
ACAD_MLEADERVER
1070
     2
  0
MLINESTYLE
  5
18
102
{ACAD_REACTORS
330
17
102
}
330
17
100
AcDbMlineStyle
  2
STANDARD
 70
     0
  3

 62
   256
 51
90.0
 52
90.0
 71
     4
 49
0.5
 62
   256
  6
BYLAYER
 49
-0.5
 62
   256
  6
BYLAYER
 49
0.5
 62
   256
  6
BYLAYER
 49
-0.5
 62
   256
  6
BYLAYER
  0
ACDBPLACEHOLDER
  5
F
102
{ACAD_REACTORS
330
E
102
}
330
E
  0
SCALE
  5
B5
102
{ACAD_REACTORS
330
B4
102
}
330
B4
100
AcDbScale
 70
     0
300
1:1
140
1.0
141
1.0
290
     1
  0
SCALE
  5
B6
102
{ACAD_REACTORS
330
B4
102
}
330
B4
100
AcDbScale
 70
     0
300
1:2
140
1.0
141
2.0
290
     0
  0
SCALE
  5
B7
102
{ACAD_REACTORS
330
B4
102
}
330
B4
100
AcDbScale
 70
     0
300
1:4
140
1.0
141
4.0
290
     0
  0
SCALE
  5
B8
102
{ACAD_REACTORS
330
B4
102
}
330
B4
100
AcDbScale
 70
     0
300
1:5
140
1.0
141
5.0
290
     0
  0
SCALE
  5
B9
102
{ACAD_REACTORS
330
B4
102
}
330
B4
100
AcDbScale
 70
     0
300
1:8
140
1.0
141
8.0
290
     0
  0
SCALE
  5
BA
102
{ACAD_REACTORS
330
B4
102
}
330
B4
100
AcDbScale
 70
     0
300
1:10
140
1.0
141
10.0
290
     0
  0
SCALE
  5
BB
102
{ACAD_REACTORS
330
B4
102
}
330
B4
100
AcDbScale
 70
     0
300
1:16
140
1.0
141
16.0
290
     0
  0
SCALE
  5
BC
102
{ACAD_REACTORS
330
B4
102
}
330
B4
100
AcDbScale
 70
     0
300
1:20
140
1.0
141
20.0
290
     0
  0
SCALE
  5
BD
102
{ACAD_REACTORS
330
B4
102
}
330
B4
100
AcDbScale
 70
     0
300
1:30
140
1.0
141
30.0
290
     0
  0
SCALE
  5
BE
102
{ACAD_REACTORS
330
B4
102
}
330
B4
100
AcDbScale
 70
     0
300
1:40
140
1.0
141
40.0
290
     0
  0
SCALE
  5
BF
102
{ACAD_REACTORS
330
B4
102
}
330
B4
100
AcDbScale
 70
     0
300
1:50
140
1.0
141
50.0
290
     0
  0
SCALE
  5
C0
102
{ACAD_REACTORS
330
B4
102
}
330
B4
100
AcDbScale
 70
     0
300
1:100
140
1.0
141
100.0
290
     0
  0
SCALE
  5
C1
102
{ACAD_REACTORS
330
B4
102
}
330
B4
100
AcDbScale
 70
     0
300
2:1
140
2.0
141
1.0
290
     0
  0
SCALE
  5
C2
102
{ACAD_REACTORS
330
B4
102
}
330
B4
100
AcDbScale
 70
     0
300
4:1
140
4.0
141
1.0
290
     0
  0
SCALE
  5
C3
102
{ACAD_REACTORS
330
B4
102
}
330
B4
100
AcDbScale
 70
     0
300
8:1
140
8.0
141
1.0
290
     0
  0
SCALE
  5
C4
102
{ACAD_REACTORS
330
B4
102
}
330
B4
100
AcDbScale
 70
     0
300
10:1
140
10.0
141
1.0
290
     0
  0
SCALE
  5
C5
102
{ACAD_REACTORS
330
B4
102
}
330
B4
100
AcDbScale
 70
     0
300
100:1
140
100.0
141
1.0
290
     0
  0
SCALE
  5
C6
102
{ACAD_REACTORS
330
B4
102
}
330
B4
100
AcDbScale
 70
     0
300
1/128" = 1'-0"
140
0.0078125
141
12.0
290
     0
  0
SCALE
  5
C7
102
{ACAD_REACTORS
330
B4
102
}
330
B4
100
AcDbScale
 70
     0
300
1/64" = 1'-0"
140
0.015625
141
12.0
290
     0
  0
SCALE
  5
C8
102
{ACAD_REACTORS
330
B4
102
}
330
B4
100
AcDbScale
 70
     0
300
1/32" = 1'-0"
140
0.03125
141
12.0
290
     0
  0
SCALE
  5
C9
102
{ACAD_REACTORS
330
B4
102
}
330
B4
100
AcDbScale
 70
     0
300
1/16" = 1'-0"
140
0.0625
141
12.0
290
     0
  0
SCALE
  5
CA
102
{ACAD_REACTORS
330
B4
102
}
330
B4
100
AcDbScale
 70
     0
300
3/32" = 1'-0"
140
0.09375
141
12.0
290
     0
  0
SCALE
  5
CB
102
{ACAD_REACTORS
330
B4
102
}
330
B4
100
AcDbScale
 70
     0
300
1/8" = 1'-0"
140
0.125
141
12.0
290
     0
  0
SCALE
  5
CC
102
{ACAD_REACTORS
330
B4
102
}
330
B4
100
AcDbScale
 70
     0
300
3/16" = 1'-0"
140
0.1875
141
12.0
290
     0
  0
SCALE
  5
CD
102
{ACAD_REACTORS
330
B4
102
}
330
B4
100
AcDbScale
 70
     0
300
1/4" = 1'-0"
140
0.25
141
12.0
290
     0
  0
SCALE
  5
CE
102
{ACAD_REACTORS
330
B4
102
}
330
B4
100
AcDbScale
 70
     0
300
3/8" = 1'-0"
140
0.375
141
12.0
290
     0
  0
SCALE
  5
CF
102
{ACAD_REACTORS
330
B4
102
}
330
B4
100
AcDbScale
 70
     0
300
1/2" = 1'-0"
140
0.5
141
12.0
290
     0
  0
SCALE
  5
D0
102
{ACAD_REACTORS
330
B4
102
}
330
B4
100
AcDbScale
 70
     0
300
3/4" = 1'-0"
140
0.75
141
12.0
290
     0
  0
SCALE
  5
D1
102
{ACAD_REACTORS
330
B4
102
}
330
B4
100
AcDbScale
 70
     0
300
1" = 1'-0"
140
1.0
141
12.0
290
     0
  0
SCALE
  5
D2
102
{ACAD_REACTORS
330
B4
102
}
330
B4
100
AcDbScale
 70
     0
300
1-1/2" = 1'-0"
140
1.5
141
12.0
290
     0
  0
SCALE
  5
D3
102
{ACAD_REACTORS
330
B4
102
}
330
B4
100
AcDbScale
 70
     0
300
3" = 1'-0"
140
3.0
141
12.0
290
     0
  0
SCALE
  5
D4
102
{ACAD_REACTORS
330
B4
102
}
330
B4
100
AcDbScale
 70
     0
300
6" = 1'-0"
140
6.0
141
12.0
290
     0
  0
SCALE
  5
D5
102
{ACAD_REACTORS
330
B4
102
}
330
B4
100
AcDbScale
 70
     0
300
1'-0" = 1'-0"
140
12.0
141
12.0
290
     0
  0
TABLESTYLE
  5
B3
102
{ACAD_XDICTIONARY
360
F2
102
}
102
{ACAD_REACTORS
330
B2
102
}
330
B2
100
AcDbTableStyle
  3
Standard
 70
     0
 71
     0
 40
0.06
 41
0.06
280
     0
281
     0
  7
STANDARD
140
0.18
170
     2
 62
     0
 63
     7
283
     0
274
    -2
284
     1
 64
     0
275
    -2
285
     1
 65
     0
276
    -2
286
     1
 66
     0
277
    -2
287
     1
 67
     0
278
    -2
288
     1
 68
     0
279
    -2
289
     1
 69
     0
  7
STANDARD
140
0.25
170
     5
 62
     0
 63
     7
283
     0
274
    -2
284
     1
 64
     0
275
    -2
285
     1
 65
     0
276
    -2
286
     1
 66
     0
277
    -2
287
     1
 67
     0
278
    -2
288
     1
 68
     0
279
    -2
289
     1
 69
     0
  7
STANDARD
140
0.18
170
     5
 62
     0
 63
     7
283
     0
274
    -2
284
     1
 64
     0
275
    -2
285
     1
 65
     0
276
    -2
286
     1
 66
     0
277
    -2
287
     1
 67
     0
278
    -2
288
     1
 68
     0
279
    -2
289
     1
 69
     0
  0
VISUALSTYLE
  5
A6
102
{ACAD_REACTORS
330
A0
102
}
330
A0
100
AcDbVisualStyle
  2
2dWireframe
 70
     4
 71
     0
 72
     2
 73
     0
 90
        0
 40
-0.6
 41
-30.0
 62
     5
 63
     7
421
 16777215
 74
     1
 91
        4
 64
     7
 65
   257
 75
     1
175
     1
 42
1.0
 92
        0
 66
   257
 43
1.0
 76
     1
 77
     6
 78
     2
 67
     7
 79
     5
170
     0
171
     0
290
     0
174
     0
 93
        1
 44
0.0
173
     0
291
     0
 45
0.0
1001
ACAD
1000
AcDbSavedByObjectVersion
1070
     0
  0
VISUALSTYLE
  5
A8
102
{ACAD_REACTORS
330
A0
102
}
330
A0
100
AcDbVisualStyle
  2
3D Hidden
 70
     6
 71
     1
 72
     2
 73
     2
 90
        0
 40
-0.6
 41
-30.0
 62
     5
 63
     7
421
 16777215
 74
     2
 91
        2
 64
     7
 65
   257
 75
     2
175
     1
 42
40.0
 92
        0
 66
   257
 43
1.0
 76
     1
 77
     6
 78
     2
 67
     7
 79
     3
170
     0
171
     0
290
     0
174
     0
 93
        1
 44
0.0
173
     0
291
     0
 45
0.0
1001
ACAD
1000
AcDbSavedByObjectVersion
1070
     0
  0
VISUALSTYLE
  5
A7
102
{ACAD_REACTORS
330
A0
102
}
330
A0
100
AcDbVisualStyle
  2
3dWireframe
 70
     5
 71
     0
 72
     2
 73
     0
 90
        0
 40
-0.6
 41
-30.0
 62
     5
 63
     7
421
 16777215
 74
     1
 91
        4
 64
     7
 65
   257
 75
     1
175
     1
 42
1.0
 92
        0
 66
   257
 43
1.0
 76
     1
 77
     6
 78
     2
 67
     7
 79
     5
170
     0
171
     0
290
     0
174
     0
 93
        1
 44
0.0
173
     0
291
     0
 45
0.0
1001
ACAD
1000
AcDbSavedByObjectVersion
1070
     0
  0
VISUALSTYLE
  5
A5
102
{ACAD_REACTORS
330
A0
102
}
330
A0
100
AcDbVisualStyle
  2
Basic
 70
     7
 71
     1
 72
     0
 73
     1
 90
        0
 40
-0.6
 41
-30.0
 62
     5
 63
     7
421
 16777215
 74
     0
 91
        4
 64
     7
 65
   257
 75
     1
175
     1
 42
1.0
 92
        8
 66
     7
 43
1.0
 76
     1
 77
     6
 78
     2
 67
     7
 79
     5
170
     0
171
     0
290
     0
174
     0
 93
        1
 44
0.0
173
     0
291
     1
 45
0.0
1001
ACAD
1000
AcDbSavedByObjectVersion
1070
     0
  0
VISUALSTYLE
  5
AC
102
{ACAD_REACTORS
330
A0
102
}
330
A0
100
AcDbVisualStyle
  2
Brighten
 70
    12
 71
     2
 72
     2
 73
     0
 90
        0
 40
-0.6
 41
-30.0
 62
     5
 63
     7
421
 16777215
 74
     1
 91
        4
 64
     7
 65
   257
 75
     1
175
     1
 42
1.0
 92
        8
 66
     7
 43
1.0
 76
     1
 77
     6
 78
     2
 67
     7
 79
     5
170
     0
171
     0
290
     0
174
     0
 93
        1
 44
50.0
173
     0
291
     1
 45
0.0
1001
ACAD
1000
AcDbSavedByObjectVersion
1070
     0
  0
VISUALSTYLE
  5
B0
102
{ACAD_REACTORS
330
A0
102
}
330
A0
100
AcDbVisualStyle
  2
ColorChange
 70
    16
 71
     2
 72
     2
 73
     3
 90
        0
 40
-0.6
 41
-30.0
 62
     5
 63
     8
421
  8421504
 74
     1
 91
        4
 64
     7
 65
   257
 75
     1
175
     1
 42
1.0
 92
        8
 66
     8
424
  8421504
 43
1.0
 76
     1
 77
     6
 78
     2
 67
     7
 79
     5
170
     0
171
     0
290
     0
174
     0
 93
        1
 44
0.0
173
     0
291
     1
 45
0.0
1001
ACAD
1000
AcDbSavedByObjectVersion
1070
     0
  0
VISUALSTYLE
  5
A9
102
{ACAD_REACTORS
330
A0
102
}
330
A0
100
AcDbVisualStyle
  2
Conceptual
 70
     9
 71
     3
 72
     2
 73
     0
 90
        0
 40
-0.6
 41
-30.0
 62
     5
 63
     7
421
 16777215
 74
     2
 91
        2
 64
     7
 65
   257
 75
     1
175
     1
 42
40.0
 92
        8
 66
     7
 43
1.0
 76
     1
 77
     6
 78
     2
 67
     7
 79
     3
170
     0
171
     0
290
     0
174
     0
 93
        1
 44
0.0
173
     0
291
     0
 45
0.0
1001
ACAD
1000
AcDbSavedByObjectVersion
1070
     0
  0
VISUALSTYLE
  5
AB
102
{ACAD_REACTORS
330
A0
102
}
330
A0
100
AcDbVisualStyle
  2
Dim
 70
    11
 71
     2
 72
     2
 73
     0
 90
        0
 40
-0.6
 41
-30.0
 62
     5
 63
     7
421
 16777215
 74
     1
 91
        4
 64
     7
 65
   257
 75
     1
175
     1
 42
1.0
 92
        8
 66
     7
 43
1.0
 76
     1
 77
     6
 78
     2
 67
     7
 79
     5
170
     0
171
     0
290
     0
174
     0
 93
        1
 44
-50.0
173
     0
291
     1
 45
0.0
1001
ACAD
1000
AcDbSavedByObjectVersion
1070
     0
  0
VISUALSTYLE
  5
AF
102
{ACAD_REACTORS
330
A0
102
}
330
A0
100
AcDbVisualStyle
  2
Facepattern
 70
    15
 71
     2
 72
     2
 73
     0
 90
        0
 40
-0.6
 41
-30.0
 62
     5
 63
     7
421
 16777215
 74
     1
 91
        4
 64
     7
 65
   257
 75
     1
175
     1
 42
1.0
 92
        8
 66
     7
 43
1.0
 76
     1
 77
     6
 78
     2
 67
     7
 79
     5
170
     0
171
     0
290
     0
174
     0
 93
        1
 44
0.0
173
     0
291
     1
 45
0.0
1001
ACAD
1000
AcDbSavedByObjectVersion
1070
     0
  0
VISUALSTYLE
  5
A1
102
{ACAD_REACTORS
330
A0
102
}
330
A0
100
AcDbVisualStyle
  2
Flat
 70
     0
 71
     2
 72
     1
 73
     1
 90
        2
 40
-0.6
 41
30.0
 62
     5
 63
     7
421
 16777215
 74
     0
 91
        4
 64
     7
 65
   257
 75
     1
175
     1
 42
1.0
 92
        8
 66
     7
 43
1.0
 76
     1
 77
     6
 78
     2
 67
     7
 79
     5
170
     0
171
     0
290
     0
174
     0
 93
       13
 44
0.0
173
     0
291
     1
 45
0.0
1001
ACAD
1000
AcDbSavedByObjectVersion
1070
     0
  0
VISUALSTYLE
  5
A2
102
{ACAD_REACTORS
330
A0
102
}
330
A0
100
AcDbVisualStyle
  2
FlatWithEdges
 70
     1
 71
     2
 72
     1
 73
     1
 90
        2
 40
-0.6
 41
30.0
 62
     5
 63
     7
421
 16777215
 74
     1
 91
        4
 64
     7
 65
   257
 75
     1
175
     1
 42
1.0
 92
        0
 66
   257
 43
1.0
 76
     1
 77
     6
 78
     2
 67
     7
 79
     5
170
     0
171
     0
290
     0
174
     0
 93
       13
 44
0.0
173
     0
291
     1
 45
0.0
1001
ACAD
1000
AcDbSavedByObjectVersion
1070
     0
  0
VISUALSTYLE
  5
A3
102
{ACAD_REACTORS
330
A0
102
}
330
A0
100
AcDbVisualStyle
  2
Gouraud
 70
     2
 71
     2
 72
     2
 73
     1
 90
        2
 40
-0.6
 41
30.0
 62
     5
 63
     7
421
 16777215
 74
     0
 91
        4
 64
     7
 65
   257
 75
     1
175
     1
 42
1.0
 92
        0
 66
     7
 43
1.0
 76
     1
 77
     6
 78
     2
 67
     7
 79
     5
170
     0
171
     0
290
     0
174
     0
 93
       13
 44
0.0
173
     0
291
     1
 45
0.0
1001
ACAD
1000
AcDbSavedByObjectVersion
1070
     0
  0
VISUALSTYLE
  5
A4
102
{ACAD_REACTORS
330
A0
102
}
330
A0
100
AcDbVisualStyle
  2
GouraudWithEdges
 70
     3
 71
     2
 72
     2
 73
     1
 90
        2
 40
-0.6
 41
30.0
 62
     5
 63
     7
421
 16777215
 74
     1
 91
        4
 64
     7
 65
   257
 75
     1
175
     1
 42
1.0
 92
        0
 66
   257
 43
1.0
 76
     1
 77
     6
 78
     2
 67
     7
 79
     5
170
     0
171
     0
290
     0
174
     0
 93
       13
 44
0.0
173
     0
291
     1
 45
0.0
1001
ACAD
1000
AcDbSavedByObjectVersion
1070
     0
  0
VISUALSTYLE
  5
AE
102
{ACAD_REACTORS
330
A0
102
}
330
A0
100
AcDbVisualStyle
  2
Linepattern
 70
    14
 71
     2
 72
     2
 73
     0
 90
        0
 40
-0.6
 41
-30.0
 62
     5
 63
     7
421
 16777215
 74
     1
 91
        4
 64
     7
 65
   257
 75
     7
175
     7
 42
1.0
 92
        8
 66
     7
 43
1.0
 76
     1
 77
     6
 78
     2
 67
     7
 79
     5
170
     0
171
     0
290
     0
174
     0
 93
        1
 44
0.0
173
     0
291
     1
 45
0.0
1001
ACAD
1000
AcDbSavedByObjectVersion
1070
     0
  0
VISUALSTYLE
  5
AA
102
{ACAD_REACTORS
330
A0
102
}
330
A0
100
AcDbVisualStyle
  2
Realistic
 70
     8
 71
     2
 72
     2
 73
     0
 90
        0
 40
-0.6
 41
-30.0
 62
     5
 63
     7
421
 16777215
 74
     1
 91
        0
 64
     7
 65
   257
 75
     1
175
     1
 42
1.0
 92
        8
 66
     8
424
  7895160
 43
1.0
 76
     1
 77
     6
 78
     2
 67
     7
 79
     5
170
     0
171
     0
290
     0
174
     0
 93
       13
 44
0.0
173
     0
291
     0
 45
0.0
1001
ACAD
1000
AcDbSavedByObjectVersion
1070
     0
  0
VISUALSTYLE
  5
AD
102
{ACAD_REACTORS
330
A0
102
}
330
A0
100
AcDbVisualStyle
  2
Thicken
 70
    13
 71
     2
 72
     2
 73
     0
 90
        0
 40
-0.6
 41
-30.0
 62
     5
 63
     7
421
 16777215
 74
     1
 91
        4
 64
     7
 65
   257
 75
     1
175
     1
 42
1.0
 92
       12
 66
     7
 43
1.0
 76
     1
 77
     6
 78
     2
 67
     7
 79
     5
170
     0
171
     0
290
     0
174
     0
 93
        1
 44
0.0
173
     0
291
     1
 45
0.0
1001
ACAD
1000
AcDbSavedByObjectVersion
1070
     0
  0
DICTIONARYVAR
  5
10D
102
{ACAD_REACTORS
330
10A
102
}
330
10A
100
DictionaryVariables
280
     0
  1
1:1
  0
DICTIONARYVAR
  5
10C
102
{ACAD_REACTORS
330
10A
102
}
330
10A
100
DictionaryVariables
280
     0
  1
STANDARD
  0
DICTIONARYVAR
  5
10B
102
{ACAD_REACTORS
330
10A
102
}
330
10A
100
DictionaryVariables
280
     0
  1
STANDARD
  0
DICTIONARY
  5
91
330
90
100
AcDbDictionary
280
     1
281
     1
  3
ACAD_XREC_ROUNDTRIP
360
4E3
  3
BUMPTILE
360
93
  3
DIFFUSETILE
360
92
  3
OPACITYTILE
360
96
  3
REFLECTIONTILE
360
95
  3
REFRACTIONTILE
360
97
  3
SPECULARTILE
360
94
  0
DICTIONARY
  5
89
330
88
100
AcDbDictionary
280
     1
281
     1
  3
ACAD_XREC_ROUNDTRIP
360
4E2
  3
BUMPTILE
360
8B
  3
DIFFUSETILE
360
8A
  3
OPACITYTILE
360
8E
  3
REFLECTIONTILE
360
8D
  3
REFRACTIONTILE
360
8F
  3
SPECULARTILE
360
8C
  0
DICTIONARY
  5
99
330
98
100
AcDbDictionary
280
     1
281
     1
  3
ACAD_XREC_ROUNDTRIP
360
4E4
  3
BUMPTILE
360
9B
  3
DIFFUSETILE
360
9A
  3
OPACITYTILE
360
9E
  3
REFLECTIONTILE
360
9D
  3
REFRACTIONTILE
360
9F
  3
SPECULARTILE
360
9C
  0
DICTIONARY
  5
F2
330
B3
100
AcDbDictionary
280
     1
281
     1
  3
ACAD_ROUNDTRIP_2008_TABLESTYLE_CELLSTYLEMAP
360
4E1
  3
ACAD_XREC_ROUNDTRIP
360
4E5
  0
XRECORD
  5
4E3
102
{ACAD_REACTORS
330
91
102
}
330
91
100
AcDbXrecord
280
     1
102
MATERIAL
148
0.0
149
0.0
149
0.0
 93
        0
 94
      127
282
     0
 72
     0
 77
     0
171
     0
175
     0
179
     0
273
     0
  0
XRECORD
  5
93
102
{ACAD_REACTORS
330
91
102
}
330
91
100
AcDbXrecord
280
     1
270
     1
271
     1
  0
XRECORD
  5
92
102
{ACAD_REACTORS
330
91
102
}
330
91
100
AcDbXrecord
280
     1
270
     1
271
     1
  0
XRECORD
  5
96
102
{ACAD_REACTORS
330
91
102
}
330
91
100
AcDbXrecord
280
     1
270
     1
271
     1
  0
XRECORD
  5
95
102
{ACAD_REACTORS
330
91
102
}
330
91
100
AcDbXrecord
280
     1
270
     1
271
     1
  0
XRECORD
  5
97
102
{ACAD_REACTORS
330
91
102
}
330
91
100
AcDbXrecord
280
     1
270
     1
271
     1
  0
XRECORD
  5
94
102
{ACAD_REACTORS
330
91
102
}
330
91
100
AcDbXrecord
280
     1
270
     1
271
     1
  0
XRECORD
  5
4E2
102
{ACAD_REACTORS
330
89
102
}
330
89
100
AcDbXrecord
280
     1
102
MATERIAL
148
0.0
149
0.0
149
0.0
 93
        0
 94
      127
282
     0
 72
     0
 77
     0
171
     0
175
     0
179
     0
273
     0
  0
XRECORD
  5
8B
102
{ACAD_REACTORS
330
89
102
}
330
89
100
AcDbXrecord
280
     1
270
     1
271
     1
  0
XRECORD
  5
8A
102
{ACAD_REACTORS
330
89
102
}
330
89
100
AcDbXrecord
280
     1
270
     1
271
     1
  0
XRECORD
  5
8E
102
{ACAD_REACTORS
330
89
102
}
330
89
100
AcDbXrecord
280
     1
270
     1
271
     1
  0
XRECORD
  5
8D
102
{ACAD_REACTORS
330
89
102
}
330
89
100
AcDbXrecord
280
     1
270
     1
271
     1
  0
XRECORD
  5
8F
102
{ACAD_REACTORS
330
89
102
}
330
89
100
AcDbXrecord
280
     1
270
     1
271
     1
  0
XRECORD
  5
8C
102
{ACAD_REACTORS
330
89
102
}
330
89
100
AcDbXrecord
280
     1
270
     1
271
     1
  0
XRECORD
  5
4E4
102
{ACAD_REACTORS
330
99
102
}
330
99
100
AcDbXrecord
280
     1
102
MATERIAL
148
0.0
149
0.0
149
0.0
 93
        0
 94
      127
282
     0
 72
     0
 77
     0
171
     0
175
     0
179
     0
273
     0
  0
XRECORD
  5
9B
102
{ACAD_REACTORS
330
99
102
}
330
99
100
AcDbXrecord
280
     1
270
     1
271
     1
  0
XRECORD
  5
9A
102
{ACAD_REACTORS
330
99
102
}
330
99
100
AcDbXrecord
280
     1
270
     1
271
     1
  0
XRECORD
  5
9E
102
{ACAD_REACTORS
330
99
102
}
330
99
100
AcDbXrecord
280
     1
270
     1
271
     1
  0
XRECORD
  5
9D
102
{ACAD_REACTORS
330
99
102
}
330
99
100
AcDbXrecord
280
     1
270
     1
271
     1
  0
XRECORD
  5
9F
102
{ACAD_REACTORS
330
99
102
}
330
99
100
AcDbXrecord
280
     1
270
     1
271
     1
  0
XRECORD
  5
9C
102
{ACAD_REACTORS
330
99
102
}
330
99
100
AcDbXrecord
280
     1
270
     1
271
     1
  0
CELLSTYLEMAP
  5
4E1
102
{ACAD_REACTORS
330
F2
102
}
330
F2
100
AcDbCellStyleMap
 90
        3
300
CELLSTYLE
  1
TABLEFORMAT_BEGIN
 90
        5
170
     1
 91
        0
 92
    32768
 62
   257
 93
        1
300
CONTENTFORMAT
  1
CONTENTFORMAT_BEGIN
 90
        0
 91
        0
 92
      512
 93
        0
300

 40
0.0
140
1.0
 94
        5
 62
     0
340
11
144
0.25
309
CONTENTFORMAT_END
171
     0
 94
        0
309
TABLEFORMAT_END
  1
CELLSTYLE_BEGIN
 90
        1
 91
        1
300
_TITLE
309
CELLSTYLE_END
300
CELLSTYLE
  1
TABLEFORMAT_BEGIN
 90
        5
170
     1
 91
        0
 92
        0
 62
   257
 93
        1
300
CONTENTFORMAT
  1
CONTENTFORMAT_BEGIN
 90
        0
 91
        0
 92
      512
 93
        0
300

 40
0.0
140
1.0
 94
        5
 62
     0
340
11
144
0.18
309
CONTENTFORMAT_END
171
     0
 94
        0
309
TABLEFORMAT_END
  1
CELLSTYLE_BEGIN
 90
        2
 91
        1
300
_HEADER
309
CELLSTYLE_END
300
CELLSTYLE
  1
TABLEFORMAT_BEGIN
 90
        5
170
     1
 91
        0
 92
        0
 62
   257
 93
        1
300
CONTENTFORMAT
  1
CONTENTFORMAT_BEGIN
 90
        0
 91
        0
 92
      512
 93
        0
300

 40
0.0
140
1.0
 94
        2
 62
     0
340
11
144
0.18
309
CONTENTFORMAT_END
171
     0
 94
        0
309
TABLEFORMAT_END
  1
CELLSTYLE_BEGIN
 90
        3
 91
        2
300
_DATA
309
CELLSTYLE_END
  0
XRECORD
  5
4E5
102
{ACAD_REACTORS
330
F2
102
}
330
F2
100
AcDbXrecord
280
     1
102
ACAD_ROUNDTRIP_PRE2007_TABLESTYLE
 90
      512
 91
        0
  1

 92
      512
 93
        0
  2

 94
      512
 95
        0
  3

  0
ENDSEC
  0
EOF
