999
DXF file: S:\Prolink\03_Konstruktion\CAD-Plots\Internet\2D_neu\S5\s5-45_frt1_w100.dxf
999
Pro/ENGINEER 2012230 by Parametric Technology Corporation
  0
SECTION
  2
HEADER
  9
$ACADVER
  1
AC1021
  9
$DWGCODEPAGE
  3
ANSI_1252
  9
$EXTMAX
 10
297.0
 20
210.0
 30
0.0
  9
$EXTMIN
 10
0.0
 20
0.0
 30
0.0
  9
$LIMMIN
 10
0.0
 20
0.0
  9
$LIMMAX
 10
297.0
 20
210.0
  9
$VIEWCTR
 10
148.5
 20
105.0
  9
$VIEWSIZE
 40
210.0
  9
$CLAYER
  8
0
  9
$LTSCALE
 40
16.335
  9
$CELTYPE
  6
BYLAYER
  9
$DIMSCALE
 40
1.0
  9
$DIMASZ
 40
3.5
  9
$DIMEXO
 40
0.0
  9
$DIMDLI
 40
11.286
  9
$DIMEXE
 40
1.5
  9
$DIMCEN
 40
2.673
  9
$DIMLFAC
 40
1.0
  9
$DIMBLK
  1
_FILLED
  9
$DIMTXT
 40
3.5
  9
$DIMTOL
 70
1
  9
$DIMLIM
 70
0
  9
$DIMTFAC
 40
1.0
  9
$DIMTP
 40
0.005
  9
$DIMTM
 40
0.005
  9
$DIMGAP
 40
0.625
  9
$DIMDSEP
 70
46
  9
$PDMODE
 70
3
  9
$PDSIZE
 40
0.3125
  9
$HANDSEED
  5
5D0
  9
$TILEMODE
 70
1
  9
$MEASUREMENT
 70
1
  9
$INSUNITS
 70
4
  0
ENDSEC
  0
SECTION
  2
CLASSES
  0
CLASS
  1
ACDBDICTIONARYWDFLT
  2
AcDbDictionaryWithDefault
  3
AutoCAD 2000
 90
0
 91
1
280
0
281
0
  0
CLASS
  1
ACDBPLACEHOLDER
  2
AcDbPlaceHolder
  3
AutoCAD 2000
 90
0
 91
1
280
0
281
0
  0
CLASS
  1
LAYOUT
  2
AcDbLayout
  3
AutoCAD 2000
 90
0
 91
0
280
0
281
0
  0
ENDSEC
  0
SECTION
  2
TABLES
  0
TABLE
  2
VPORT
  5
8
100
AcDbSymbolTable
 70
2
  0
VPORT
  5
1F4
100
AcDbSymbolTableRecord
100
AcDbViewportTableRecord
  2
*ACTIVE
 70
0
 10
0.0
 20
0.0
 11
1.0
 21
1.0
 12
148.5
 22
105.0
 13
0.0
 23
0.0
 14
1.0
 24
1.0
 15
0.0
 25
0.0
 16
0.0
 26
0.0
 36
1.0
 17
0.0
 27
0.0
 37
0.0
 40
210.0
 41
1.4142857143
 42
50.0
 43
0.0
 44
0.0
 50
0.0
 51
0.0
 71
0
 72
100
 73
1
 74
1
 75
0
 76
0
 77
0
 78
0
  0
ENDTAB
  0
TABLE
  2
LTYPE
  5
5
100
AcDbSymbolTable
 70
6
  0
LTYPE
  5
14
100
AcDbSymbolTableRecord
100
AcDbLinetypeTableRecord
  2
BYBLOCK
 70
0
  3

 72
65
 73
0
 40
0.0
  0
LTYPE
  5
15
100
AcDbSymbolTableRecord
100
AcDbLinetypeTableRecord
  2
BYLAYER
 70
0
  3

 72
65
 73
0
 40
0.0
  0
LTYPE
  5
16
100
AcDbSymbolTableRecord
100
AcDbLinetypeTableRecord
  2
CONTINUOUS
 70
64
  3
Solid line
 72
65
 73
0
 40
0.0
  0
LTYPE
  5
1F5
100
AcDbSymbolTableRecord
100
AcDbLinetypeTableRecord
  2
CENTER
 70
64
  3
____ _ ____ _ ____ _ ____ _ ____ _ ____ _ ____
 72
65
 73
4
 40
0.6
 49
0.375
 74
0
 49
-0.075
 74
0
 49
0.075
 74
0
 49
-0.075
 74
0
  0
LTYPE
  5
1F6
100
AcDbSymbolTableRecord
100
AcDbLinetypeTableRecord
  2
HIDDEN
 70
64
  3
- - - - - - - - - - - - - - - - - - - -
 72
65
 73
2
 40
0.2
 49
0.1
 74
0
 49
-0.1
 74
0
  0
LTYPE
  5
1F7
100
AcDbSymbolTableRecord
100
AcDbLinetypeTableRecord
  2
PHANTOM
 70
64
  3
_____ _ _ _____ _ _ _____ _ _ _____
 72
65
 73
6
 40
0.8
 49
0.45
 74
0
 49
-0.05
 74
0
 49
0.1
 74
0
 49
-0.05
 74
0
 49
0.1
 74
0
 49
-0.05
 74
0
  0
LTYPE
  5
1F8
100
AcDbSymbolTableRecord
100
AcDbLinetypeTableRecord
  2
DOT
 70
64
  3
. . . . . . . . . . . . . . . . . . . .
 72
65
 73
2
 40
0.2
 49
0.1
 74
0
 49
-0.1
 74
0
  0
LTYPE
  5
1F9
100
AcDbSymbolTableRecord
100
AcDbLinetypeTableRecord
  2
DASHED
 70
64
  3
- - - - - - - - - - - - - - - - - - - -
 72
65
 73
2
 40
0.2
 49
0.1
 74
0
 49
-0.1
 74
0
  0
ENDTAB
  0
TABLE
  2
LAYER
  5
2
100
AcDbSymbolTable
 70
36
  0
LAYER
  5
10
100
AcDbSymbolTableRecord
100
AcDbLayerTableRecord
  2
0
 70
0
 62
7
  6
CONTINUOUS
370
-3
390
F
  0
LAYER
  5
1FA
100
AcDbSymbolTableRecord
100
AcDbLayerTableRecord
  2
DEFAULT_1
 70
0
 62
7
  6
CENTER
370
-3
390
F
  0
LAYER
  5
1FB
100
AcDbSymbolTableRecord
100
AcDbLayerTableRecord
  2
DEFAULT_2
 70
0
 62
8
  6
HIDDEN
370
-3
390
F
  0
LAYER
  5
1FC
100
AcDbSymbolTableRecord
100
AcDbLayerTableRecord
  2
DEFAULT_3
 70
0
 62
7
  6
PHANTOM
370
-3
390
F
  0
LAYER
  5
1FD
100
AcDbSymbolTableRecord
100
AcDbLayerTableRecord
  2
01___PRT_ALL_DTM_PLN
 70
0
 62
7
  6
CONTINUOUS
370
-3
390
F
  0
LAYER
  5
1FE
100
AcDbSymbolTableRecord
100
AcDbLayerTableRecord
  2
01___PRT_DEF_DTM_PLN
 70
0
 62
7
  6
CONTINUOUS
370
-3
390
F
  0
LAYER
  5
1FF
100
AcDbSymbolTableRecord
100
AcDbLayerTableRecord
  2
02___PRT_ALL_AXES
 70
0
 62
7
  6
CONTINUOUS
370
-3
390
F
  0
LAYER
  5
200
100
AcDbSymbolTableRecord
100
AcDbLayerTableRecord
  2
03___PRT_ALL_CURVES
 70
0
 62
7
  6
CONTINUOUS
370
-3
390
F
  0
LAYER
  5
201
100
AcDbSymbolTableRecord
100
AcDbLayerTableRecord
  2
04___PRT_ALL_DTM_PNT
 70
0
 62
7
  6
CONTINUOUS
370
-3
390
F
  0
LAYER
  5
202
100
AcDbSymbolTableRecord
100
AcDbLayerTableRecord
  2
05___PRT_ALL_DTM_CSYS
 70
0
 62
7
  6
CONTINUOUS
370
-3
390
F
  0
LAYER
  5
203
100
AcDbSymbolTableRecord
100
AcDbLayerTableRecord
  2
05___PRT_DEF_DTM_CSYS
 70
0
 62
7
  6
CONTINUOUS
370
-3
390
F
  0
LAYER
  5
204
100
AcDbSymbolTableRecord
100
AcDbLayerTableRecord
  2
06___PRT_ALL_SURFS
 70
0
 62
7
  6
CONTINUOUS
370
-3
390
F
  0
LAYER
  5
205
100
AcDbSymbolTableRecord
100
AcDbLayerTableRecord
  2
AUSFORMSCHRAEGEN
 70
0
 62
7
  6
CONTINUOUS
370
-3
390
F
  0
LAYER
  5
206
100
AcDbSymbolTableRecord
100
AcDbLayerTableRecord
  2
BEZUGSACHSEN
 70
0
 62
7
  6
CONTINUOUS
370
-3
390
F
  0
LAYER
  5
207
100
AcDbSymbolTableRecord
100
AcDbLayerTableRecord
  2
BEZUGSEBENE
 70
0
 62
7
  6
CONTINUOUS
370
-3
390
F
  0
LAYER
  5
208
100
AcDbSymbolTableRecord
100
AcDbLayerTableRecord
  2
BEZUGSEBENEN
 70
0
 62
7
  6
CONTINUOUS
370
-3
390
F
  0
LAYER
  5
209
100
AcDbSymbolTableRecord
100
AcDbLayerTableRecord
  2
BEZUGSEBENEN-KES
 70
0
 62
7
  6
CONTINUOUS
370
-3
390
F
  0
LAYER
  5
20A
100
AcDbSymbolTableRecord
100
AcDbLayerTableRecord
  2
RUNDUNGEN
 70
0
 62
7
  6
CONTINUOUS
370
-3
390
F
  0
LAYER
  5
20B
100
AcDbSymbolTableRecord
100
AcDbLayerTableRecord
  2
ZEICHNUNGSBEMASSUNGEN
 70
0
 62
7
  6
CONTINUOUS
370
-3
390
F
  0
LAYER
  5
20C
100
AcDbSymbolTableRecord
100
AcDbLayerTableRecord
  2
ZEICHNUNGSNOTIZEN
 70
0
 62
7
  6
CONTINUOUS
370
-3
390
F
  0
ENDTAB
  0
TABLE
  2
STYLE
  5
3
100
AcDbSymbolTable
 70
1
  0
STYLE
  5
11
100
AcDbSymbolTableRecord
100
AcDbTextStyleTableRecord
  2
STANDARD
 70
0
 40
0.0
 41
0.7
 50
0.0
 71
0
 42
0.2
  3
txt
  4

  0
STYLE
  5
20D
100
AcDbSymbolTableRecord
100
AcDbTextStyleTableRecord
  2
TEXTSTYLE_1
 70
0
 40
0.0
 41
0.8
 50
0.0
 71
0
 42
0.2
  3
gdt
  4

  0
ENDTAB
  0
TABLE
  2
VIEW
  5
6
100
AcDbSymbolTable
 70
0
  0
ENDTAB
  0
TABLE
  2
UCS
  5
7
100
AcDbSymbolTable
 70
0
  0
ENDTAB
  0
TABLE
  2
APPID
  5
9
100
AcDbSymbolTable
 70
1
  0
APPID
  5
20E
100
AcDbSymbolTableRecord
100
AcDbRegAppTableRecord
  2
ACAD
 70
0
  0
ENDTAB
  0
TABLE
  2
BLOCK_RECORD
  5
1
100
AcDbSymbolTable
 70
0
  0
BLOCK_RECORD
  5
20F
100
AcDbSymbolTableRecord
100
AcDbBlockTableRecord
  2
*Model_Space
  0
BLOCK_RECORD
  5
210
100
AcDbSymbolTableRecord
100
AcDbBlockTableRecord
  2
*Paper_Space
  0
ENDTAB
  0
TABLE
  2
DIMSTYLE
  5
A
100
AcDbSymbolTable
 70
1
100
AcDbDimStyleTable
 71
0
  0
DIMSTYLE
105
211
100
AcDbSymbolTableRecord
100
AcDbDimStyleTableRecord
  2
STANDARD
 70
0
  3

  4

 40
1.0
 41
3.5
 42
0.0
 43
0.38
 44
1.5
 45
0.0
 46
0.0
 47
0.005
 48
0.005
140
3.5
141
0.09
142
0.0
143
25.4
144
1.0
145
0.0
146
1.0
147
0.625
 71
1.0
 72
0.0
 73
0
 74
0
 75
0
 76
0
 77
1
 78
8
170
0
171
2
172
0
173
0
174
0
175
0
176
0
177
0
178
5
270
2
271
3
272
3
273
2
274
2
275
0
280
0
281
0
282
0
283
1
284
8
285
0
286
0
287
3
288
0
340
11
278
46
  0
ENDTAB
  0
ENDSEC
  0
SECTION
  2
BLOCKS
  0
BLOCK
  5
20
100
AcDbEntity
  8
0
100
AcDbBlockBegin
  2
*Model_Space
 70
0
 10
0.0
 20
0.0
 30
0.0
  3
*Model_Space
  1

  0
ENDBLK
  5
21
100
AcDbEntity
  8
0
100
AcDbBlockEnd
  0
BLOCK
  5
1C
100
AcDbEntity
  8
0
100
AcDbBlockBegin
  2
*Paper_Space
 70
0
 10
0.0
 20
0.0
 30
0.0
  3
*Paper_Space
  1

  0
ENDBLK
  5
1D
100
AcDbEntity
  8
0
100
AcDbBlockEnd
  0
ENDSEC
  0
SECTION
  2
ENTITIES
  0
LINE
  5
212
100
AcDbEntity
  8
0
100
AcDbLine
 62
7
  6
CONTINUOUS
 10
0.0
 20
0.0
 11
0.0
 21
210.0
  0
LINE
  5
213
100
AcDbEntity
  8
0
100
AcDbLine
 62
7
  6
CONTINUOUS
 10
0.0
 20
0.0
 11
297.0
 21
0.0
  0
LINE
  5
214
100
AcDbEntity
  8
0
100
AcDbLine
 62
7
  6
CONTINUOUS
 10
0.0
 20
210.0
 11
297.0
 21
210.0
  0
LINE
  5
215
100
AcDbEntity
  8
0
100
AcDbLine
 62
7
  6
CONTINUOUS
 10
297.0
 20
0.0
 11
297.0
 21
210.0
  0
LINE
  5
216
100
AcDbEntity
  8
0
100
AcDbLine
 62
7
  6
CONTINUOUS
 10
54.4140625
 20
148.2406255019
 11
54.4140625
 21
160.2406255019
  0
LINE
  5
217
100
AcDbEntity
  8
RUNDUNGEN
100
AcDbLine
 62
7
  6
CONTINUOUS
 10
56.3140625
 20
148.2406255019
 11
56.3140625
 21
151.5899342891
  0
LINE
  5
218
100
AcDbEntity
  8
RUNDUNGEN
100
AcDbLine
 62
7
  6
CONTINUOUS
 10
56.3140625
 20
156.8913167147
 11
56.3140625
 21
160.2406255019
  0
LINE
  5
219
100
AcDbEntity
  8
RUNDUNGEN
100
AcDbLine
 62
7
  6
CONTINUOUS
 10
56.9140625
 20
148.8406255019
 11
56.9140625
 21
151.3248651678
  0
LINE
  5
21A
100
AcDbEntity
  8
RUNDUNGEN
100
AcDbLine
 62
7
  6
CONTINUOUS
 10
56.9140625
 20
157.156385836
 11
56.9140625
 21
159.6406255019
  0
LINE
  5
21B
100
AcDbEntity
  8
RUNDUNGEN
100
AcDbLine
 62
7
  6
CONTINUOUS
 10
56.9345070042
 20
159.6406255019
 11
56.9345070042
 21
156.4148539115
  0
LINE
  5
21C
100
AcDbEntity
  8
RUNDUNGEN
100
AcDbLine
 62
7
  6
CONTINUOUS
 10
56.9345070042
 20
152.0663970923
 11
56.9345070042
 21
148.8406255019
  0
LINE
  5
21D
100
AcDbEntity
  8
RUNDUNGEN
100
AcDbLine
 62
7
  6
CONTINUOUS
 10
60.3936179958
 20
159.6406255019
 11
60.3936179958
 21
156.9356255019
  0
LINE
  5
21E
100
AcDbEntity
  8
RUNDUNGEN
100
AcDbLine
 62
7
  6
CONTINUOUS
 10
60.3936179958
 20
151.5456255019
 11
60.3936179958
 21
148.8406255019
  0
LINE
  5
21F
100
AcDbEntity
  8
0
100
AcDbLine
 62
7
  6
CONTINUOUS
 10
60.4140625
 20
148.8406255019
 11
60.4140625
 21
151.5456255019
  0
LINE
  5
220
100
AcDbEntity
  8
RUNDUNGEN
100
AcDbLine
 62
7
  6
CONTINUOUS
 10
60.4140625
 20
148.8406255019
 11
60.4140625
 21
151.5456255019
  0
LINE
  5
221
100
AcDbEntity
  8
0
100
AcDbLine
 62
7
  6
CONTINUOUS
 10
60.4140625
 20
156.9356255019
 11
60.4140625
 21
159.6406255019
  0
LINE
  5
222
100
AcDbEntity
  8
RUNDUNGEN
100
AcDbLine
 62
7
  6
CONTINUOUS
 10
60.4140625
 20
156.9356255019
 11
60.4140625
 21
159.6406255019
  0
LINE
  5
223
100
AcDbEntity
  8
RUNDUNGEN
100
AcDbLine
 62
7
  6
CONTINUOUS
 10
73.4140625
 20
148.8406255019
 11
73.4140625
 21
151.5456255019
  0
LINE
  5
224
100
AcDbEntity
  8
RUNDUNGEN
100
AcDbLine
 62
7
  6
CONTINUOUS
 10
73.4140625
 20
156.9356255019
 11
73.4140625
 21
159.6406255019
  0
LINE
  5
225
100
AcDbEntity
  8
RUNDUNGEN
100
AcDbLine
 62
7
  6
CONTINUOUS
 10
73.4345070042
 20
148.8406255019
 11
73.4345070042
 21
151.5456255019
  0
LINE
  5
226
100
AcDbEntity
  8
RUNDUNGEN
100
AcDbLine
 62
7
  6
CONTINUOUS
 10
73.4345070042
 20
156.9356255019
 11
73.4345070042
 21
159.6406255019
  0
LINE
  5
227
100
AcDbEntity
  8
RUNDUNGEN
100
AcDbLine
 62
7
  6
CONTINUOUS
 10
76.8936179958
 20
148.8406255019
 11
76.8936179958
 21
152.0663970923
  0
LINE
  5
228
100
AcDbEntity
  8
RUNDUNGEN
100
AcDbLine
 62
7
  6
CONTINUOUS
 10
76.8936179958
 20
156.4148539115
 11
76.8936179958
 21
159.6406255019
  0
LINE
  5
229
100
AcDbEntity
  8
RUNDUNGEN
100
AcDbLine
 62
7
  6
CONTINUOUS
 10
76.9140625
 20
159.6406255019
 11
76.9140625
 21
157.156385836
  0
LINE
  5
22A
100
AcDbEntity
  8
RUNDUNGEN
100
AcDbLine
 62
7
  6
CONTINUOUS
 10
76.9140625
 20
151.3248651678
 11
76.9140625
 21
148.8406255019
  0
LINE
  5
22B
100
AcDbEntity
  8
RUNDUNGEN
100
AcDbLine
 62
7
  6
CONTINUOUS
 10
77.5140625
 20
160.2406255019
 11
77.5140625
 21
156.8913167147
  0
LINE
  5
22C
100
AcDbEntity
  8
RUNDUNGEN
100
AcDbLine
 62
7
  6
CONTINUOUS
 10
77.5140625
 20
151.5899342891
 11
77.5140625
 21
148.2406255019
  0
LINE
  5
22D
100
AcDbEntity
  8
RUNDUNGEN
100
AcDbLine
 62
7
  6
CONTINUOUS
 10
81.3140625
 20
148.2406255019
 11
81.3140625
 21
151.5899342891
  0
LINE
  5
22E
100
AcDbEntity
  8
RUNDUNGEN
100
AcDbLine
 62
7
  6
CONTINUOUS
 10
81.3140625
 20
156.8913167147
 11
81.3140625
 21
160.2406255019
  0
LINE
  5
22F
100
AcDbEntity
  8
RUNDUNGEN
100
AcDbLine
 62
7
  6
CONTINUOUS
 10
81.9140625
 20
148.8406255019
 11
81.9140625
 21
151.3248651678
  0
LINE
  5
230
100
AcDbEntity
  8
RUNDUNGEN
100
AcDbLine
 62
7
  6
CONTINUOUS
 10
81.9140625
 20
157.156385836
 11
81.9140625
 21
159.6406255019
  0
LINE
  5
231
100
AcDbEntity
  8
RUNDUNGEN
100
AcDbLine
 62
7
  6
CONTINUOUS
 10
81.9345070042
 20
159.6406255019
 11
81.9345070042
 21
156.4148539115
  0
LINE
  5
232
100
AcDbEntity
  8
RUNDUNGEN
100
AcDbLine
 62
7
  6
CONTINUOUS
 10
81.9345070042
 20
152.0663970923
 11
81.9345070042
 21
148.8406255019
  0
LINE
  5
233
100
AcDbEntity
  8
RUNDUNGEN
100
AcDbLine
 62
7
  6
CONTINUOUS
 10
85.3936179958
 20
159.6406255019
 11
85.3936179958
 21
156.9356255019
  0
LINE
  5
234
100
AcDbEntity
  8
RUNDUNGEN
100
AcDbLine
 62
7
  6
CONTINUOUS
 10
85.3936179958
 20
151.5456255019
 11
85.3936179958
 21
148.8406255019
  0
LINE
  5
235
100
AcDbEntity
  8
0
100
AcDbLine
 62
7
  6
CONTINUOUS
 10
85.4140625
 20
148.8406255019
 11
85.4140625
 21
151.5456255019
  0
LINE
  5
236
100
AcDbEntity
  8
RUNDUNGEN
100
AcDbLine
 62
7
  6
CONTINUOUS
 10
85.4140625
 20
148.8406255019
 11
85.4140625
 21
151.5456255019
  0
LINE
  5
237
100
AcDbEntity
  8
0
100
AcDbLine
 62
7
  6
CONTINUOUS
 10
85.4140625
 20
156.9356255019
 11
85.4140625
 21
159.6406255019
  0
LINE
  5
238
100
AcDbEntity
  8
RUNDUNGEN
100
AcDbLine
 62
7
  6
CONTINUOUS
 10
85.4140625
 20
156.9356255019
 11
85.4140625
 21
159.6406255019
  0
LINE
  5
239
100
AcDbEntity
  8
0
100
AcDbLine
 62
7
  6
CONTINUOUS
 10
154.4140625
 20
148.2406255019
 11
151.3140625
 21
148.2406255019
  0
LINE
  5
23A
100
AcDbEntity
  8
0
100
AcDbLine
 62
7
  6
CONTINUOUS
 10
132.5140625
 20
148.2406255019
 11
126.3140625
 21
148.2406255019
  0
LINE
  5
23B
100
AcDbEntity
  8
0
100
AcDbLine
 62
7
  6
CONTINUOUS
 10
107.5140625
 20
148.2406255019
 11
101.3140625
 21
148.2406255019
  0
LINE
  5
23C
100
AcDbEntity
  8
0
100
AcDbLine
 62
7
  6
CONTINUOUS
 10
82.5140625
 20
148.2406255019
 11
76.3140625
 21
148.2406255019
  0
LINE
  5
23D
100
AcDbEntity
  8
0
100
AcDbLine
 62
7
  6
CONTINUOUS
 10
57.5140625
 20
148.2406255019
 11
54.4140625
 21
148.2406255019
  0
LINE
  5
23E
100
AcDbEntity
  8
RUNDUNGEN
100
AcDbLine
 62
7
  6
CONTINUOUS
 10
56.3140625
 20
148.2406255019
 11
77.5140625
 21
148.2406255019
  0
LINE
  5
23F
100
AcDbEntity
  8
RUNDUNGEN
100
AcDbLine
 62
7
  6
CONTINUOUS
 10
81.3140625
 20
148.2406255019
 11
102.5140625
 21
148.2406255019
  0
LINE
  5
240
100
AcDbEntity
  8
RUNDUNGEN
100
AcDbLine
 62
7
  6
CONTINUOUS
 10
106.3140625
 20
148.2406255019
 11
127.5140625
 21
148.2406255019
  0
LINE
  5
241
100
AcDbEntity
  8
RUNDUNGEN
100
AcDbLine
 62
7
  6
CONTINUOUS
 10
131.3140625
 20
148.2406255019
 11
152.5140625
 21
148.2406255019
  0
LINE
  5
242
100
AcDbEntity
  8
RUNDUNGEN
100
AcDbLine
 62
7
  6
CONTINUOUS
 10
56.9140625
 20
148.8406255019
 11
60.3936179958
 21
148.8406255019
  0
LINE
  5
243
100
AcDbEntity
  8
RUNDUNGEN
100
AcDbLine
 62
7
  6
CONTINUOUS
 10
60.4140625
 20
148.8406255019
 11
62.7102626293
 21
148.8406255019
  0
LINE
  5
244
100
AcDbEntity
  8
RUNDUNGEN
100
AcDbLine
 62
7
  6
CONTINUOUS
 10
71.1178623707
 20
148.8406255019
 11
73.4140625
 21
148.8406255019
  0
LINE
  5
245
100
AcDbEntity
  8
RUNDUNGEN
100
AcDbLine
 62
7
  6
CONTINUOUS
 10
73.4345070042
 20
148.8406255019
 11
76.9140625
 21
148.8406255019
  0
LINE
  5
246
100
AcDbEntity
  8
RUNDUNGEN
100
AcDbLine
 62
7
  6
CONTINUOUS
 10
81.9140625
 20
148.8406255019
 11
85.3936179958
 21
148.8406255019
  0
LINE
  5
247
100
AcDbEntity
  8
RUNDUNGEN
100
AcDbLine
 62
7
  6
CONTINUOUS
 10
85.4140625
 20
148.8406255019
 11
87.7102626293
 21
148.8406255019
  0
LINE
  5
248
100
AcDbEntity
  8
RUNDUNGEN
100
AcDbLine
 62
7
  6
CONTINUOUS
 10
96.1178623707
 20
148.8406255019
 11
98.4140625
 21
148.8406255019
  0
LINE
  5
249
100
AcDbEntity
  8
RUNDUNGEN
100
AcDbLine
 62
7
  6
CONTINUOUS
 10
98.4345070042
 20
148.8406255019
 11
101.9140625
 21
148.8406255019
  0
LINE
  5
24A
100
AcDbEntity
  8
RUNDUNGEN
100
AcDbLine
 62
7
  6
CONTINUOUS
 10
106.9140625
 20
148.8406255019
 11
110.3936179958
 21
148.8406255019
  0
LINE
  5
24B
100
AcDbEntity
  8
RUNDUNGEN
100
AcDbLine
 62
7
  6
CONTINUOUS
 10
110.4140625
 20
148.8406255019
 11
112.7102626293
 21
148.8406255019
  0
LINE
  5
24C
100
AcDbEntity
  8
RUNDUNGEN
100
AcDbLine
 62
7
  6
CONTINUOUS
 10
121.1178623707
 20
148.8406255019
 11
123.4140625
 21
148.8406255019
  0
LINE
  5
24D
100
AcDbEntity
  8
RUNDUNGEN
100
AcDbLine
 62
7
  6
CONTINUOUS
 10
123.4345070042
 20
148.8406255019
 11
126.9140625
 21
148.8406255019
  0
LINE
  5
24E
100
AcDbEntity
  8
RUNDUNGEN
100
AcDbLine
 62
7
  6
CONTINUOUS
 10
131.9140625
 20
148.8406255019
 11
135.3936179958
 21
148.8406255019
  0
LINE
  5
24F
100
AcDbEntity
  8
RUNDUNGEN
100
AcDbLine
 62
7
  6
CONTINUOUS
 10
135.4140625
 20
148.8406255019
 11
137.7102626293
 21
148.8406255019
  0
LINE
  5
250
100
AcDbEntity
  8
RUNDUNGEN
100
AcDbLine
 62
7
  6
CONTINUOUS
 10
146.1178623707
 20
148.8406255019
 11
148.4140625
 21
148.8406255019
  0
LINE
  5
251
100
AcDbEntity
  8
RUNDUNGEN
100
AcDbLine
 62
7
  6
CONTINUOUS
 10
148.4345070042
 20
148.8406255019
 11
151.9140625
 21
148.8406255019
  0
LINE
  5
252
100
AcDbEntity
  8
RUNDUNGEN
100
AcDbLine
 62
7
  6
CONTINUOUS
 10
98.4140625
 20
148.8406255019
 11
98.4140625
 21
151.5456255019
  0
LINE
  5
253
100
AcDbEntity
  8
RUNDUNGEN
100
AcDbLine
 62
7
  6
CONTINUOUS
 10
98.4140625
 20
156.9356255019
 11
98.4140625
 21
159.6406255019
  0
LINE
  5
254
100
AcDbEntity
  8
RUNDUNGEN
100
AcDbLine
 62
7
  6
CONTINUOUS
 10
98.4345070042
 20
148.8406255019
 11
98.4345070042
 21
151.5456255019
  0
LINE
  5
255
100
AcDbEntity
  8
RUNDUNGEN
100
AcDbLine
 62
7
  6
CONTINUOUS
 10
98.4345070042
 20
156.9356255019
 11
98.4345070042
 21
159.6406255019
  0
LINE
  5
256
100
AcDbEntity
  8
RUNDUNGEN
100
AcDbLine
 62
7
  6
CONTINUOUS
 10
135.3998446246
 20
151.5456255019
 11
134.9137537093
 21
151.5456255019
  0
LINE
  5
257
100
AcDbEntity
  8
RUNDUNGEN
100
AcDbLine
 62
7
  6
CONTINUOUS
 10
110.3998446246
 20
151.5456255019
 11
109.9137537093
 21
151.5456255019
  0
LINE
  5
258
100
AcDbEntity
  8
RUNDUNGEN
100
AcDbLine
 62
7
  6
CONTINUOUS
 10
85.3998446246
 20
151.5456255019
 11
84.9137537093
 21
151.5456255019
  0
LINE
  5
259
100
AcDbEntity
  8
RUNDUNGEN
100
AcDbLine
 62
7
  6
CONTINUOUS
 10
60.3998446246
 20
151.5456255019
 11
59.9137537093
 21
151.5456255019
  0
LINE
  5
25A
100
AcDbEntity
  8
0
100
AcDbLine
 62
7
  6
CONTINUOUS
 10
60.4140625
 20
151.5456255019
 11
60.4513250769
 21
151.5456255019
  0
LINE
  5
25B
100
AcDbEntity
  8
0
100
AcDbLine
 62
7
  6
CONTINUOUS
 10
73.3767999231
 20
151.5456255019
 11
73.4140625
 21
151.5456255019
  0
LINE
  5
25C
100
AcDbEntity
  8
RUNDUNGEN
100
AcDbLine
 62
7
  6
CONTINUOUS
 10
73.4345070042
 20
151.5456255019
 11
73.9143712907
 21
151.5456255019
  0
LINE
  5
25D
100
AcDbEntity
  8
0
100
AcDbLine
 62
7
  6
CONTINUOUS
 10
85.4140625
 20
151.5456255019
 11
85.4513250769
 21
151.5456255019
  0
LINE
  5
25E
100
AcDbEntity
  8
0
100
AcDbLine
 62
7
  6
CONTINUOUS
 10
98.3767999231
 20
151.5456255019
 11
98.4140625
 21
151.5456255019
  0
LINE
  5
25F
100
AcDbEntity
  8
RUNDUNGEN
100
AcDbLine
 62
7
  6
CONTINUOUS
 10
98.4345070042
 20
151.5456255019
 11
98.9143712907
 21
151.5456255019
  0
LINE
  5
260
100
AcDbEntity
  8
0
100
AcDbLine
 62
7
  6
CONTINUOUS
 10
110.4140625
 20
151.5456255019
 11
110.4513250769
 21
151.5456255019
  0
LINE
  5
261
100
AcDbEntity
  8
0
100
AcDbLine
 62
7
  6
CONTINUOUS
 10
123.3767999231
 20
151.5456255019
 11
123.4140625
 21
151.5456255019
  0
LINE
  5
262
100
AcDbEntity
  8
RUNDUNGEN
100
AcDbLine
 62
7
  6
CONTINUOUS
 10
123.4345070042
 20
151.5456255019
 11
123.9143712907
 21
151.5456255019
  0
LINE
  5
263
100
AcDbEntity
  8
0
100
AcDbLine
 62
7
  6
CONTINUOUS
 10
135.4140625
 20
151.5456255019
 11
135.4513250769
 21
151.5456255019
  0
LINE
  5
264
100
AcDbEntity
  8
0
100
AcDbLine
 62
7
  6
CONTINUOUS
 10
148.3767999231
 20
151.5456255019
 11
148.4140625
 21
151.5456255019
  0
LINE
  5
265
100
AcDbEntity
  8
RUNDUNGEN
100
AcDbLine
 62
7
  6
CONTINUOUS
 10
148.4345070042
 20
151.5456255019
 11
148.9143712907
 21
151.5456255019
  0
LINE
  5
266
100
AcDbEntity
  8
RUNDUNGEN
100
AcDbLine
 62
7
  6
CONTINUOUS
 10
101.8936179958
 20
148.8406255019
 11
101.8936179958
 21
152.0663970923
  0
LINE
  5
267
100
AcDbEntity
  8
RUNDUNGEN
100
AcDbLine
 62
7
  6
CONTINUOUS
 10
101.8936179958
 20
156.4148539115
 11
101.8936179958
 21
159.6406255019
  0
LINE
  5
268
100
AcDbEntity
  8
RUNDUNGEN
100
AcDbLine
 62
7
  6
CONTINUOUS
 10
101.9140625
 20
159.6406255019
 11
101.9140625
 21
157.156385836
  0
LINE
  5
269
100
AcDbEntity
  8
RUNDUNGEN
100
AcDbLine
 62
7
  6
CONTINUOUS
 10
101.9140625
 20
151.3248651678
 11
101.9140625
 21
148.8406255019
  0
LINE
  5
26A
100
AcDbEntity
  8
RUNDUNGEN
100
AcDbLine
 62
7
  6
CONTINUOUS
 10
102.5140625
 20
160.2406255019
 11
102.5140625
 21
156.8913167147
  0
LINE
  5
26B
100
AcDbEntity
  8
RUNDUNGEN
100
AcDbLine
 62
7
  6
CONTINUOUS
 10
102.5140625
 20
151.5899342891
 11
102.5140625
 21
148.2406255019
  0
LINE
  5
26C
100
AcDbEntity
  8
RUNDUNGEN
100
AcDbLine
 62
7
  6
CONTINUOUS
 10
106.3140625
 20
148.2406255019
 11
106.3140625
 21
151.5899342891
  0
LINE
  5
26D
100
AcDbEntity
  8
RUNDUNGEN
100
AcDbLine
 62
7
  6
CONTINUOUS
 10
106.3140625
 20
156.8913167147
 11
106.3140625
 21
160.2406255019
  0
LINE
  5
26E
100
AcDbEntity
  8
RUNDUNGEN
100
AcDbLine
 62
7
  6
CONTINUOUS
 10
106.9140625
 20
148.8406255019
 11
106.9140625
 21
151.3248651678
  0
LINE
  5
26F
100
AcDbEntity
  8
RUNDUNGEN
100
AcDbLine
 62
7
  6
CONTINUOUS
 10
106.9140625
 20
157.156385836
 11
106.9140625
 21
159.6406255019
  0
LINE
  5
270
100
AcDbEntity
  8
RUNDUNGEN
100
AcDbLine
 62
7
  6
CONTINUOUS
 10
106.9345070042
 20
159.6406255019
 11
106.9345070042
 21
156.4148539115
  0
LINE
  5
271
100
AcDbEntity
  8
RUNDUNGEN
100
AcDbLine
 62
7
  6
CONTINUOUS
 10
106.9345070042
 20
152.0663970923
 11
106.9345070042
 21
148.8406255019
  0
LINE
  5
272
100
AcDbEntity
  8
RUNDUNGEN
100
AcDbLine
 62
7
  6
CONTINUOUS
 10
135.3936179958
 20
156.9356255019
 11
134.9137537093
 21
156.9356255019
  0
LINE
  5
273
100
AcDbEntity
  8
RUNDUNGEN
100
AcDbLine
 62
7
  6
CONTINUOUS
 10
110.3936179958
 20
156.9356255019
 11
109.9137537093
 21
156.9356255019
  0
LINE
  5
274
100
AcDbEntity
  8
RUNDUNGEN
100
AcDbLine
 62
7
  6
CONTINUOUS
 10
85.3936179958
 20
156.9356255019
 11
84.9137537093
 21
156.9356255019
  0
LINE
  5
275
100
AcDbEntity
  8
RUNDUNGEN
100
AcDbLine
 62
7
  6
CONTINUOUS
 10
60.3936179958
 20
156.9356255019
 11
59.9137537093
 21
156.9356255019
  0
LINE
  5
276
100
AcDbEntity
  8
0
100
AcDbLine
 62
7
  6
CONTINUOUS
 10
60.4140625
 20
156.9356255019
 11
60.4513250769
 21
156.9356255019
  0
LINE
  5
277
100
AcDbEntity
  8
0
100
AcDbLine
 62
7
  6
CONTINUOUS
 10
73.3767999231
 20
156.9356255019
 11
73.4140625
 21
156.9356255019
  0
LINE
  5
278
100
AcDbEntity
  8
RUNDUNGEN
100
AcDbLine
 62
7
  6
CONTINUOUS
 10
73.4282803754
 20
156.9356255019
 11
73.9143712907
 21
156.9356255019
  0
LINE
  5
279
100
AcDbEntity
  8
0
100
AcDbLine
 62
7
  6
CONTINUOUS
 10
85.4140625
 20
156.9356255019
 11
85.4513250769
 21
156.9356255019
  0
LINE
  5
27A
100
AcDbEntity
  8
0
100
AcDbLine
 62
7
  6
CONTINUOUS
 10
98.3767999231
 20
156.9356255019
 11
98.4140625
 21
156.9356255019
  0
LINE
  5
27B
100
AcDbEntity
  8
RUNDUNGEN
100
AcDbLine
 62
7
  6
CONTINUOUS
 10
98.4282803754
 20
156.9356255019
 11
98.9143712907
 21
156.9356255019
  0
LINE
  5
27C
100
AcDbEntity
  8
0
100
AcDbLine
 62
7
  6
CONTINUOUS
 10
110.4140625
 20
156.9356255019
 11
110.4513250769
 21
156.9356255019
  0
LINE
  5
27D
100
AcDbEntity
  8
0
100
AcDbLine
 62
7
  6
CONTINUOUS
 10
123.3767999231
 20
156.9356255019
 11
123.4140625
 21
156.9356255019
  0
LINE
  5
27E
100
AcDbEntity
  8
RUNDUNGEN
100
AcDbLine
 62
7
  6
CONTINUOUS
 10
123.4282803754
 20
156.9356255019
 11
123.9143712907
 21
156.9356255019
  0
LINE
  5
27F
100
AcDbEntity
  8
0
100
AcDbLine
 62
7
  6
CONTINUOUS
 10
135.4140625
 20
156.9356255019
 11
135.4513250769
 21
156.9356255019
  0
LINE
  5
280
100
AcDbEntity
  8
0
100
AcDbLine
 62
7
  6
CONTINUOUS
 10
148.3767999231
 20
156.9356255019
 11
148.4140625
 21
156.9356255019
  0
LINE
  5
281
100
AcDbEntity
  8
RUNDUNGEN
100
AcDbLine
 62
7
  6
CONTINUOUS
 10
148.4282803754
 20
156.9356255019
 11
148.9143712907
 21
156.9356255019
  0
LINE
  5
282
100
AcDbEntity
  8
RUNDUNGEN
100
AcDbLine
 62
7
  6
CONTINUOUS
 10
151.9140625
 20
159.6406255019
 11
148.4345070042
 21
159.6406255019
  0
LINE
  5
283
100
AcDbEntity
  8
RUNDUNGEN
100
AcDbLine
 62
7
  6
CONTINUOUS
 10
148.4140625
 20
159.6406255019
 11
146.1178623707
 21
159.6406255019
  0
LINE
  5
284
100
AcDbEntity
  8
RUNDUNGEN
100
AcDbLine
 62
7
  6
CONTINUOUS
 10
137.7102626293
 20
159.6406255019
 11
135.4140625
 21
159.6406255019
  0
LINE
  5
285
100
AcDbEntity
  8
RUNDUNGEN
100
AcDbLine
 62
7
  6
CONTINUOUS
 10
135.3936179958
 20
159.6406255019
 11
131.9140625
 21
159.6406255019
  0
LINE
  5
286
100
AcDbEntity
  8
RUNDUNGEN
100
AcDbLine
 62
7
  6
CONTINUOUS
 10
126.9140625
 20
159.6406255019
 11
123.4345070042
 21
159.6406255019
  0
LINE
  5
287
100
AcDbEntity
  8
RUNDUNGEN
100
AcDbLine
 62
7
  6
CONTINUOUS
 10
123.4140625
 20
159.6406255019
 11
121.1178623707
 21
159.6406255019
  0
LINE
  5
288
100
AcDbEntity
  8
RUNDUNGEN
100
AcDbLine
 62
7
  6
CONTINUOUS
 10
112.7102626293
 20
159.6406255019
 11
110.4140625
 21
159.6406255019
  0
LINE
  5
289
100
AcDbEntity
  8
RUNDUNGEN
100
AcDbLine
 62
7
  6
CONTINUOUS
 10
110.3936179958
 20
159.6406255019
 11
106.9140625
 21
159.6406255019
  0
LINE
  5
28A
100
AcDbEntity
  8
RUNDUNGEN
100
AcDbLine
 62
7
  6
CONTINUOUS
 10
101.9140625
 20
159.6406255019
 11
98.4345070042
 21
159.6406255019
  0
LINE
  5
28B
100
AcDbEntity
  8
RUNDUNGEN
100
AcDbLine
 62
7
  6
CONTINUOUS
 10
98.4140625
 20
159.6406255019
 11
96.1178623707
 21
159.6406255019
  0
LINE
  5
28C
100
AcDbEntity
  8
RUNDUNGEN
100
AcDbLine
 62
7
  6
CONTINUOUS
 10
87.7102626293
 20
159.6406255019
 11
85.4140625
 21
159.6406255019
  0
LINE
  5
28D
100
AcDbEntity
  8
RUNDUNGEN
100
AcDbLine
 62
7
  6
CONTINUOUS
 10
85.3936179958
 20
159.6406255019
 11
81.9140625
 21
159.6406255019
  0
LINE
  5
28E
100
AcDbEntity
  8
RUNDUNGEN
100
AcDbLine
 62
7
  6
CONTINUOUS
 10
76.9140625
 20
159.6406255019
 11
73.4345070042
 21
159.6406255019
  0
LINE
  5
28F
100
AcDbEntity
  8
RUNDUNGEN
100
AcDbLine
 62
7
  6
CONTINUOUS
 10
73.4140625
 20
159.6406255019
 11
71.1178623707
 21
159.6406255019
  0
LINE
  5
290
100
AcDbEntity
  8
RUNDUNGEN
100
AcDbLine
 62
7
  6
CONTINUOUS
 10
62.7102626293
 20
159.6406255019
 11
60.4140625
 21
159.6406255019
  0
LINE
  5
291
100
AcDbEntity
  8
RUNDUNGEN
100
AcDbLine
 62
7
  6
CONTINUOUS
 10
60.3936179958
 20
159.6406255019
 11
56.9140625
 21
159.6406255019
  0
LINE
  5
292
100
AcDbEntity
  8
RUNDUNGEN
100
AcDbLine
 62
7
  6
CONTINUOUS
 10
110.3936179958
 20
159.6406255019
 11
110.3936179958
 21
156.9356255019
  0
LINE
  5
293
100
AcDbEntity
  8
RUNDUNGEN
100
AcDbLine
 62
7
  6
CONTINUOUS
 10
110.3936179958
 20
151.5456255019
 11
110.3936179958
 21
148.8406255019
  0
LINE
  5
294
100
AcDbEntity
  8
0
100
AcDbLine
 62
7
  6
CONTINUOUS
 10
110.4140625
 20
148.8406255019
 11
110.4140625
 21
151.5456255019
  0
LINE
  5
295
100
AcDbEntity
  8
RUNDUNGEN
100
AcDbLine
 62
7
  6
CONTINUOUS
 10
110.4140625
 20
148.8406255019
 11
110.4140625
 21
151.5456255019
  0
LINE
  5
296
100
AcDbEntity
  8
0
100
AcDbLine
 62
7
  6
CONTINUOUS
 10
110.4140625
 20
156.9356255019
 11
110.4140625
 21
159.6406255019
  0
LINE
  5
297
100
AcDbEntity
  8
RUNDUNGEN
100
AcDbLine
 62
7
  6
CONTINUOUS
 10
110.4140625
 20
156.9356255019
 11
110.4140625
 21
159.6406255019
  0
LINE
  5
298
100
AcDbEntity
  8
0
100
AcDbLine
 62
7
  6
CONTINUOUS
 10
154.4140625
 20
160.2406255019
 11
152.5140625
 21
160.2406255019
  0
LINE
  5
299
100
AcDbEntity
  8
0
100
AcDbLine
 62
7
  6
CONTINUOUS
 10
131.3140625
 20
160.2406255019
 11
127.5140625
 21
160.2406255019
  0
LINE
  5
29A
100
AcDbEntity
  8
0
100
AcDbLine
 62
7
  6
CONTINUOUS
 10
106.3140625
 20
160.2406255019
 11
102.5140625
 21
160.2406255019
  0
LINE
  5
29B
100
AcDbEntity
  8
0
100
AcDbLine
 62
7
  6
CONTINUOUS
 10
81.3140625
 20
160.2406255019
 11
77.5140625
 21
160.2406255019
  0
LINE
  5
29C
100
AcDbEntity
  8
0
100
AcDbLine
 62
7
  6
CONTINUOUS
 10
56.3140625
 20
160.2406255019
 11
54.4140625
 21
160.2406255019
  0
LINE
  5
29D
100
AcDbEntity
  8
RUNDUNGEN
100
AcDbLine
 62
7
  6
CONTINUOUS
 10
56.3140625
 20
160.2406255019
 11
77.5140625
 21
160.2406255019
  0
LINE
  5
29E
100
AcDbEntity
  8
RUNDUNGEN
100
AcDbLine
 62
7
  6
CONTINUOUS
 10
81.3140625
 20
160.2406255019
 11
102.5140625
 21
160.2406255019
  0
LINE
  5
29F
100
AcDbEntity
  8
RUNDUNGEN
100
AcDbLine
 62
7
  6
CONTINUOUS
 10
106.3140625
 20
160.2406255019
 11
127.5140625
 21
160.2406255019
  0
LINE
  5
2A0
100
AcDbEntity
  8
RUNDUNGEN
100
AcDbLine
 62
7
  6
CONTINUOUS
 10
131.3140625
 20
160.2406255019
 11
152.5140625
 21
160.2406255019
  0
LINE
  5
2A1
100
AcDbEntity
  8
RUNDUNGEN
100
AcDbLine
 62
7
  6
CONTINUOUS
 10
65.3140625
 20
163.4406255019
 11
68.5140625
 21
163.4406255019
  0
LINE
  5
2A2
100
AcDbEntity
  8
RUNDUNGEN
100
AcDbLine
 62
7
  6
CONTINUOUS
 10
90.3140625
 20
163.4406255019
 11
93.5140625
 21
163.4406255019
  0
LINE
  5
2A3
100
AcDbEntity
  8
RUNDUNGEN
100
AcDbLine
 62
7
  6
CONTINUOUS
 10
115.3140625
 20
163.4406255019
 11
118.5140625
 21
163.4406255019
  0
LINE
  5
2A4
100
AcDbEntity
  8
RUNDUNGEN
100
AcDbLine
 62
7
  6
CONTINUOUS
 10
140.3140625
 20
163.4406255019
 11
143.5140625
 21
163.4406255019
  0
LINE
  5
2A5
100
AcDbEntity
  8
RUNDUNGEN
100
AcDbLine
 62
7
  6
CONTINUOUS
 10
123.4140625
 20
148.8406255019
 11
123.4140625
 21
151.5456255019
  0
LINE
  5
2A6
100
AcDbEntity
  8
RUNDUNGEN
100
AcDbLine
 62
7
  6
CONTINUOUS
 10
123.4140625
 20
156.9356255019
 11
123.4140625
 21
159.6406255019
  0
LINE
  5
2A7
100
AcDbEntity
  8
RUNDUNGEN
100
AcDbLine
 62
7
  6
CONTINUOUS
 10
123.4345070042
 20
148.8406255019
 11
123.4345070042
 21
151.5456255019
  0
LINE
  5
2A8
100
AcDbEntity
  8
RUNDUNGEN
100
AcDbLine
 62
7
  6
CONTINUOUS
 10
123.4345070042
 20
156.9356255019
 11
123.4345070042
 21
159.6406255019
  0
LINE
  5
2A9
100
AcDbEntity
  8
RUNDUNGEN
100
AcDbLine
 62
7
  6
CONTINUOUS
 10
126.8936179958
 20
148.8406255019
 11
126.8936179958
 21
152.0663970923
  0
LINE
  5
2AA
100
AcDbEntity
  8
RUNDUNGEN
100
AcDbLine
 62
7
  6
CONTINUOUS
 10
126.8936179958
 20
156.4148539115
 11
126.8936179958
 21
159.6406255019
  0
LINE
  5
2AB
100
AcDbEntity
  8
RUNDUNGEN
100
AcDbLine
 62
7
  6
CONTINUOUS
 10
126.9140625
 20
159.6406255019
 11
126.9140625
 21
157.156385836
  0
LINE
  5
2AC
100
AcDbEntity
  8
RUNDUNGEN
100
AcDbLine
 62
7
  6
CONTINUOUS
 10
126.9140625
 20
151.3248651678
 11
126.9140625
 21
148.8406255019
  0
LINE
  5
2AD
100
AcDbEntity
  8
RUNDUNGEN
100
AcDbLine
 62
7
  6
CONTINUOUS
 10
127.5140625
 20
160.2406255019
 11
127.5140625
 21
156.8913167147
  0
LINE
  5
2AE
100
AcDbEntity
  8
RUNDUNGEN
100
AcDbLine
 62
7
  6
CONTINUOUS
 10
127.5140625
 20
151.5899342891
 11
127.5140625
 21
148.2406255019
  0
LINE
  5
2AF
100
AcDbEntity
  8
RUNDUNGEN
100
AcDbLine
 62
7
  6
CONTINUOUS
 10
131.3140625
 20
148.2406255019
 11
131.3140625
 21
151.5899342891
  0
LINE
  5
2B0
100
AcDbEntity
  8
RUNDUNGEN
100
AcDbLine
 62
7
  6
CONTINUOUS
 10
131.3140625
 20
156.8913167147
 11
131.3140625
 21
160.2406255019
  0
LINE
  5
2B1
100
AcDbEntity
  8
RUNDUNGEN
100
AcDbLine
 62
7
  6
CONTINUOUS
 10
131.9140625
 20
148.8406255019
 11
131.9140625
 21
151.3248651678
  0
LINE
  5
2B2
100
AcDbEntity
  8
RUNDUNGEN
100
AcDbLine
 62
7
  6
CONTINUOUS
 10
131.9140625
 20
157.156385836
 11
131.9140625
 21
159.6406255019
  0
LINE
  5
2B3
100
AcDbEntity
  8
RUNDUNGEN
100
AcDbLine
 62
7
  6
CONTINUOUS
 10
131.9345070042
 20
159.6406255019
 11
131.9345070042
 21
156.4148539115
  0
LINE
  5
2B4
100
AcDbEntity
  8
RUNDUNGEN
100
AcDbLine
 62
7
  6
CONTINUOUS
 10
131.9345070042
 20
152.0663970923
 11
131.9345070042
 21
148.8406255019
  0
LINE
  5
2B5
100
AcDbEntity
  8
RUNDUNGEN
100
AcDbLine
 62
7
  6
CONTINUOUS
 10
135.3936179958
 20
159.6406255019
 11
135.3936179958
 21
156.9356255019
  0
LINE
  5
2B6
100
AcDbEntity
  8
RUNDUNGEN
100
AcDbLine
 62
7
  6
CONTINUOUS
 10
135.3936179958
 20
151.5456255019
 11
135.3936179958
 21
148.8406255019
  0
LINE
  5
2B7
100
AcDbEntity
  8
RUNDUNGEN
100
AcDbLine
 62
7
  6
CONTINUOUS
 10
135.4140625
 20
148.8406255019
 11
135.4140625
 21
151.5456255019
  0
LINE
  5
2B8
100
AcDbEntity
  8
0
100
AcDbLine
 62
7
  6
CONTINUOUS
 10
135.4140625
 20
148.8406255019
 11
135.4140625
 21
151.5456255019
  0
LINE
  5
2B9
100
AcDbEntity
  8
RUNDUNGEN
100
AcDbLine
 62
7
  6
CONTINUOUS
 10
135.4140625
 20
156.9356255019
 11
135.4140625
 21
159.6406255019
  0
LINE
  5
2BA
100
AcDbEntity
  8
0
100
AcDbLine
 62
7
  6
CONTINUOUS
 10
135.4140625
 20
156.9356255019
 11
135.4140625
 21
159.6406255019
  0
LINE
  5
2BB
100
AcDbEntity
  8
RUNDUNGEN
100
AcDbLine
 62
7
  6
CONTINUOUS
 10
148.4140625
 20
148.8406255019
 11
148.4140625
 21
151.5456255019
  0
LINE
  5
2BC
100
AcDbEntity
  8
RUNDUNGEN
100
AcDbLine
 62
7
  6
CONTINUOUS
 10
148.4140625
 20
156.9356255019
 11
148.4140625
 21
159.6406255019
  0
LINE
  5
2BD
100
AcDbEntity
  8
RUNDUNGEN
100
AcDbLine
 62
7
  6
CONTINUOUS
 10
148.4345070042
 20
148.8406255019
 11
148.4345070042
 21
151.5456255019
  0
LINE
  5
2BE
100
AcDbEntity
  8
RUNDUNGEN
100
AcDbLine
 62
7
  6
CONTINUOUS
 10
148.4345070042
 20
156.9356255019
 11
148.4345070042
 21
159.6406255019
  0
LINE
  5
2BF
100
AcDbEntity
  8
RUNDUNGEN
100
AcDbLine
 62
7
  6
CONTINUOUS
 10
151.8936179958
 20
148.8406255019
 11
151.8936179958
 21
152.0663970923
  0
LINE
  5
2C0
100
AcDbEntity
  8
RUNDUNGEN
100
AcDbLine
 62
7
  6
CONTINUOUS
 10
151.8936179958
 20
156.4148539115
 11
151.8936179958
 21
159.6406255019
  0
LINE
  5
2C1
100
AcDbEntity
  8
RUNDUNGEN
100
AcDbLine
 62
7
  6
CONTINUOUS
 10
151.9140625
 20
159.6406255019
 11
151.9140625
 21
157.156385836
  0
LINE
  5
2C2
100
AcDbEntity
  8
RUNDUNGEN
100
AcDbLine
 62
7
  6
CONTINUOUS
 10
151.9140625
 20
151.3248651678
 11
151.9140625
 21
148.8406255019
  0
LINE
  5
2C3
100
AcDbEntity
  8
RUNDUNGEN
100
AcDbLine
 62
7
  6
CONTINUOUS
 10
152.5140625
 20
160.2406255019
 11
152.5140625
 21
156.8913167147
  0
LINE
  5
2C4
100
AcDbEntity
  8
RUNDUNGEN
100
AcDbLine
 62
7
  6
CONTINUOUS
 10
152.5140625
 20
151.5899342891
 11
152.5140625
 21
148.2406255019
  0
LINE
  5
2C5
100
AcDbEntity
  8
0
100
AcDbLine
 62
7
  6
CONTINUOUS
 10
154.4140625
 20
148.2407303736
 11
154.4140625
 21
160.2405206303
  0
LINE
  5
2C6
100
AcDbEntity
  8
RUNDUNGEN
100
AcDbLine
 62
7
  6
CONTINUOUS
 10
208.9395644642
 20
148.8406255019
 11
208.9395644642
 21
148.2406255019
  0
LINE
  5
2C7
100
AcDbEntity
  8
RUNDUNGEN
100
AcDbLine
 62
7
  6
CONTINUOUS
 10
208.9395644642
 20
159.6406255019
 11
208.9395644642
 21
160.2406255019
  0
LINE
  5
2C8
100
AcDbEntity
  8
RUNDUNGEN
100
AcDbLine
 62
7
  6
CONTINUOUS
 10
211.0658397734
 20
148.2406255019
 11
211.0658397734
 21
151.3248651678
  0
LINE
  5
2C9
100
AcDbEntity
  8
RUNDUNGEN
100
AcDbLine
 62
7
  6
CONTINUOUS
 10
211.0658397734
 20
157.156385836
 11
211.0658397734
 21
160.2406255019
  0
LINE
  5
2CA
100
AcDbEntity
  8
RUNDUNGEN
100
AcDbLine
 62
7
  6
CONTINUOUS
 10
205.144831272
 20
148.2406255019
 11
234.1448381472
 21
148.2406255019
  0
LINE
  5
2CB
100
AcDbEntity
  8
RUNDUNGEN
100
AcDbLine
 62
7
  6
CONTINUOUS
 10
208.9395642937
 20
148.8406255019
 11
234.6024583906
 21
148.8406255019
  0
LINE
  5
2CC
100
AcDbEntity
  8
RUNDUNGEN
100
AcDbLine
 62
7
  6
CONTINUOUS
 10
211.0658397728
 20
151.3248651684
 11
210.5275662765
 21
151.5899342956
  0
LINE
  5
2CD
100
AcDbEntity
  8
RUNDUNGEN
100
AcDbLine
 62
7
  6
CONTINUOUS
 10
211.2211312005
 20
159.6406255019
 11
211.2211312005
 21
156.4148539115
  0
LINE
  5
2CE
100
AcDbEntity
  8
RUNDUNGEN
100
AcDbLine
 62
7
  6
CONTINUOUS
 10
211.2211312005
 20
152.0663970923
 11
211.2211312005
 21
148.8406255019
  0
LINE
  5
2CF
100
AcDbEntity
  8
RUNDUNGEN
100
AcDbLine
 62
7
  6
CONTINUOUS
 10
211.0658397729
 20
157.1563858355
 11
210.5275662791
 21
156.891316703
  0
LINE
  5
2D0
100
AcDbEntity
  8
RUNDUNGEN
100
AcDbLine
 62
7
  6
CONTINUOUS
 10
229.644831272
 20
151.5456255019
 11
222.339831272
 21
151.5456255019
  0
LINE
  5
2D1
100
AcDbEntity
  8
0
100
AcDbLine
 62
7
  6
CONTINUOUS
 10
229.644831272
 20
151.5456255019
 11
230.339831272
 21
151.5456255019
  0
LINE
  5
2D2
100
AcDbEntity
  8
RUNDUNGEN
100
AcDbLine
 62
7
  6
CONTINUOUS
 10
222.339831272
 20
156.9356255019
 11
229.644831272
 21
156.9356255019
  0
LINE
  5
2D3
100
AcDbEntity
  8
0
100
AcDbLine
 62
7
  6
CONTINUOUS
 10
229.644831272
 20
156.9356255019
 11
230.339831272
 21
156.9356255019
  0
LINE
  5
2D4
100
AcDbEntity
  8
RUNDUNGEN
100
AcDbLine
 62
7
  6
CONTINUOUS
 10
234.6024583906
 20
159.6406255019
 11
208.9395642682
 21
159.6406255019
  0
LINE
  5
2D5
100
AcDbEntity
  8
RUNDUNGEN
100
AcDbLine
 62
7
  6
CONTINUOUS
 10
234.1448606806
 20
160.2406255019
 11
205.144831272
 21
160.2406255019
  0
LINE
  5
2D6
100
AcDbEntity
  8
RUNDUNGEN
100
AcDbLine
 62
7
  6
CONTINUOUS
 10
224.13070917
 20
159.6406255019
 11
224.13070917
 21
156.9356255019
  0
LINE
  5
2D7
100
AcDbEntity
  8
RUNDUNGEN
100
AcDbLine
 62
7
  6
CONTINUOUS
 10
224.13070917
 20
151.5456255019
 11
224.13070917
 21
148.8406255019
  0
LINE
  5
2D8
100
AcDbEntity
  8
RUNDUNGEN
100
AcDbLine
 62
7
  6
CONTINUOUS
 10
224.286000597
 20
151.5456255019
 11
224.286000597
 21
148.2406255019
  0
LINE
  5
2D9
100
AcDbEntity
  8
RUNDUNGEN
100
AcDbLine
 62
7
  6
CONTINUOUS
 10
224.286000597
 20
156.9356255019
 11
224.2860005964
 21
160.2406255019
  0
LINE
  5
2DA
100
AcDbEntity
  8
RUNDUNGEN
100
AcDbLine
 62
7
  6
CONTINUOUS
 10
224.844831272
 20
163.4406255019
 11
224.844831272
 21
160.2406255019
  0
LINE
  5
2DB
100
AcDbEntity
  8
RUNDUNGEN
100
AcDbLine
 62
7
  6
CONTINUOUS
 10
223.2450799705
 20
163.4406255019
 11
230.844831272
 21
163.4406255019
  0
LINE
  5
2DC
100
AcDbEntity
  8
RUNDUNGEN
100
AcDbLine
 62
7
  6
CONTINUOUS
 10
229.244831272
 20
163.4406255019
 11
229.2448312691
 21
160.2406255019
  0
LINE
  5
2DD
100
AcDbEntity
  8
RUNDUNGEN
100
AcDbLine
 62
7
  6
CONTINUOUS
 10
229.644831272
 20
148.2406255019
 11
229.644831272
 21
151.5456255019
  0
LINE
  5
2DE
100
AcDbEntity
  8
RUNDUNGEN
100
AcDbLine
 62
7
  6
CONTINUOUS
 10
229.644831272
 20
156.9356255019
 11
229.644831272
 21
160.2406255019
  0
LINE
  5
2DF
100
AcDbEntity
  8
0
100
AcDbLine
 62
7
  6
CONTINUOUS
 10
236.144831272
 20
150.2406255019
 11
236.144831272
 21
158.2406255019
  0
LINE
  5
2E0
100
AcDbEntity
  8
0
100
AcDbLine
 62
7
  6
CONTINUOUS
 10
54.4140625
 20
78.306969096
 11
54.4140625
 21
90.306969096
  0
LINE
  5
2E1
100
AcDbEntity
  8
RUNDUNGEN
100
AcDbLine
 62
7
  6
CONTINUOUS
 10
56.3140625
 20
78.9242340947
 11
56.3140625
 21
84.306969096
  0
LINE
  5
2E2
100
AcDbEntity
  8
RUNDUNGEN
100
AcDbLine
 62
7
  6
CONTINUOUS
 10
56.9140625
 20
78.3859605946
 11
56.9140625
 21
80.5122359038
  0
LINE
  5
2E3
100
AcDbEntity
  8
RUNDUNGEN
100
AcDbLine
 62
7
  6
CONTINUOUS
 10
57.5140625
 20
78.3859605946
 11
57.5140625
 21
80.5122359038
  0
LINE
  5
2E4
100
AcDbEntity
  8
RUNDUNGEN
100
AcDbLine
 62
7
  6
CONTINUOUS
 10
56.9140625
 20
78.3859605946
 11
56.9345070042
 21
78.2306691675
  0
LINE
  5
2E5
100
AcDbEntity
  8
RUNDUNGEN
100
AcDbLine
 62
7
  6
CONTINUOUS
 10
59.3140625
 20
77.306969096
 11
59.3140625
 21
84.1306421153
  0
LINE
  5
2E6
100
AcDbEntity
  8
RUNDUNGEN
100
AcDbLine
 62
7
  6
CONTINUOUS
 10
59.9140625
 20
77.306969096
 11
59.9140625
 21
84.1306421153
  0
LINE
  5
2E7
100
AcDbEntity
  8
RUNDUNGEN
100
AcDbLine
 62
7
  6
CONTINUOUS
 10
60.4140625
 20
59.806969096
 11
60.4140625
 21
65.165799771
  0
LINE
  5
2E8
100
AcDbEntity
  8
RUNDUNGEN
100
AcDbLine
 62
7
  6
CONTINUOUS
 10
61.0140625
 20
59.806969096
 11
61.0140625
 21
65.165799771
  0
LINE
  5
2E9
100
AcDbEntity
  8
RUNDUNGEN
100
AcDbLine
 62
7
  6
CONTINUOUS
 10
62.1140625
 20
64.606969096
 11
62.1140625
 21
60.2069690989
  0
LINE
  5
2EA
100
AcDbEntity
  8
RUNDUNGEN
100
AcDbLine
 62
7
  6
CONTINUOUS
 10
60.3936179958
 20
65.321091198
 11
56.9345070042
 21
78.2306691675
  0
LINE
  5
2EB
100
AcDbEntity
  8
RUNDUNGEN
100
AcDbLine
 62
7
  6
CONTINUOUS
 10
60.9731734915
 20
65.4763826251
 11
57.5140625
 21
78.3859605946
  0
LINE
  5
2EC
100
AcDbEntity
  8
RUNDUNGEN
100
AcDbLine
 62
7
  6
CONTINUOUS
 10
60.3936179957
 20
65.3210911983
 11
60.4140625
 21
65.1657997713
  0
LINE
  5
2ED
100
AcDbEntity
  8
RUNDUNGEN
100
AcDbLine
 62
7
  6
CONTINUOUS
 10
65.3140625
 20
64.606969096
 11
65.3140625
 21
60.206969096
  0
LINE
  5
2EE
100
AcDbEntity
  8
RUNDUNGEN
100
AcDbLine
 62
7
  6
CONTINUOUS
 10
68.5140625
 20
60.206969096
 11
68.5140625
 21
64.606969096
  0
LINE
  5
2EF
100
AcDbEntity
  8
RUNDUNGEN
100
AcDbLine
 62
7
  6
CONTINUOUS
 10
71.1178623679
 20
54.849341975
 11
70.7298193061
 21
55.3069690966
  0
LINE
  5
2F0
100
AcDbEntity
  8
RUNDUNGEN
100
AcDbLine
 62
7
  6
CONTINUOUS
 10
59.2899395483
 20
84.2674501726
 11
59.2756721988
 21
84.3066493932
  0
LINE
  5
2F1
100
AcDbEntity
  8
RUNDUNGEN
100
AcDbLine
 62
7
  6
CONTINUOUS
 10
59.8537551208
 20
84.4726622586
 11
57.8739321439
 21
89.912181182
  0
LINE
  5
2F2
100
AcDbEntity
  8
RUNDUNGEN
100
AcDbLine
 62
7
  6
CONTINUOUS
 10
71.7140625
 20
60.206969096
 11
71.7140625
 21
64.606969096
  0
LINE
  5
2F3
100
AcDbEntity
  8
RUNDUNGEN
100
AcDbLine
 62
7
  6
CONTINUOUS
 10
72.8140625
 20
65.165799771
 11
72.8140625
 21
59.806969096
  0
LINE
  5
2F4
100
AcDbEntity
  8
RUNDUNGEN
100
AcDbLine
 62
7
  6
CONTINUOUS
 10
75.9541928561
 20
89.912181182
 11
73.9743698792
 21
84.4726622586
  0
LINE
  5
2F5
100
AcDbEntity
  8
RUNDUNGEN
100
AcDbLine
 62
7
  6
CONTINUOUS
 10
74.5524527836
 20
84.3066493449
 11
74.5381854517
 21
84.2674501726
  0
LINE
  5
2F6
100
AcDbEntity
  8
RUNDUNGEN
100
AcDbLine
 62
7
  6
CONTINUOUS
 10
73.4140625
 20
65.165799771
 11
73.4140625
 21
59.806969096
  0
LINE
  5
2F7
100
AcDbEntity
  8
RUNDUNGEN
100
AcDbLine
 62
7
  6
CONTINUOUS
 10
73.9140625
 20
84.1306421153
 11
73.9140625
 21
77.3069690994
  0
LINE
  5
2F8
100
AcDbEntity
  8
RUNDUNGEN
100
AcDbLine
 62
7
  6
CONTINUOUS
 10
74.5140625
 20
84.1306421153
 11
74.5140625
 21
77.306969096
  0
LINE
  5
2F9
100
AcDbEntity
  8
RUNDUNGEN
100
AcDbLine
 62
7
  6
CONTINUOUS
 10
76.3140625
 20
80.5122359038
 11
76.3140625
 21
78.3859605946
  0
LINE
  5
2FA
100
AcDbEntity
  8
RUNDUNGEN
100
AcDbLine
 62
7
  6
CONTINUOUS
 10
76.8936179958
 20
78.2306691675
 11
76.9140625
 21
78.3859605946
  0
LINE
  5
2FB
100
AcDbEntity
  8
RUNDUNGEN
100
AcDbLine
 62
7
  6
CONTINUOUS
 10
76.3140625
 20
78.3859605946
 11
72.8549515085
 21
65.4763826251
  0
LINE
  5
2FC
100
AcDbEntity
  8
RUNDUNGEN
100
AcDbLine
 62
7
  6
CONTINUOUS
 10
76.8936179958
 20
78.2306691675
 11
73.4345070042
 21
65.321091198
  0
LINE
  5
2FD
100
AcDbEntity
  8
RUNDUNGEN
100
AcDbLine
 62
7
  6
CONTINUOUS
 10
76.9140625
 20
80.5122359038
 11
76.9140625
 21
78.3859605946
  0
LINE
  5
2FE
100
AcDbEntity
  8
RUNDUNGEN
100
AcDbLine
 62
7
  6
CONTINUOUS
 10
77.5140625
 20
84.306969096
 11
77.5140625
 21
78.9242340947
  0
LINE
  5
2FF
100
AcDbEntity
  8
RUNDUNGEN
100
AcDbLine
 62
7
  6
CONTINUOUS
 10
59.2755558365
 20
84.306969096
 11
59.839371409
 21
84.512181182
  0
LINE
  5
300
100
AcDbEntity
  8
RUNDUNGEN
100
AcDbLine
 62
7
  6
CONTINUOUS
 10
59.2899395483
 20
84.2674501726
 11
59.8537551208
 21
84.4726622586
  0
LINE
  5
301
100
AcDbEntity
  8
RUNDUNGEN
100
AcDbLine
 62
7
  6
CONTINUOUS
 10
81.3140625
 20
78.9242340947
 11
81.3140625
 21
84.306969096
  0
LINE
  5
302
100
AcDbEntity
  8
RUNDUNGEN
100
AcDbLine
 62
7
  6
CONTINUOUS
 10
81.9140625
 20
78.3859605946
 11
81.9140625
 21
80.5122359038
  0
LINE
  5
303
100
AcDbEntity
  8
RUNDUNGEN
100
AcDbLine
 62
7
  6
CONTINUOUS
 10
82.5140625
 20
78.3859605946
 11
82.5140625
 21
80.5122359038
  0
LINE
  5
304
100
AcDbEntity
  8
RUNDUNGEN
100
AcDbLine
 62
7
  6
CONTINUOUS
 10
81.9140625
 20
78.3859605946
 11
81.9345070042
 21
78.2306691675
  0
LINE
  5
305
100
AcDbEntity
  8
RUNDUNGEN
100
AcDbLine
 62
7
  6
CONTINUOUS
 10
84.3140625
 20
77.306969096
 11
84.3140625
 21
84.1306421153
  0
LINE
  5
306
100
AcDbEntity
  8
RUNDUNGEN
100
AcDbLine
 62
7
  6
CONTINUOUS
 10
84.9140625
 20
77.306969096
 11
84.9140625
 21
84.1306421153
  0
LINE
  5
307
100
AcDbEntity
  8
RUNDUNGEN
100
AcDbLine
 62
7
  6
CONTINUOUS
 10
85.4140625
 20
59.806969096
 11
85.4140625
 21
65.165799771
  0
LINE
  5
308
100
AcDbEntity
  8
RUNDUNGEN
100
AcDbLine
 62
7
  6
CONTINUOUS
 10
86.0140625
 20
59.806969096
 11
86.0140625
 21
65.165799771
  0
LINE
  5
309
100
AcDbEntity
  8
RUNDUNGEN
100
AcDbLine
 62
7
  6
CONTINUOUS
 10
87.1140625
 20
64.606969096
 11
87.1140625
 21
60.206969096
  0
LINE
  5
30A
100
AcDbEntity
  8
RUNDUNGEN
100
AcDbLine
 62
7
  6
CONTINUOUS
 10
62.7102626322
 20
54.849341975
 11
63.0983056943
 21
55.306969096
  0
LINE
  5
30B
100
AcDbEntity
  8
RUNDUNGEN
100
AcDbLine
 62
7
  6
CONTINUOUS
 10
84.2755558365
 20
84.306969096
 11
84.839371409
 21
84.512181182
  0
LINE
  5
30C
100
AcDbEntity
  8
RUNDUNGEN
100
AcDbLine
 62
7
  6
CONTINUOUS
 10
84.2899395483
 20
84.2674501726
 11
84.8537551208
 21
84.4726622586
  0
LINE
  5
30D
100
AcDbEntity
  8
RUNDUNGEN
100
AcDbLine
 62
7
  6
CONTINUOUS
 10
96.1178623679
 20
54.849341975
 11
95.7298193061
 21
55.3069690966
  0
LINE
  5
30E
100
AcDbEntity
  8
RUNDUNGEN
100
AcDbLine
 62
7
  6
CONTINUOUS
 10
85.3936179958
 20
65.321091198
 11
81.9345070042
 21
78.2306691675
  0
LINE
  5
30F
100
AcDbEntity
  8
RUNDUNGEN
100
AcDbLine
 62
7
  6
CONTINUOUS
 10
85.9731734915
 20
65.4763826251
 11
82.5140625
 21
78.3859605946
  0
LINE
  5
310
100
AcDbEntity
  8
RUNDUNGEN
100
AcDbLine
 62
7
  6
CONTINUOUS
 10
85.3936179957
 20
65.3210911983
 11
85.4140625
 21
65.1657997713
  0
LINE
  5
311
100
AcDbEntity
  8
RUNDUNGEN
100
AcDbLine
 62
7
  6
CONTINUOUS
 10
90.3140625
 20
64.606969096
 11
90.3140625
 21
60.206969096
  0
LINE
  5
312
100
AcDbEntity
  8
RUNDUNGEN
100
AcDbLine
 62
7
  6
CONTINUOUS
 10
135.3936179958
 20
65.321091198
 11
135.9731734915
 21
65.4763826251
  0
LINE
  5
313
100
AcDbEntity
  8
RUNDUNGEN
100
AcDbLine
 62
7
  6
CONTINUOUS
 10
138.0983336091
 20
55.3069396874
 11
145.7297973377
 21
55.3069459525
  0
LINE
  5
314
100
AcDbEntity
  8
RUNDUNGEN
100
AcDbLine
 62
7
  6
CONTINUOUS
 10
113.0983336091
 20
55.3069396874
 11
120.7297973377
 21
55.3069459525
  0
LINE
  5
315
100
AcDbEntity
  8
RUNDUNGEN
100
AcDbLine
 62
7
  6
CONTINUOUS
 10
88.0983336091
 20
55.3069396874
 11
95.7297973377
 21
55.3069459525
  0
LINE
  5
316
100
AcDbEntity
  8
RUNDUNGEN
100
AcDbLine
 62
7
  6
CONTINUOUS
 10
63.0983336091
 20
55.3069396874
 11
70.7297973377
 21
55.3069459525
  0
LINE
  5
317
100
AcDbEntity
  8
RUNDUNGEN
100
AcDbLine
 62
7
  6
CONTINUOUS
 10
73.4345070042
 20
65.321091198
 11
72.8549515086
 21
65.4763826256
  0
LINE
  5
318
100
AcDbEntity
  8
RUNDUNGEN
100
AcDbLine
 62
7
  6
CONTINUOUS
 10
84.2899395483
 20
84.2674501726
 11
84.2756721988
 21
84.3066493932
  0
LINE
  5
319
100
AcDbEntity
  8
RUNDUNGEN
100
AcDbLine
 62
7
  6
CONTINUOUS
 10
84.8537551208
 20
84.4726622586
 11
82.8739321439
 21
89.912181182
  0
LINE
  5
31A
100
AcDbEntity
  8
RUNDUNGEN
100
AcDbLine
 62
7
  6
CONTINUOUS
 10
93.5140625
 20
60.206969096
 11
93.5140625
 21
64.606969096
  0
LINE
  5
31B
100
AcDbEntity
  8
RUNDUNGEN
100
AcDbLine
 62
7
  6
CONTINUOUS
 10
148.4140625
 20
59.806969096
 11
147.8140625
 21
59.806969096
  0
LINE
  5
31C
100
AcDbEntity
  8
RUNDUNGEN
100
AcDbLine
 62
7
  6
CONTINUOUS
 10
123.4140625
 20
59.806969096
 11
122.8140625
 21
59.806969096
  0
LINE
  5
31D
100
AcDbEntity
  8
RUNDUNGEN
100
AcDbLine
 62
7
  6
CONTINUOUS
 10
98.4140625
 20
59.806969096
 11
97.8140625
 21
59.806969096
  0
LINE
  5
31E
100
AcDbEntity
  8
RUNDUNGEN
100
AcDbLine
 62
7
  6
CONTINUOUS
 10
73.4140625
 20
59.806969096
 11
72.8140625
 21
59.806969096
  0
LINE
  5
31F
100
AcDbEntity
  8
RUNDUNGEN
100
AcDbLine
 62
7
  6
CONTINUOUS
 10
60.4140625
 20
59.806969096
 11
61.0140625
 21
59.806969096
  0
LINE
  5
320
100
AcDbEntity
  8
RUNDUNGEN
100
AcDbLine
 62
7
  6
CONTINUOUS
 10
85.4140625
 20
59.806969096
 11
86.0140625
 21
59.806969096
  0
LINE
  5
321
100
AcDbEntity
  8
RUNDUNGEN
100
AcDbLine
 62
7
  6
CONTINUOUS
 10
110.4140625
 20
59.806969096
 11
111.0140625
 21
59.806969096
  0
LINE
  5
322
100
AcDbEntity
  8
RUNDUNGEN
100
AcDbLine
 62
7
  6
CONTINUOUS
 10
135.4140625
 20
59.806969096
 11
136.0140625
 21
59.806969096
  0
LINE
  5
323
100
AcDbEntity
  8
RUNDUNGEN
100
AcDbLine
 62
7
  6
CONTINUOUS
 10
140.3140625
 20
60.206969096
 11
137.1140625
 21
60.2069690989
  0
LINE
  5
324
100
AcDbEntity
  8
RUNDUNGEN
100
AcDbLine
 62
7
  6
CONTINUOUS
 10
115.3140625
 20
60.206969096
 11
112.1140625
 21
60.2069690989
  0
LINE
  5
325
100
AcDbEntity
  8
RUNDUNGEN
100
AcDbLine
 62
7
  6
CONTINUOUS
 10
90.3140625
 20
60.206969096
 11
87.1140625
 21
60.2069690989
  0
LINE
  5
326
100
AcDbEntity
  8
RUNDUNGEN
100
AcDbLine
 62
7
  6
CONTINUOUS
 10
65.3140625
 20
60.206969096
 11
62.1140625
 21
60.2069690989
  0
LINE
  5
327
100
AcDbEntity
  8
RUNDUNGEN
100
AcDbLine
 62
7
  6
CONTINUOUS
 10
68.5140625
 20
60.206969096
 11
71.7140625
 21
60.206969096
  0
LINE
  5
328
100
AcDbEntity
  8
RUNDUNGEN
100
AcDbLine
 62
7
  6
CONTINUOUS
 10
93.5140625
 20
60.206969096
 11
96.7140625
 21
60.206969096
  0
LINE
  5
329
100
AcDbEntity
  8
RUNDUNGEN
100
AcDbLine
 62
7
  6
CONTINUOUS
 10
118.5140625
 20
60.206969096
 11
121.7140625
 21
60.206969096
  0
LINE
  5
32A
100
AcDbEntity
  8
RUNDUNGEN
100
AcDbLine
 62
7
  6
CONTINUOUS
 10
143.5140625
 20
60.206969096
 11
146.7140625
 21
60.206969096
  0
LINE
  5
32B
100
AcDbEntity
  8
RUNDUNGEN
100
AcDbLine
 62
7
  6
CONTINUOUS
 10
96.7140625
 20
60.206969096
 11
96.7140625
 21
64.606969096
  0
LINE
  5
32C
100
AcDbEntity
  8
RUNDUNGEN
100
AcDbLine
 62
7
  6
CONTINUOUS
 10
100.9541928561
 20
89.912181182
 11
98.9743698792
 21
84.4726622586
  0
LINE
  5
32D
100
AcDbEntity
  8
RUNDUNGEN
100
AcDbLine
 62
7
  6
CONTINUOUS
 10
99.5524527836
 20
84.3066493449
 11
99.5381854517
 21
84.2674501726
  0
LINE
  5
32E
100
AcDbEntity
  8
RUNDUNGEN
100
AcDbLine
 62
7
  6
CONTINUOUS
 10
109.2755558365
 20
84.306969096
 11
109.839371409
 21
84.512181182
  0
LINE
  5
32F
100
AcDbEntity
  8
RUNDUNGEN
100
AcDbLine
 62
7
  6
CONTINUOUS
 10
109.2899395483
 20
84.2674501726
 11
109.8537551208
 21
84.4726622586
  0
LINE
  5
330
100
AcDbEntity
  8
RUNDUNGEN
100
AcDbLine
 62
7
  6
CONTINUOUS
 10
110.3936179958
 20
65.321091198
 11
110.9731734915
 21
65.4763826251
  0
LINE
  5
331
100
AcDbEntity
  8
RUNDUNGEN
100
AcDbLine
 62
7
  6
CONTINUOUS
 10
140.3140625
 20
64.606969096
 11
137.1140625
 21
64.606969096
  0
LINE
  5
332
100
AcDbEntity
  8
RUNDUNGEN
100
AcDbLine
 62
7
  6
CONTINUOUS
 10
115.3140625
 20
64.606969096
 11
112.1140625
 21
64.606969096
  0
LINE
  5
333
100
AcDbEntity
  8
RUNDUNGEN
100
AcDbLine
 62
7
  6
CONTINUOUS
 10
90.3140625
 20
64.606969096
 11
87.1140625
 21
64.606969096
  0
LINE
  5
334
100
AcDbEntity
  8
RUNDUNGEN
100
AcDbLine
 62
7
  6
CONTINUOUS
 10
65.3140625
 20
64.606969096
 11
62.1140625
 21
64.606969096
  0
LINE
  5
335
100
AcDbEntity
  8
RUNDUNGEN
100
AcDbLine
 62
7
  6
CONTINUOUS
 10
68.5140625
 20
64.606969096
 11
71.7140625
 21
64.6069690931
  0
LINE
  5
336
100
AcDbEntity
  8
RUNDUNGEN
100
AcDbLine
 62
7
  6
CONTINUOUS
 10
93.5140625
 20
64.606969096
 11
96.7140625
 21
64.6069690931
  0
LINE
  5
337
100
AcDbEntity
  8
RUNDUNGEN
100
AcDbLine
 62
7
  6
CONTINUOUS
 10
118.5140625
 20
64.606969096
 11
121.7140625
 21
64.6069690931
  0
LINE
  5
338
100
AcDbEntity
  8
RUNDUNGEN
100
AcDbLine
 62
7
  6
CONTINUOUS
 10
143.5140625
 20
64.606969096
 11
146.7140625
 21
64.6069690931
  0
LINE
  5
339
100
AcDbEntity
  8
RUNDUNGEN
100
AcDbLine
 62
7
  6
CONTINUOUS
 10
148.4140625
 20
65.165799771
 11
147.8140625
 21
65.165799771
  0
LINE
  5
33A
100
AcDbEntity
  8
RUNDUNGEN
100
AcDbLine
 62
7
  6
CONTINUOUS
 10
123.4140625
 20
65.165799771
 11
122.8140625
 21
65.165799771
  0
LINE
  5
33B
100
AcDbEntity
  8
RUNDUNGEN
100
AcDbLine
 62
7
  6
CONTINUOUS
 10
98.4140625
 20
65.165799771
 11
97.8140625
 21
65.165799771
  0
LINE
  5
33C
100
AcDbEntity
  8
RUNDUNGEN
100
AcDbLine
 62
7
  6
CONTINUOUS
 10
73.4140625
 20
65.165799771
 11
72.8140625
 21
65.165799771
  0
LINE
  5
33D
100
AcDbEntity
  8
RUNDUNGEN
100
AcDbLine
 62
7
  6
CONTINUOUS
 10
60.4140625
 20
65.165799771
 11
61.0140625
 21
65.1657997716
  0
LINE
  5
33E
100
AcDbEntity
  8
RUNDUNGEN
100
AcDbLine
 62
7
  6
CONTINUOUS
 10
85.4140625
 20
65.165799771
 11
86.0140625
 21
65.1657997716
  0
LINE
  5
33F
100
AcDbEntity
  8
RUNDUNGEN
100
AcDbLine
 62
7
  6
CONTINUOUS
 10
110.4140625
 20
65.165799771
 11
111.0140625
 21
65.1657997716
  0
LINE
  5
340
100
AcDbEntity
  8
RUNDUNGEN
100
AcDbLine
 62
7
  6
CONTINUOUS
 10
135.4140625
 20
65.165799771
 11
136.0140625
 21
65.1657997716
  0
LINE
  5
341
100
AcDbEntity
  8
RUNDUNGEN
100
AcDbLine
 62
7
  6
CONTINUOUS
 10
98.4345070042
 20
65.321091198
 11
97.8549515086
 21
65.4763826256
  0
LINE
  5
342
100
AcDbEntity
  8
RUNDUNGEN
100
AcDbLine
 62
7
  6
CONTINUOUS
 10
97.8140625
 20
65.165799771
 11
97.8140625
 21
59.806969096
  0
LINE
  5
343
100
AcDbEntity
  8
RUNDUNGEN
100
AcDbLine
 62
7
  6
CONTINUOUS
 10
98.4140625
 20
65.165799771
 11
98.4140625
 21
59.806969096
  0
LINE
  5
344
100
AcDbEntity
  8
RUNDUNGEN
100
AcDbLine
 62
7
  6
CONTINUOUS
 10
98.9140625
 20
84.1306421153
 11
98.9140625
 21
77.306969096
  0
LINE
  5
345
100
AcDbEntity
  8
RUNDUNGEN
100
AcDbLine
 62
7
  6
CONTINUOUS
 10
99.5140625
 20
84.1306421153
 11
99.5140625
 21
77.306969096
  0
LINE
  5
346
100
AcDbEntity
  8
RUNDUNGEN
100
AcDbLine
 62
7
  6
CONTINUOUS
 10
101.3140625
 20
80.5122359038
 11
101.3140625
 21
78.3859605946
  0
LINE
  5
347
100
AcDbEntity
  8
RUNDUNGEN
100
AcDbLine
 62
7
  6
CONTINUOUS
 10
101.8936179958
 20
78.2306691675
 11
101.9140625
 21
78.3859605946
  0
LINE
  5
348
100
AcDbEntity
  8
RUNDUNGEN
100
AcDbLine
 62
7
  6
CONTINUOUS
 10
101.3140625
 20
78.3859605946
 11
97.8549515085
 21
65.4763826251
  0
LINE
  5
349
100
AcDbEntity
  8
RUNDUNGEN
100
AcDbLine
 62
7
  6
CONTINUOUS
 10
101.8936179958
 20
78.2306691675
 11
98.4345070042
 21
65.321091198
  0
LINE
  5
34A
100
AcDbEntity
  8
RUNDUNGEN
100
AcDbLine
 62
7
  6
CONTINUOUS
 10
101.9140625
 20
80.5122359038
 11
101.9140625
 21
78.3859605946
  0
LINE
  5
34B
100
AcDbEntity
  8
RUNDUNGEN
100
AcDbLine
 62
7
  6
CONTINUOUS
 10
102.5140625
 20
84.306969096
 11
102.5140625
 21
78.9242340947
  0
LINE
  5
34C
100
AcDbEntity
  8
RUNDUNGEN
100
AcDbLine
 62
7
  6
CONTINUOUS
 10
87.7102626322
 20
54.849341975
 11
88.0983056943
 21
55.306969096
  0
LINE
  5
34D
100
AcDbEntity
  8
RUNDUNGEN
100
AcDbLine
 62
7
  6
CONTINUOUS
 10
134.2755558365
 20
84.306969096
 11
134.839371409
 21
84.512181182
  0
LINE
  5
34E
100
AcDbEntity
  8
RUNDUNGEN
100
AcDbLine
 62
7
  6
CONTINUOUS
 10
134.2899395483
 20
84.2674501726
 11
134.8537551208
 21
84.4726622586
  0
LINE
  5
34F
100
AcDbEntity
  8
RUNDUNGEN
100
AcDbLine
 62
7
  6
CONTINUOUS
 10
85.3936179958
 20
65.321091198
 11
85.9731734915
 21
65.4763826251
  0
LINE
  5
350
100
AcDbEntity
  8
RUNDUNGEN
100
AcDbLine
 62
7
  6
CONTINUOUS
 10
131.9345070042
 20
78.2306691675
 11
132.5140625
 21
78.3859605946
  0
LINE
  5
351
100
AcDbEntity
  8
RUNDUNGEN
100
AcDbLine
 62
7
  6
CONTINUOUS
 10
123.4345070042
 20
65.321091198
 11
122.8549515086
 21
65.4763826256
  0
LINE
  5
352
100
AcDbEntity
  8
RUNDUNGEN
100
AcDbLine
 62
7
  6
CONTINUOUS
 10
76.8936179958
 20
78.2306691675
 11
76.3140625
 21
78.3859605946
  0
LINE
  5
353
100
AcDbEntity
  8
RUNDUNGEN
100
AcDbLine
 62
7
  6
CONTINUOUS
 10
106.3140625
 20
78.9242340947
 11
106.3140625
 21
84.306969096
  0
LINE
  5
354
100
AcDbEntity
  8
RUNDUNGEN
100
AcDbLine
 62
7
  6
CONTINUOUS
 10
106.9140625
 20
78.3859605946
 11
106.9140625
 21
80.5122359038
  0
LINE
  5
355
100
AcDbEntity
  8
RUNDUNGEN
100
AcDbLine
 62
7
  6
CONTINUOUS
 10
107.5140625
 20
78.3859605946
 11
107.5140625
 21
80.5122359038
  0
LINE
  5
356
100
AcDbEntity
  8
RUNDUNGEN
100
AcDbLine
 62
7
  6
CONTINUOUS
 10
74.5381854517
 20
84.2674501726
 11
73.9743698792
 21
84.4726622586
  0
LINE
  5
357
100
AcDbEntity
  8
RUNDUNGEN
100
AcDbLine
 62
7
  6
CONTINUOUS
 10
74.5525691635
 20
84.306969096
 11
73.988753591
 21
84.512181182
  0
LINE
  5
358
100
AcDbEntity
  8
RUNDUNGEN
100
AcDbLine
 62
7
  6
CONTINUOUS
 10
121.1178623679
 20
54.849341975
 11
120.7298193061
 21
55.3069690966
  0
LINE
  5
359
100
AcDbEntity
  8
RUNDUNGEN
100
AcDbLine
 62
7
  6
CONTINUOUS
 10
106.9140625
 20
78.3859605946
 11
106.9345070042
 21
78.2306691675
  0
LINE
  5
35A
100
AcDbEntity
  8
RUNDUNGEN
100
AcDbLine
 62
7
  6
CONTINUOUS
 10
109.3140625
 20
77.306969096
 11
109.3140625
 21
84.1306421153
  0
LINE
  5
35B
100
AcDbEntity
  8
RUNDUNGEN
100
AcDbLine
 62
7
  6
CONTINUOUS
 10
109.9140625
 20
77.306969096
 11
109.9140625
 21
84.1306421153
  0
LINE
  5
35C
100
AcDbEntity
  8
RUNDUNGEN
100
AcDbLine
 62
7
  6
CONTINUOUS
 10
110.4140625
 20
59.806969096
 11
110.4140625
 21
65.165799771
  0
LINE
  5
35D
100
AcDbEntity
  8
RUNDUNGEN
100
AcDbLine
 62
7
  6
CONTINUOUS
 10
111.0140625
 20
59.806969096
 11
111.0140625
 21
65.165799771
  0
LINE
  5
35E
100
AcDbEntity
  8
RUNDUNGEN
100
AcDbLine
 62
7
  6
CONTINUOUS
 10
60.3936179958
 20
65.321091198
 11
60.9731734915
 21
65.4763826251
  0
LINE
  5
35F
100
AcDbEntity
  8
RUNDUNGEN
100
AcDbLine
 62
7
  6
CONTINUOUS
 10
106.9345070042
 20
78.2306691675
 11
107.5140625
 21
78.3859605946
  0
LINE
  5
360
100
AcDbEntity
  8
RUNDUNGEN
100
AcDbLine
 62
7
  6
CONTINUOUS
 10
149.5140625
 20
77.306969096
 11
148.9140625
 21
77.3069690994
  0
LINE
  5
361
100
AcDbEntity
  8
RUNDUNGEN
100
AcDbLine
 62
7
  6
CONTINUOUS
 10
124.5140625
 20
77.306969096
 11
123.9140625
 21
77.3069690994
  0
LINE
  5
362
100
AcDbEntity
  8
RUNDUNGEN
100
AcDbLine
 62
7
  6
CONTINUOUS
 10
99.5140625
 20
77.306969096
 11
98.9140625
 21
77.3069690994
  0
LINE
  5
363
100
AcDbEntity
  8
RUNDUNGEN
100
AcDbLine
 62
7
  6
CONTINUOUS
 10
74.5140625
 20
77.306969096
 11
73.9140625
 21
77.3069690994
  0
LINE
  5
364
100
AcDbEntity
  8
RUNDUNGEN
100
AcDbLine
 62
7
  6
CONTINUOUS
 10
59.3140625
 20
77.306969096
 11
59.9140625
 21
77.306969096
  0
LINE
  5
365
100
AcDbEntity
  8
RUNDUNGEN
100
AcDbLine
 62
7
  6
CONTINUOUS
 10
84.3140625
 20
77.306969096
 11
84.9140625
 21
77.306969096
  0
LINE
  5
366
100
AcDbEntity
  8
RUNDUNGEN
100
AcDbLine
 62
7
  6
CONTINUOUS
 10
109.3140625
 20
77.306969096
 11
109.9140625
 21
77.306969096
  0
LINE
  5
367
100
AcDbEntity
  8
RUNDUNGEN
100
AcDbLine
 62
7
  6
CONTINUOUS
 10
134.3140625
 20
77.306969096
 11
134.9140625
 21
77.306969096
  0
LINE
  5
368
100
AcDbEntity
  8
0
100
AcDbLine
 62
7
  6
CONTINUOUS
 10
154.4140625
 20
78.306969096
 11
152.3744586928
 21
78.306969096
  0
LINE
  5
369
100
AcDbEntity
  8
0
100
AcDbLine
 62
7
  6
CONTINUOUS
 10
131.4536663072
 20
78.306969096
 11
127.3744586928
 21
78.306969096
  0
LINE
  5
36A
100
AcDbEntity
  8
0
100
AcDbLine
 62
7
  6
CONTINUOUS
 10
106.4536663072
 20
78.306969096
 11
102.3744586928
 21
78.306969096
  0
LINE
  5
36B
100
AcDbEntity
  8
0
100
AcDbLine
 62
7
  6
CONTINUOUS
 10
81.4536663072
 20
78.306969096
 11
77.3744586928
 21
78.306969096
  0
LINE
  5
36C
100
AcDbEntity
  8
0
100
AcDbLine
 62
7
  6
CONTINUOUS
 10
56.4536663072
 20
78.306969096
 11
54.4140625
 21
78.306969096
  0
LINE
  5
36D
100
AcDbEntity
  8
RUNDUNGEN
100
AcDbLine
 62
7
  6
CONTINUOUS
 10
56.4536663072
 20
78.306969096
 11
54.4140625
 21
78.306969096
  0
LINE
  5
36E
100
AcDbEntity
  8
RUNDUNGEN
100
AcDbLine
 62
7
  6
CONTINUOUS
 10
77.3744586928
 20
78.306969096
 11
81.4536663072
 21
78.306969096
  0
LINE
  5
36F
100
AcDbEntity
  8
RUNDUNGEN
100
AcDbLine
 62
7
  6
CONTINUOUS
 10
102.3744586928
 20
78.306969096
 11
106.4536663072
 21
78.306969096
  0
LINE
  5
370
100
AcDbEntity
  8
RUNDUNGEN
100
AcDbLine
 62
7
  6
CONTINUOUS
 10
127.3744586928
 20
78.306969096
 11
131.4536663072
 21
78.306969096
  0
LINE
  5
371
100
AcDbEntity
  8
RUNDUNGEN
100
AcDbLine
 62
7
  6
CONTINUOUS
 10
152.3744586928
 20
78.306969096
 11
154.4140625
 21
78.306969096
  0
LINE
  5
372
100
AcDbEntity
  8
RUNDUNGEN
100
AcDbLine
 62
7
  6
CONTINUOUS
 10
151.9140625
 20
78.3859605946
 11
151.3140625
 21
78.3859605946
  0
LINE
  5
373
100
AcDbEntity
  8
RUNDUNGEN
100
AcDbLine
 62
7
  6
CONTINUOUS
 10
126.9140625
 20
78.3859605946
 11
126.3140625
 21
78.3859605946
  0
LINE
  5
374
100
AcDbEntity
  8
RUNDUNGEN
100
AcDbLine
 62
7
  6
CONTINUOUS
 10
101.9140625
 20
78.3859605946
 11
101.3140625
 21
78.3859605946
  0
LINE
  5
375
100
AcDbEntity
  8
RUNDUNGEN
100
AcDbLine
 62
7
  6
CONTINUOUS
 10
76.9140625
 20
78.3859605946
 11
76.3140625
 21
78.3859605946
  0
LINE
  5
376
100
AcDbEntity
  8
RUNDUNGEN
100
AcDbLine
 62
7
  6
CONTINUOUS
 10
56.9140625
 20
78.3859605946
 11
57.5140625
 21
78.3859605946
  0
LINE
  5
377
100
AcDbEntity
  8
RUNDUNGEN
100
AcDbLine
 62
7
  6
CONTINUOUS
 10
81.9140625
 20
78.3859605946
 11
82.5140625
 21
78.3859605946
  0
LINE
  5
378
100
AcDbEntity
  8
RUNDUNGEN
100
AcDbLine
 62
7
  6
CONTINUOUS
 10
106.9140625
 20
78.3859605946
 11
107.5140625
 21
78.3859605946
  0
LINE
  5
379
100
AcDbEntity
  8
RUNDUNGEN
100
AcDbLine
 62
7
  6
CONTINUOUS
 10
131.9140625
 20
78.3859605946
 11
132.5140625
 21
78.3859605946
  0
LINE
  5
37A
100
AcDbEntity
  8
RUNDUNGEN
100
AcDbLine
 62
7
  6
CONTINUOUS
 10
148.4345070042
 20
65.321091198
 11
147.8549515086
 21
65.4763826256
  0
LINE
  5
37B
100
AcDbEntity
  8
RUNDUNGEN
100
AcDbLine
 62
7
  6
CONTINUOUS
 10
101.8936179958
 20
78.2306691675
 11
101.3140625
 21
78.3859605946
  0
LINE
  5
37C
100
AcDbEntity
  8
RUNDUNGEN
100
AcDbLine
 62
7
  6
CONTINUOUS
 10
110.3936179958
 20
65.321091198
 11
106.9345070042
 21
78.2306691675
  0
LINE
  5
37D
100
AcDbEntity
  8
RUNDUNGEN
100
AcDbLine
 62
7
  6
CONTINUOUS
 10
110.9731734915
 20
65.4763826251
 11
107.5140625
 21
78.3859605946
  0
LINE
  5
37E
100
AcDbEntity
  8
RUNDUNGEN
100
AcDbLine
 62
7
  6
CONTINUOUS
 10
110.3936179957
 20
65.3210911983
 11
110.4140625
 21
65.1657997713
  0
LINE
  5
37F
100
AcDbEntity
  8
RUNDUNGEN
100
AcDbLine
 62
7
  6
CONTINUOUS
 10
112.1140625
 20
64.606969096
 11
112.1140625
 21
60.206969096
  0
LINE
  5
380
100
AcDbEntity
  8
RUNDUNGEN
100
AcDbLine
 62
7
  6
CONTINUOUS
 10
115.3140625
 20
64.606969096
 11
115.3140625
 21
60.206969096
  0
LINE
  5
381
100
AcDbEntity
  8
RUNDUNGEN
100
AcDbLine
 62
7
  6
CONTINUOUS
 10
151.9140625
 20
80.5122359038
 11
151.3140625
 21
80.5122359038
  0
LINE
  5
382
100
AcDbEntity
  8
RUNDUNGEN
100
AcDbLine
 62
7
  6
CONTINUOUS
 10
126.9140625
 20
80.5122359038
 11
126.3140625
 21
80.5122359038
  0
LINE
  5
383
100
AcDbEntity
  8
RUNDUNGEN
100
AcDbLine
 62
7
  6
CONTINUOUS
 10
101.9140625
 20
80.5122359038
 11
101.3140625
 21
80.5122359038
  0
LINE
  5
384
100
AcDbEntity
  8
RUNDUNGEN
100
AcDbLine
 62
7
  6
CONTINUOUS
 10
76.9140625
 20
80.5122359038
 11
76.3140625
 21
80.5122359038
  0
LINE
  5
385
100
AcDbEntity
  8
RUNDUNGEN
100
AcDbLine
 62
7
  6
CONTINUOUS
 10
56.9140625
 20
80.5122359038
 11
57.5140625
 21
80.5122359038
  0
LINE
  5
386
100
AcDbEntity
  8
RUNDUNGEN
100
AcDbLine
 62
7
  6
CONTINUOUS
 10
81.9140625
 20
80.5122359038
 11
82.5140625
 21
80.5122359038
  0
LINE
  5
387
100
AcDbEntity
  8
RUNDUNGEN
100
AcDbLine
 62
7
  6
CONTINUOUS
 10
106.9140625
 20
80.5122359038
 11
107.5140625
 21
80.5122359038
  0
LINE
  5
388
100
AcDbEntity
  8
RUNDUNGEN
100
AcDbLine
 62
7
  6
CONTINUOUS
 10
131.9140625
 20
80.5122359038
 11
132.5140625
 21
80.5122359038
  0
LINE
  5
389
100
AcDbEntity
  8
RUNDUNGEN
100
AcDbLine
 62
7
  6
CONTINUOUS
 10
99.5381854517
 20
84.2674501726
 11
98.9743698792
 21
84.4726622586
  0
LINE
  5
38A
100
AcDbEntity
  8
RUNDUNGEN
100
AcDbLine
 62
7
  6
CONTINUOUS
 10
99.5525691635
 20
84.306969096
 11
98.988753591
 21
84.512181182
  0
LINE
  5
38B
100
AcDbEntity
  8
RUNDUNGEN
100
AcDbLine
 62
7
  6
CONTINUOUS
 10
109.2899395483
 20
84.2674501726
 11
109.2756721988
 21
84.3066493932
  0
LINE
  5
38C
100
AcDbEntity
  8
RUNDUNGEN
100
AcDbLine
 62
7
  6
CONTINUOUS
 10
109.8537551208
 20
84.4726622586
 11
107.8739321439
 21
89.912181182
  0
LINE
  5
38D
100
AcDbEntity
  8
RUNDUNGEN
100
AcDbLine
 62
7
  6
CONTINUOUS
 10
118.5140625
 20
60.206969096
 11
118.5140625
 21
64.606969096
  0
LINE
  5
38E
100
AcDbEntity
  8
RUNDUNGEN
100
AcDbLine
 62
7
  6
CONTINUOUS
 10
125.9541928561
 20
89.912181182
 11
123.9743698792
 21
84.4726622586
  0
LINE
  5
38F
100
AcDbEntity
  8
RUNDUNGEN
100
AcDbLine
 62
7
  6
CONTINUOUS
 10
124.5524527836
 20
84.3066493449
 11
124.5381854517
 21
84.2674501726
  0
LINE
  5
390
100
AcDbEntity
  8
RUNDUNGEN
100
AcDbLine
 62
7
  6
CONTINUOUS
 10
81.9345070042
 20
78.2306691675
 11
82.5140625
 21
78.3859605946
  0
LINE
  5
391
100
AcDbEntity
  8
RUNDUNGEN
100
AcDbLine
 62
7
  6
CONTINUOUS
 10
149.5140625
 20
84.1306421153
 11
148.9140625
 21
84.1306421153
  0
LINE
  5
392
100
AcDbEntity
  8
RUNDUNGEN
100
AcDbLine
 62
7
  6
CONTINUOUS
 10
124.5140625
 20
84.1306421153
 11
123.9140625
 21
84.1306421153
  0
LINE
  5
393
100
AcDbEntity
  8
RUNDUNGEN
100
AcDbLine
 62
7
  6
CONTINUOUS
 10
99.5140625
 20
84.1306421153
 11
98.9140625
 21
84.1306421153
  0
LINE
  5
394
100
AcDbEntity
  8
RUNDUNGEN
100
AcDbLine
 62
7
  6
CONTINUOUS
 10
74.5140625
 20
84.1306421153
 11
73.9140625
 21
84.1306421153
  0
LINE
  5
395
100
AcDbEntity
  8
RUNDUNGEN
100
AcDbLine
 62
7
  6
CONTINUOUS
 10
59.3140625
 20
84.1306421153
 11
59.9140625
 21
84.1306421153
  0
LINE
  5
396
100
AcDbEntity
  8
RUNDUNGEN
100
AcDbLine
 62
7
  6
CONTINUOUS
 10
84.3140625
 20
84.1306421153
 11
84.9140625
 21
84.1306421153
  0
LINE
  5
397
100
AcDbEntity
  8
RUNDUNGEN
100
AcDbLine
 62
7
  6
CONTINUOUS
 10
109.3140625
 20
84.1306421153
 11
109.9140625
 21
84.1306421153
  0
LINE
  5
398
100
AcDbEntity
  8
RUNDUNGEN
100
AcDbLine
 62
7
  6
CONTINUOUS
 10
134.3140625
 20
84.1306421153
 11
134.9140625
 21
84.1306421153
  0
LINE
  5
399
100
AcDbEntity
  8
RUNDUNGEN
100
AcDbLine
 62
7
  6
CONTINUOUS
 10
149.5524527836
 20
84.3066493449
 11
152.5140625
 21
84.306969096
  0
LINE
  5
39A
100
AcDbEntity
  8
RUNDUNGEN
100
AcDbLine
 62
7
  6
CONTINUOUS
 10
124.5524527836
 20
84.3066493449
 11
127.5140625
 21
84.306969096
  0
LINE
  5
39B
100
AcDbEntity
  8
RUNDUNGEN
100
AcDbLine
 62
7
  6
CONTINUOUS
 10
99.5524527836
 20
84.3066493449
 11
102.5140625
 21
84.306969096
  0
LINE
  5
39C
100
AcDbEntity
  8
RUNDUNGEN
100
AcDbLine
 62
7
  6
CONTINUOUS
 10
74.5524527836
 20
84.3066493449
 11
77.5140625
 21
84.306969096
  0
LINE
  5
39D
100
AcDbEntity
  8
RUNDUNGEN
100
AcDbLine
 62
7
  6
CONTINUOUS
 10
56.3140625
 20
84.306969096
 11
59.2756721988
 21
84.3066493932
  0
LINE
  5
39E
100
AcDbEntity
  8
RUNDUNGEN
100
AcDbLine
 62
7
  6
CONTINUOUS
 10
81.3140625
 20
84.306969096
 11
84.2756721988
 21
84.3066493932
  0
LINE
  5
39F
100
AcDbEntity
  8
RUNDUNGEN
100
AcDbLine
 62
7
  6
CONTINUOUS
 10
106.3140625
 20
84.306969096
 11
109.2756721988
 21
84.3066493932
  0
LINE
  5
3A0
100
AcDbEntity
  8
RUNDUNGEN
100
AcDbLine
 62
7
  6
CONTINUOUS
 10
131.3140625
 20
84.306969096
 11
134.2756721988
 21
84.3066493932
  0
LINE
  5
3A1
100
AcDbEntity
  8
RUNDUNGEN
100
AcDbLine
 62
7
  6
CONTINUOUS
 10
126.8936179958
 20
78.2306691675
 11
126.3140625
 21
78.3859605946
  0
LINE
  5
3A2
100
AcDbEntity
  8
RUNDUNGEN
100
AcDbLine
 62
7
  6
CONTINUOUS
 10
121.7140625
 20
60.206969096
 11
121.7140625
 21
64.606969096
  0
LINE
  5
3A3
100
AcDbEntity
  8
RUNDUNGEN
100
AcDbLine
 62
7
  6
CONTINUOUS
 10
112.7102626322
 20
54.849341975
 11
113.0983056943
 21
55.306969096
  0
LINE
  5
3A4
100
AcDbEntity
  8
RUNDUNGEN
100
AcDbLine
 62
7
  6
CONTINUOUS
 10
122.8140625
 20
65.165799771
 11
122.8140625
 21
59.806969096
  0
LINE
  5
3A5
100
AcDbEntity
  8
RUNDUNGEN
100
AcDbLine
 62
7
  6
CONTINUOUS
 10
123.4140625
 20
65.165799771
 11
123.4140625
 21
59.806969096
  0
LINE
  5
3A6
100
AcDbEntity
  8
RUNDUNGEN
100
AcDbLine
 62
7
  6
CONTINUOUS
 10
123.9140625
 20
84.1306421153
 11
123.9140625
 21
77.306969096
  0
LINE
  5
3A7
100
AcDbEntity
  8
RUNDUNGEN
100
AcDbLine
 62
7
  6
CONTINUOUS
 10
124.5140625
 20
84.1306421153
 11
124.5140625
 21
77.306969096
  0
LINE
  5
3A8
100
AcDbEntity
  8
RUNDUNGEN
100
AcDbLine
 62
7
  6
CONTINUOUS
 10
126.8936179958
 20
78.2306691675
 11
126.9140625
 21
78.3859605946
  0
LINE
  5
3A9
100
AcDbEntity
  8
RUNDUNGEN
100
AcDbLine
 62
7
  6
CONTINUOUS
 10
126.3140625
 20
78.3859605946
 11
122.8549515085
 21
65.4763826251
  0
LINE
  5
3AA
100
AcDbEntity
  8
RUNDUNGEN
100
AcDbLine
 62
7
  6
CONTINUOUS
 10
126.8936179958
 20
78.2306691675
 11
123.4345070042
 21
65.321091198
  0
LINE
  5
3AB
100
AcDbEntity
  8
RUNDUNGEN
100
AcDbLine
 62
7
  6
CONTINUOUS
 10
56.9345070042
 20
78.2306691675
 11
57.5140625
 21
78.3859605946
  0
LINE
  5
3AC
100
AcDbEntity
  8
0
100
AcDbLine
 62
7
  6
CONTINUOUS
 10
154.4140625
 20
90.306969096
 11
151.5180084285
 21
90.306969096
  0
LINE
  5
3AD
100
AcDbEntity
  8
RUNDUNGEN
100
AcDbLine
 62
7
  6
CONTINUOUS
 10
132.3101165715
 20
90.306969096
 11
126.5180084285
 21
90.306969096
  0
LINE
  5
3AE
100
AcDbEntity
  8
0
100
AcDbLine
 62
7
  6
CONTINUOUS
 10
132.3101165715
 20
90.306969096
 11
126.5180084285
 21
90.306969096
  0
LINE
  5
3AF
100
AcDbEntity
  8
0
100
AcDbLine
 62
7
  6
CONTINUOUS
 10
107.3101165715
 20
90.306969096
 11
101.5180084285
 21
90.306969096
  0
LINE
  5
3B0
100
AcDbEntity
  8
RUNDUNGEN
100
AcDbLine
 62
7
  6
CONTINUOUS
 10
107.3101165715
 20
90.306969096
 11
101.5180084285
 21
90.306969096
  0
LINE
  5
3B1
100
AcDbEntity
  8
0
100
AcDbLine
 62
7
  6
CONTINUOUS
 10
82.3101165715
 20
90.306969096
 11
76.5180084285
 21
90.306969096
  0
LINE
  5
3B2
100
AcDbEntity
  8
RUNDUNGEN
100
AcDbLine
 62
7
  6
CONTINUOUS
 10
82.3101165715
 20
90.306969096
 11
76.5180084285
 21
90.306969096
  0
LINE
  5
3B3
100
AcDbEntity
  8
0
100
AcDbLine
 62
7
  6
CONTINUOUS
 10
57.3101165715
 20
90.306969096
 11
54.4140625
 21
90.306969096
  0
LINE
  5
3B4
100
AcDbEntity
  8
RUNDUNGEN
100
AcDbLine
 62
7
  6
CONTINUOUS
 10
57.3101165715
 20
90.306969096
 11
54.4140625
 21
90.306969096
  0
LINE
  5
3B5
100
AcDbEntity
  8
RUNDUNGEN
100
AcDbLine
 62
7
  6
CONTINUOUS
 10
151.5180084285
 20
90.306969096
 11
154.4140625
 21
90.306969096
  0
LINE
  5
3B6
100
AcDbEntity
  8
RUNDUNGEN
100
AcDbLine
 62
7
  6
CONTINUOUS
 10
151.8936179958
 20
78.2306691675
 11
151.3140625
 21
78.3859605946
  0
LINE
  5
3B7
100
AcDbEntity
  8
RUNDUNGEN
100
AcDbLine
 62
7
  6
CONTINUOUS
 10
124.5381854517
 20
84.2674501726
 11
123.9743698792
 21
84.4726622586
  0
LINE
  5
3B8
100
AcDbEntity
  8
RUNDUNGEN
100
AcDbLine
 62
7
  6
CONTINUOUS
 10
124.5525691635
 20
84.306969096
 11
123.988753591
 21
84.512181182
  0
LINE
  5
3B9
100
AcDbEntity
  8
RUNDUNGEN
100
AcDbLine
 62
7
  6
CONTINUOUS
 10
146.1178623679
 20
54.849341975
 11
145.7298193061
 21
55.3069690966
  0
LINE
  5
3BA
100
AcDbEntity
  8
RUNDUNGEN
100
AcDbLine
 62
7
  6
CONTINUOUS
 10
126.3140625
 20
80.5122359038
 11
126.3140625
 21
78.3859605946
  0
LINE
  5
3BB
100
AcDbEntity
  8
RUNDUNGEN
100
AcDbLine
 62
7
  6
CONTINUOUS
 10
126.9140625
 20
80.5122359038
 11
126.9140625
 21
78.3859605946
  0
LINE
  5
3BC
100
AcDbEntity
  8
RUNDUNGEN
100
AcDbLine
 62
7
  6
CONTINUOUS
 10
127.5140625
 20
84.306969096
 11
127.5140625
 21
78.9242340947
  0
LINE
  5
3BD
100
AcDbEntity
  8
RUNDUNGEN
100
AcDbLine
 62
7
  6
CONTINUOUS
 10
131.3140625
 20
78.9242340947
 11
131.3140625
 21
84.306969096
  0
LINE
  5
3BE
100
AcDbEntity
  8
RUNDUNGEN
100
AcDbLine
 62
7
  6
CONTINUOUS
 10
131.9140625
 20
78.3859605946
 11
131.9140625
 21
80.5122360998
  0
LINE
  5
3BF
100
AcDbEntity
  8
RUNDUNGEN
100
AcDbLine
 62
7
  6
CONTINUOUS
 10
132.5140625
 20
78.3859605946
 11
132.5140625
 21
80.5122359038
  0
LINE
  5
3C0
100
AcDbEntity
  8
RUNDUNGEN
100
AcDbLine
 62
7
  6
CONTINUOUS
 10
149.5381854517
 20
84.2674501726
 11
148.9743698792
 21
84.4726622586
  0
LINE
  5
3C1
100
AcDbEntity
  8
RUNDUNGEN
100
AcDbLine
 62
7
  6
CONTINUOUS
 10
149.5525691635
 20
84.306969096
 11
148.988753591
 21
84.512181182
  0
LINE
  5
3C2
100
AcDbEntity
  8
RUNDUNGEN
100
AcDbLine
 62
7
  6
CONTINUOUS
 10
135.3936179958
 20
65.321091198
 11
131.9345070042
 21
78.2306691675
  0
LINE
  5
3C3
100
AcDbEntity
  8
RUNDUNGEN
100
AcDbLine
 62
7
  6
CONTINUOUS
 10
135.9731734915
 20
65.4763826251
 11
132.5140625
 21
78.3859605946
  0
LINE
  5
3C4
100
AcDbEntity
  8
RUNDUNGEN
100
AcDbLine
 62
7
  6
CONTINUOUS
 10
131.9140625
 20
78.3859605946
 11
131.9345070042
 21
78.2306691675
  0
LINE
  5
3C5
100
AcDbEntity
  8
RUNDUNGEN
100
AcDbLine
 62
7
  6
CONTINUOUS
 10
134.3140625
 20
77.306969096
 11
134.3140625
 21
84.1306421153
  0
LINE
  5
3C6
100
AcDbEntity
  8
RUNDUNGEN
100
AcDbLine
 62
7
  6
CONTINUOUS
 10
134.9140625
 20
77.306969096
 11
134.9140625
 21
84.1306421153
  0
LINE
  5
3C7
100
AcDbEntity
  8
RUNDUNGEN
100
AcDbLine
 62
7
  6
CONTINUOUS
 10
135.4140625
 20
59.806969096
 11
135.4140625
 21
65.165799771
  0
LINE
  5
3C8
100
AcDbEntity
  8
RUNDUNGEN
100
AcDbLine
 62
7
  6
CONTINUOUS
 10
136.0140625
 20
59.806969096
 11
136.0140625
 21
65.165799771
  0
LINE
  5
3C9
100
AcDbEntity
  8
RUNDUNGEN
100
AcDbLine
 62
7
  6
CONTINUOUS
 10
134.2899395483
 20
84.2674501726
 11
134.2756721988
 21
84.3066493932
  0
LINE
  5
3CA
100
AcDbEntity
  8
RUNDUNGEN
100
AcDbLine
 62
7
  6
CONTINUOUS
 10
135.3936179957
 20
65.3210911983
 11
135.4140625
 21
65.1657997713
  0
LINE
  5
3CB
100
AcDbEntity
  8
RUNDUNGEN
100
AcDbLine
 62
7
  6
CONTINUOUS
 10
137.1140625
 20
64.606969096
 11
137.1140625
 21
60.2069690989
  0
LINE
  5
3CC
100
AcDbEntity
  8
RUNDUNGEN
100
AcDbLine
 62
7
  6
CONTINUOUS
 10
140.3140625
 20
64.606969096
 11
140.3140625
 21
60.206969096
  0
LINE
  5
3CD
100
AcDbEntity
  8
RUNDUNGEN
100
AcDbLine
 62
7
  6
CONTINUOUS
 10
134.8537551208
 20
84.4726622586
 11
132.8739321439
 21
89.912181182
  0
LINE
  5
3CE
100
AcDbEntity
  8
RUNDUNGEN
100
AcDbLine
 62
7
  6
CONTINUOUS
 10
143.5140625
 20
60.206969096
 11
143.5140625
 21
64.606969096
  0
LINE
  5
3CF
100
AcDbEntity
  8
RUNDUNGEN
100
AcDbLine
 62
7
  6
CONTINUOUS
 10
150.9541928561
 20
89.912181182
 11
148.9743698792
 21
84.4726622586
  0
LINE
  5
3D0
100
AcDbEntity
  8
RUNDUNGEN
100
AcDbLine
 62
7
  6
CONTINUOUS
 10
149.5524527836
 20
84.3066493449
 11
149.5381854517
 21
84.2674501726
  0
LINE
  5
3D1
100
AcDbEntity
  8
RUNDUNGEN
100
AcDbLine
 62
7
  6
CONTINUOUS
 10
137.7102626322
 20
54.849341975
 11
138.0983056943
 21
55.306969096
  0
LINE
  5
3D2
100
AcDbEntity
  8
RUNDUNGEN
100
AcDbLine
 62
7
  6
CONTINUOUS
 10
146.7140625
 20
60.206969096
 11
146.7140625
 21
64.606969096
  0
LINE
  5
3D3
100
AcDbEntity
  8
RUNDUNGEN
100
AcDbLine
 62
7
  6
CONTINUOUS
 10
147.8140625
 20
65.165799771
 11
147.8140625
 21
59.806969096
  0
LINE
  5
3D4
100
AcDbEntity
  8
RUNDUNGEN
100
AcDbLine
 62
7
  6
CONTINUOUS
 10
148.4140625
 20
65.165799771
 11
148.4140625
 21
59.806969096
  0
LINE
  5
3D5
100
AcDbEntity
  8
RUNDUNGEN
100
AcDbLine
 62
7
  6
CONTINUOUS
 10
148.9140625
 20
84.1306421153
 11
148.9140625
 21
77.306969096
  0
LINE
  5
3D6
100
AcDbEntity
  8
RUNDUNGEN
100
AcDbLine
 62
7
  6
CONTINUOUS
 10
149.5140625
 20
84.1306421153
 11
149.5140625
 21
77.306969096
  0
LINE
  5
3D7
100
AcDbEntity
  8
RUNDUNGEN
100
AcDbLine
 62
7
  6
CONTINUOUS
 10
151.8936179958
 20
78.2306691675
 11
151.9140625
 21
78.3859605946
  0
LINE
  5
3D8
100
AcDbEntity
  8
RUNDUNGEN
100
AcDbLine
 62
7
  6
CONTINUOUS
 10
151.3140625
 20
78.3859605946
 11
147.8549515085
 21
65.4763826251
  0
LINE
  5
3D9
100
AcDbEntity
  8
RUNDUNGEN
100
AcDbLine
 62
7
  6
CONTINUOUS
 10
151.8936179958
 20
78.2306691675
 11
148.4345070042
 21
65.321091198
  0
LINE
  5
3DA
100
AcDbEntity
  8
RUNDUNGEN
100
AcDbLine
 62
7
  6
CONTINUOUS
 10
151.3140625
 20
80.5122359038
 11
151.3140625
 21
78.3859605946
  0
LINE
  5
3DB
100
AcDbEntity
  8
RUNDUNGEN
100
AcDbLine
 62
7
  6
CONTINUOUS
 10
151.9140625
 20
80.5122360611
 11
151.9140625
 21
78.3859605946
  0
LINE
  5
3DC
100
AcDbEntity
  8
RUNDUNGEN
100
AcDbLine
 62
7
  6
CONTINUOUS
 10
152.5140625
 20
84.306969096
 11
152.5140625
 21
78.9242340947
  0
LINE
  5
3DD
100
AcDbEntity
  8
0
100
AcDbLine
 62
7
  6
CONTINUOUS
 10
154.4140625
 20
78.306969096
 11
154.4140625
 21
90.306969096
  0
ARC
  5
3DE
100
AcDbEntity
  8
RUNDUNGEN
100
AcDbCircle
 62
7
  6
CONTINUOUS
 10
57.5556943907
 20
148.8408702728
 40
0.6211874347
100
AcDbArc
 50
180.0225766615
 51
188.7105993577
  0
ARC
  5
3DF
100
AcDbEntity
  8
RUNDUNGEN
100
AcDbCircle
 62
7
  6
CONTINUOUS
 10
101.2724306094
 20
148.8408702727
 40
0.6211874346
100
AcDbArc
 50
351.2894011806
 51
359.9774233432
  0
ARC
  5
3E0
100
AcDbEntity
  8
RUNDUNGEN
100
AcDbCircle
 62
7
  6
CONTINUOUS
 10
82.5556943907
 20
148.8408702728
 40
0.6211874347
100
AcDbArc
 50
180.0225766615
 51
188.7105993578
  0
ARC
  5
3E1
100
AcDbEntity
  8
RUNDUNGEN
100
AcDbCircle
 62
7
  6
CONTINUOUS
 10
76.2724306094
 20
148.8408702727
 40
0.6211874346
100
AcDbArc
 50
351.2894011806
 51
359.9774233432
  0
ARC
  5
3E2
100
AcDbEntity
  8
RUNDUNGEN
100
AcDbCircle
 62
7
  6
CONTINUOUS
 10
97.8141966196
 20
148.8404935234
 40
0.6202634972
100
AcDbArc
 50
342.6199276944
 51
359.977403328
  0
ARC
  5
3E3
100
AcDbEntity
  8
RUNDUNGEN
100
AcDbCircle
 62
7
  6
CONTINUOUS
 10
72.8141966197
 20
148.8404935234
 40
0.6202634972
100
AcDbArc
 50
342.6199276944
 51
359.977403328
  0
ARC
  5
3E4
100
AcDbEntity
  8
RUNDUNGEN
100
AcDbCircle
 62
7
  6
CONTINUOUS
 10
61.0139283793
 20
148.8404935233
 40
0.6202634962
100
AcDbArc
 50
180.0225966479
 51
197.3800685858
  0
ARC
  5
3E5
100
AcDbEntity
  8
RUNDUNGEN
100
AcDbCircle
 62
7
  6
CONTINUOUS
 10
86.0139283793
 20
148.8404935233
 40
0.6202634962
100
AcDbArc
 50
180.0225966479
 51
197.3800685858
  0
ARC
  5
3E6
100
AcDbEntity
  8
RUNDUNGEN
100
AcDbCircle
 62
7
  6
CONTINUOUS
 10
72.8140625
 20
148.8406255019
 40
0.6
100
AcDbArc
 50
270.0
 51
360.0
  0
ARC
  5
3E7
100
AcDbEntity
  8
RUNDUNGEN
100
AcDbCircle
 62
7
  6
CONTINUOUS
 10
76.3140625
 20
148.8406255019
 40
0.6
100
AcDbArc
 50
270.0
 51
360.0
  0
ARC
  5
3E8
100
AcDbEntity
  8
RUNDUNGEN
100
AcDbCircle
 62
7
  6
CONTINUOUS
 10
57.5140625
 20
148.8406255019
 40
0.6
100
AcDbArc
 50
180.0
 51
270.0
  0
ARC
  5
3E9
100
AcDbEntity
  8
RUNDUNGEN
100
AcDbCircle
 62
7
  6
CONTINUOUS
 10
61.0140625
 20
148.8406255019
 40
0.6
100
AcDbArc
 50
180.0
 51
270.0
  0
ARC
  5
3EA
100
AcDbEntity
  8
RUNDUNGEN
100
AcDbCircle
 62
7
  6
CONTINUOUS
 10
97.8140625
 20
148.8406255019
 40
0.6
100
AcDbArc
 50
270.0
 51
360.0
  0
ARC
  5
3EB
100
AcDbEntity
  8
RUNDUNGEN
100
AcDbCircle
 62
7
  6
CONTINUOUS
 10
101.3140625
 20
148.8406255019
 40
0.6
100
AcDbArc
 50
270.0
 51
360.0
  0
ARC
  5
3EC
100
AcDbEntity
  8
RUNDUNGEN
100
AcDbCircle
 62
7
  6
CONTINUOUS
 10
82.5140625
 20
148.8406255019
 40
0.6
100
AcDbArc
 50
180.0
 51
270.0
  0
ARC
  5
3ED
100
AcDbEntity
  8
RUNDUNGEN
100
AcDbCircle
 62
7
  6
CONTINUOUS
 10
86.0140625
 20
148.8406255019
 40
0.6
100
AcDbArc
 50
180.0
 51
270.0
  0
ARC
  5
3EE
100
AcDbEntity
  8
RUNDUNGEN
100
AcDbCircle
 62
7
  6
CONTINUOUS
 10
68.5140625
 20
160.2406255019
 40
3.2
100
AcDbArc
 50
0.0
 51
90.0
  0
ARC
  5
3EF
100
AcDbEntity
  8
RUNDUNGEN
100
AcDbCircle
 62
7
  6
CONTINUOUS
 10
65.3140625
 20
160.2406255019
 40
3.2
100
AcDbArc
 50
90.0
 51
180.0
  0
ARC
  5
3F0
100
AcDbEntity
  8
RUNDUNGEN
100
AcDbCircle
 62
7
  6
CONTINUOUS
 10
93.5140625
 20
160.2406255019
 40
3.2
100
AcDbArc
 50
0.0
 51
90.0
  0
ARC
  5
3F1
100
AcDbEntity
  8
RUNDUNGEN
100
AcDbCircle
 62
7
  6
CONTINUOUS
 10
90.3140625
 20
160.2406255019
 40
3.2
100
AcDbArc
 50
90.0
 51
180.0
  0
ARC
  5
3F2
100
AcDbEntity
  8
RUNDUNGEN
100
AcDbCircle
 62
7
  6
CONTINUOUS
 10
76.2724306093
 20
159.6403807311
 40
0.6211874347
100
AcDbArc
 50
0.0225766615
 51
8.7105993577
  0
ARC
  5
3F3
100
AcDbEntity
  8
RUNDUNGEN
100
AcDbCircle
 62
7
  6
CONTINUOUS
 10
57.5556943906
 20
159.6403807311
 40
0.6211874346
100
AcDbArc
 50
171.2894011806
 51
179.9774233432
  0
ARC
  5
3F4
100
AcDbEntity
  8
RUNDUNGEN
100
AcDbCircle
 62
7
  6
CONTINUOUS
 10
101.2724306093
 20
159.6403807311
 40
0.6211874347
100
AcDbArc
 50
0.0225766615
 51
8.7105993577
  0
ARC
  5
3F5
100
AcDbEntity
  8
RUNDUNGEN
100
AcDbCircle
 62
7
  6
CONTINUOUS
 10
82.5556943906
 20
159.6403807311
 40
0.6211874346
100
AcDbArc
 50
171.2894011806
 51
179.9774233432
  0
ARC
  5
3F6
100
AcDbEntity
  8
RUNDUNGEN
100
AcDbCircle
 62
7
  6
CONTINUOUS
 10
61.0139283803
 20
159.6407574805
 40
0.6202634972
100
AcDbArc
 50
162.6199276944
 51
179.977403328
  0
ARC
  5
3F7
100
AcDbEntity
  8
RUNDUNGEN
100
AcDbCircle
 62
7
  6
CONTINUOUS
 10
86.0139283803
 20
159.6407574805
 40
0.6202634972
100
AcDbArc
 50
162.6199276944
 51
179.977403328
  0
ARC
  5
3F8
100
AcDbEntity
  8
RUNDUNGEN
100
AcDbCircle
 62
7
  6
CONTINUOUS
 10
72.8141966207
 20
159.6407574806
 40
0.6202634962
100
AcDbArc
 50
0.0225966479
 51
17.3800685858
  0
ARC
  5
3F9
100
AcDbEntity
  8
RUNDUNGEN
100
AcDbCircle
 62
7
  6
CONTINUOUS
 10
97.8141966207
 20
159.6407574806
 40
0.6202634962
100
AcDbArc
 50
0.0225966479
 51
17.3800685858
  0
ARC
  5
3FA
100
AcDbEntity
  8
RUNDUNGEN
100
AcDbCircle
 62
7
  6
CONTINUOUS
 10
76.3140625
 20
159.6406255019
 40
0.6
100
AcDbArc
 50
0.0
 51
90.0
  0
ARC
  5
3FB
100
AcDbEntity
  8
RUNDUNGEN
100
AcDbCircle
 62
7
  6
CONTINUOUS
 10
72.8140625
 20
159.6406255019
 40
0.6
100
AcDbArc
 50
0.0
 51
90.0
  0
ARC
  5
3FC
100
AcDbEntity
  8
RUNDUNGEN
100
AcDbCircle
 62
7
  6
CONTINUOUS
 10
61.0140625
 20
159.6406255019
 40
0.6
100
AcDbArc
 50
90.0
 51
180.0
  0
ARC
  5
3FD
100
AcDbEntity
  8
RUNDUNGEN
100
AcDbCircle
 62
7
  6
CONTINUOUS
 10
57.5140625
 20
159.6406255019
 40
0.6
100
AcDbArc
 50
90.0
 51
180.0
  0
ARC
  5
3FE
100
AcDbEntity
  8
RUNDUNGEN
100
AcDbCircle
 62
7
  6
CONTINUOUS
 10
101.3140625
 20
159.6406255019
 40
0.6
100
AcDbArc
 50
0.0
 51
90.0
  0
ARC
  5
3FF
100
AcDbEntity
  8
RUNDUNGEN
100
AcDbCircle
 62
7
  6
CONTINUOUS
 10
97.8140625
 20
159.6406255019
 40
0.6
100
AcDbArc
 50
0.0
 51
90.0
  0
ARC
  5
400
100
AcDbEntity
  8
RUNDUNGEN
100
AcDbCircle
 62
7
  6
CONTINUOUS
 10
86.0140625
 20
159.6406255019
 40
0.6
100
AcDbArc
 50
90.0
 51
180.0
  0
ARC
  5
401
100
AcDbEntity
  8
RUNDUNGEN
100
AcDbCircle
 62
7
  6
CONTINUOUS
 10
82.5140625
 20
159.6406255019
 40
0.6
100
AcDbArc
 50
90.0
 51
180.0
  0
ARC
  5
402
100
AcDbEntity
  8
RUNDUNGEN
100
AcDbCircle
 62
7
  6
CONTINUOUS
 10
107.5556943907
 20
148.8408702728
 40
0.6211874347
100
AcDbArc
 50
180.0225766615
 51
188.7105993578
  0
ARC
  5
403
100
AcDbEntity
  8
RUNDUNGEN
100
AcDbCircle
 62
7
  6
CONTINUOUS
 10
151.2724306094
 20
148.8408702727
 40
0.6211874346
100
AcDbArc
 50
351.2894011806
 51
359.9774233432
  0
ARC
  5
404
100
AcDbEntity
  8
RUNDUNGEN
100
AcDbCircle
 62
7
  6
CONTINUOUS
 10
132.5556943907
 20
148.8408702728
 40
0.6211874347
100
AcDbArc
 50
180.0225766615
 51
188.7105993577
  0
ARC
  5
405
100
AcDbEntity
  8
RUNDUNGEN
100
AcDbCircle
 62
7
  6
CONTINUOUS
 10
122.8141966197
 20
148.8404935234
 40
0.6202634972
100
AcDbArc
 50
342.6199276944
 51
359.977403328
  0
ARC
  5
406
100
AcDbEntity
  8
RUNDUNGEN
100
AcDbCircle
 62
7
  6
CONTINUOUS
 10
147.8141966197
 20
148.8404935234
 40
0.6202634972
100
AcDbArc
 50
342.6199276944
 51
359.977403328
  0
ARC
  5
407
100
AcDbEntity
  8
RUNDUNGEN
100
AcDbCircle
 62
7
  6
CONTINUOUS
 10
111.0139283793
 20
148.8404935233
 40
0.6202634962
100
AcDbArc
 50
180.0225966479
 51
197.3800685858
  0
ARC
  5
408
100
AcDbEntity
  8
RUNDUNGEN
100
AcDbCircle
 62
7
  6
CONTINUOUS
 10
136.0139283793
 20
148.8404935233
 40
0.6202634962
100
AcDbArc
 50
180.0225966479
 51
197.3800685858
  0
ARC
  5
409
100
AcDbEntity
  8
RUNDUNGEN
100
AcDbCircle
 62
7
  6
CONTINUOUS
 10
126.2733080758
 20
148.840493489
 40
0.6202630737
100
AcDbArc
 50
342.6235276934
 51
359.9774233433
  0
ARC
  5
40A
100
AcDbEntity
  8
RUNDUNGEN
100
AcDbCircle
 62
7
  6
CONTINUOUS
 10
122.8140625
 20
148.8406255019
 40
0.6
100
AcDbArc
 50
270.0
 51
360.0
  0
ARC
  5
40B
100
AcDbEntity
  8
RUNDUNGEN
100
AcDbCircle
 62
7
  6
CONTINUOUS
 10
126.3140625
 20
148.8406255019
 40
0.6
100
AcDbArc
 50
270.0
 51
360.0
  0
ARC
  5
40C
100
AcDbEntity
  8
RUNDUNGEN
100
AcDbCircle
 62
7
  6
CONTINUOUS
 10
107.5140625
 20
148.8406255019
 40
0.6
100
AcDbArc
 50
180.0
 51
270.0
  0
ARC
  5
40D
100
AcDbEntity
  8
RUNDUNGEN
100
AcDbCircle
 62
7
  6
CONTINUOUS
 10
111.0140625
 20
148.8406255019
 40
0.6
100
AcDbArc
 50
180.0
 51
270.0
  0
ARC
  5
40E
100
AcDbEntity
  8
RUNDUNGEN
100
AcDbCircle
 62
7
  6
CONTINUOUS
 10
147.8140625
 20
148.8406255019
 40
0.6
100
AcDbArc
 50
270.0
 51
360.0
  0
ARC
  5
40F
100
AcDbEntity
  8
RUNDUNGEN
100
AcDbCircle
 62
7
  6
CONTINUOUS
 10
151.3140625
 20
148.8406255019
 40
0.6
100
AcDbArc
 50
270.0
 51
360.0
  0
ARC
  5
410
100
AcDbEntity
  8
RUNDUNGEN
100
AcDbCircle
 62
7
  6
CONTINUOUS
 10
132.5140625
 20
148.8406255019
 40
0.6
100
AcDbArc
 50
180.0
 51
270.0
  0
ARC
  5
411
100
AcDbEntity
  8
RUNDUNGEN
100
AcDbCircle
 62
7
  6
CONTINUOUS
 10
136.0140625
 20
148.8406255019
 40
0.6
100
AcDbArc
 50
180.0
 51
270.0
  0
ARC
  5
412
100
AcDbEntity
  8
RUNDUNGEN
100
AcDbCircle
 62
7
  6
CONTINUOUS
 10
118.5140625
 20
160.2406255019
 40
3.2
100
AcDbArc
 50
0.0
 51
90.0
  0
ARC
  5
413
100
AcDbEntity
  8
RUNDUNGEN
100
AcDbCircle
 62
7
  6
CONTINUOUS
 10
115.3140625
 20
160.2406255019
 40
3.2
100
AcDbArc
 50
90.0
 51
180.0
  0
ARC
  5
414
100
AcDbEntity
  8
RUNDUNGEN
100
AcDbCircle
 62
7
  6
CONTINUOUS
 10
143.5140625
 20
160.2406255019
 40
3.2
100
AcDbArc
 50
0.0
 51
90.0
  0
ARC
  5
415
100
AcDbEntity
  8
RUNDUNGEN
100
AcDbCircle
 62
7
  6
CONTINUOUS
 10
140.3140625
 20
160.2406255019
 40
3.2
100
AcDbArc
 50
90.0
 51
180.0
  0
ARC
  5
416
100
AcDbEntity
  8
RUNDUNGEN
100
AcDbCircle
 62
7
  6
CONTINUOUS
 10
126.2724306093
 20
159.6403807311
 40
0.6211874347
100
AcDbArc
 50
0.0225766615
 51
8.7105993577
  0
ARC
  5
417
100
AcDbEntity
  8
RUNDUNGEN
100
AcDbCircle
 62
7
  6
CONTINUOUS
 10
107.5556943906
 20
159.6403807311
 40
0.6211874346
100
AcDbArc
 50
171.2894011806
 51
179.9774233432
  0
ARC
  5
418
100
AcDbEntity
  8
RUNDUNGEN
100
AcDbCircle
 62
7
  6
CONTINUOUS
 10
151.2724306093
 20
159.6403807311
 40
0.6211874347
100
AcDbArc
 50
0.0225766615
 51
8.7105993578
  0
ARC
  5
419
100
AcDbEntity
  8
RUNDUNGEN
100
AcDbCircle
 62
7
  6
CONTINUOUS
 10
132.5556943906
 20
159.6403807311
 40
0.6211874346
100
AcDbArc
 50
171.2894011805
 51
179.9774233433
  0
ARC
  5
41A
100
AcDbEntity
  8
RUNDUNGEN
100
AcDbCircle
 62
7
  6
CONTINUOUS
 10
111.0139283803
 20
159.6407574805
 40
0.6202634972
100
AcDbArc
 50
162.6199276944
 51
179.977403328
  0
ARC
  5
41B
100
AcDbEntity
  8
RUNDUNGEN
100
AcDbCircle
 62
7
  6
CONTINUOUS
 10
136.0139283803
 20
159.6407574805
 40
0.6202634972
100
AcDbArc
 50
162.6199276944
 51
179.977403328
  0
ARC
  5
41C
100
AcDbEntity
  8
RUNDUNGEN
100
AcDbCircle
 62
7
  6
CONTINUOUS
 10
122.8141966207
 20
159.6407574806
 40
0.6202634962
100
AcDbArc
 50
0.0225966479
 51
17.3800685858
  0
ARC
  5
41D
100
AcDbEntity
  8
RUNDUNGEN
100
AcDbCircle
 62
7
  6
CONTINUOUS
 10
147.8141966207
 20
159.6407574806
 40
0.6202634962
100
AcDbArc
 50
0.022596648
 51
17.3800685858
  0
ARC
  5
41E
100
AcDbEntity
  8
RUNDUNGEN
100
AcDbCircle
 62
7
  6
CONTINUOUS
 10
126.3140625
 20
159.6406255019
 40
0.6
100
AcDbArc
 50
0.0
 51
90.0
  0
ARC
  5
41F
100
AcDbEntity
  8
RUNDUNGEN
100
AcDbCircle
 62
7
  6
CONTINUOUS
 10
122.8140625
 20
159.6406255019
 40
0.6
100
AcDbArc
 50
0.0
 51
90.0
  0
ARC
  5
420
100
AcDbEntity
  8
RUNDUNGEN
100
AcDbCircle
 62
7
  6
CONTINUOUS
 10
111.0140625
 20
159.6406255019
 40
0.6
100
AcDbArc
 50
90.0
 51
180.0
  0
ARC
  5
421
100
AcDbEntity
  8
RUNDUNGEN
100
AcDbCircle
 62
7
  6
CONTINUOUS
 10
107.5140625
 20
159.6406255019
 40
0.6
100
AcDbArc
 50
90.0
 51
180.0
  0
ARC
  5
422
100
AcDbEntity
  8
RUNDUNGEN
100
AcDbCircle
 62
7
  6
CONTINUOUS
 10
151.3140625
 20
159.6406255019
 40
0.6
100
AcDbArc
 50
0.0
 51
90.0
  0
ARC
  5
423
100
AcDbEntity
  8
RUNDUNGEN
100
AcDbCircle
 62
7
  6
CONTINUOUS
 10
147.8140625
 20
159.6406255019
 40
0.6
100
AcDbArc
 50
0.0
 51
90.0
  0
ARC
  5
424
100
AcDbEntity
  8
RUNDUNGEN
100
AcDbCircle
 62
7
  6
CONTINUOUS
 10
136.0140625
 20
159.6406255019
 40
0.6
100
AcDbArc
 50
90.0
 51
180.0
  0
ARC
  5
425
100
AcDbEntity
  8
RUNDUNGEN
100
AcDbCircle
 62
7
  6
CONTINUOUS
 10
132.5140625
 20
159.6406255019
 40
0.6
100
AcDbArc
 50
90.0
 51
180.0
  0
ARC
  5
426
100
AcDbEntity
  8
RUNDUNGEN
100
AcDbCircle
 62
7
  6
CONTINUOUS
 10
200.3513277208
 20
154.5255289387
 40
11.032777372
100
AcDbArc
 50
9.8603035417
 51
13.7955634856
  0
ARC
  5
427
100
AcDbEntity
  8
RUNDUNGEN
100
AcDbCircle
 62
7
  6
CONTINUOUS
 10
200.3553010759
 20
153.9548899662
 40
11.0287202173
100
AcDbArc
 50
346.203712394
 51
350.1404205787
  0
ARC
  5
428
100
AcDbEntity
  8
RUNDUNGEN
100
AcDbCircle
 62
7
  6
CONTINUOUS
 10
205.144831272
 20
154.2406255019
 40
6.6
100
AcDbArc
 50
26.2176267508
 51
54.9032001646
  0
ARC
  5
429
100
AcDbEntity
  8
RUNDUNGEN
100
AcDbCircle
 62
7
  6
CONTINUOUS
 10
205.144831272
 20
154.2406255019
 40
6.6
100
AcDbArc
 50
305.0968000167
 51
333.7823732492
  0
ARC
  5
42A
100
AcDbEntity
  8
RUNDUNGEN
100
AcDbCircle
 62
7
  6
CONTINUOUS
 10
204.9900808709
 20
154.2405338286
 40
6.5994589746
100
AcDbArc
 50
340.7651098078
 51
19.2347147146
  0
CIRCLE
  5
42B
100
AcDbEntity
  8
0
100
AcDbCircle
 62
7
  6
CONTINUOUS
 10
205.144831272
 20
154.2406255019
 40
6.0
  0
ARC
  5
42C
100
AcDbEntity
  8
RUNDUNGEN
100
AcDbCircle
 62
7
  6
CONTINUOUS
 10
230.844831272
 20
160.2406255019
 40
3.2
100
AcDbArc
 50
0.0
 51
90.0
  0
ARC
  5
42D
100
AcDbEntity
  8
RUNDUNGEN
100
AcDbCircle
 62
7
  6
CONTINUOUS
 10
223.244831272
 20
160.2406255019
 40
3.2
100
AcDbArc
 50
90.0
 51
180.0
  0
CIRCLE
  5
42E
100
AcDbEntity
  8
0
100
AcDbCircle
 62
7
  6
CONTINUOUS
 10
205.144831272
 20
154.2406255019
 40
2.7
  0
ARC
  5
42F
100
AcDbEntity
  8
0
100
AcDbCircle
 62
7
  6
CONTINUOUS
 10
230.339831272
 20
154.2406255019
 40
2.695
100
AcDbArc
 50
270.0
 51
90.0
  0
ARC
  5
430
100
AcDbEntity
  8
0
100
AcDbCircle
 62
7
  6
CONTINUOUS
 10
222.339831272
 20
154.2406255019
 40
2.695
100
AcDbArc
 50
90.0
 51
270.0
  0
ARC
  5
431
100
AcDbEntity
  8
RUNDUNGEN
100
AcDbCircle
 62
7
  6
CONTINUOUS
 10
234.144831272
 20
158.2406255019
 40
2.0
100
AcDbArc
 50
0.0
 51
89.9991575068
  0
ARC
  5
432
100
AcDbEntity
  8
RUNDUNGEN
100
AcDbCircle
 62
7
  6
CONTINUOUS
 10
234.144831272
 20
150.2406255019
 40
2.0
100
AcDbArc
 50
270.0001969589
 51
360.0
  0
ARC
  5
433
100
AcDbEntity
  8
0
100
AcDbCircle
 62
7
  6
CONTINUOUS
 10
66.9140625
 20
59.806969096
 40
6.5
100
AcDbArc
 50
353.8620254069
 51
355.1024722001
  0
ARC
  5
434
100
AcDbEntity
  8
RUNDUNGEN
100
AcDbCircle
 62
7
  6
CONTINUOUS
 10
66.9140625
 20
59.806969096
 40
6.5
100
AcDbArc
 50
180.0
 51
360.0
  0
ARC
  5
435
100
AcDbEntity
  8
0
100
AcDbCircle
 62
7
  6
CONTINUOUS
 10
66.9140625
 20
59.806969096
 40
6.5
100
AcDbArc
 50
184.8979147027
 51
186.1379745931
  0
ARC
  5
436
100
AcDbEntity
  8
RUNDUNGEN
100
AcDbCircle
 62
7
  6
CONTINUOUS
 10
66.9140625
 20
59.806969096
 40
5.9
100
AcDbArc
 50
310.2958352643
 51
360.0
  0
ARC
  5
437
100
AcDbEntity
  8
RUNDUNGEN
100
AcDbCircle
 62
7
  6
CONTINUOUS
 10
66.9140625
 20
59.806969096
 40
5.9
100
AcDbArc
 50
180.0
 51
229.7042481305
  0
ARC
  5
438
100
AcDbEntity
  8
RUNDUNGEN
100
AcDbCircle
 62
7
  6
CONTINUOUS
 10
66.9140625
 20
60.206969096
 40
4.8
100
AcDbArc
 50
180.0
 51
360.0
  0
ARC
  5
439
100
AcDbEntity
  8
RUNDUNGEN
100
AcDbCircle
 62
7
  6
CONTINUOUS
 10
66.9140625
 20
60.206969096
 40
1.6
100
AcDbArc
 50
180.0
 51
360.0
  0
ARC
  5
43A
100
AcDbEntity
  8
RUNDUNGEN
100
AcDbCircle
 62
7
  6
CONTINUOUS
 10
66.9140625
 20
64.606969096
 40
4.8
100
AcDbArc
 50
0.0
 51
180.0
  0
ARC
  5
43B
100
AcDbEntity
  8
RUNDUNGEN
100
AcDbCircle
 62
7
  6
CONTINUOUS
 10
66.9140625
 20
64.606969096
 40
1.6
100
AcDbArc
 50
0.0
 51
180.0
  0
ARC
  5
43C
100
AcDbEntity
  8
RUNDUNGEN
100
AcDbCircle
 62
7
  6
CONTINUOUS
 10
74.0140625
 20
65.165799771
 40
1.2
100
AcDbArc
 50
165.0
 51
180.0
  0
ARC
  5
43D
100
AcDbEntity
  8
RUNDUNGEN
100
AcDbCircle
 62
7
  6
CONTINUOUS
 10
59.8140625
 20
65.165799771
 40
1.2
100
AcDbArc
 50
0.0
 51
15.0
  0
ARC
  5
43E
100
AcDbEntity
  8
RUNDUNGEN
100
AcDbCircle
 62
7
  6
CONTINUOUS
 10
59.8140625
 20
65.165799771
 40
0.6
100
AcDbArc
 50
0.0
 51
15.0
  0
ARC
  5
43F
100
AcDbEntity
  8
RUNDUNGEN
100
AcDbCircle
 62
7
  6
CONTINUOUS
 10
74.0140625
 20
65.165799771
 40
0.6
100
AcDbArc
 50
165.0
 51
180.0
  0
ARC
  5
440
100
AcDbEntity
  8
0
100
AcDbCircle
 62
7
  6
CONTINUOUS
 10
91.9140625
 20
59.806969096
 40
6.5
100
AcDbArc
 50
353.8620254069
 51
355.1032690155
  0
ARC
  5
441
100
AcDbEntity
  8
RUNDUNGEN
100
AcDbCircle
 62
7
  6
CONTINUOUS
 10
91.9140625
 20
59.806969096
 40
6.5
100
AcDbArc
 50
180.0
 51
360.0
  0
ARC
  5
442
100
AcDbEntity
  8
0
100
AcDbCircle
 62
7
  6
CONTINUOUS
 10
91.9140625
 20
59.806969096
 40
6.5
100
AcDbArc
 50
184.8971203759
 51
186.1379745931
  0
ARC
  5
443
100
AcDbEntity
  8
RUNDUNGEN
100
AcDbCircle
 62
7
  6
CONTINUOUS
 10
91.9140625
 20
59.806969096
 40
5.9
100
AcDbArc
 50
310.2958352643
 51
360.0
  0
ARC
  5
444
100
AcDbEntity
  8
RUNDUNGEN
100
AcDbCircle
 62
7
  6
CONTINUOUS
 10
91.9140625
 20
59.806969096
 40
5.9
100
AcDbArc
 50
180.0
 51
229.7042481305
  0
ARC
  5
445
100
AcDbEntity
  8
RUNDUNGEN
100
AcDbCircle
 62
7
  6
CONTINUOUS
 10
91.9140625
 20
60.206969096
 40
4.8
100
AcDbArc
 50
180.0
 51
360.0
  0
ARC
  5
446
100
AcDbEntity
  8
RUNDUNGEN
100
AcDbCircle
 62
7
  6
CONTINUOUS
 10
91.9140625
 20
60.206969096
 40
1.6
100
AcDbArc
 50
180.0
 51
360.0
  0
ARC
  5
447
100
AcDbEntity
  8
RUNDUNGEN
100
AcDbCircle
 62
7
  6
CONTINUOUS
 10
91.9140625
 20
64.606969096
 40
4.8
100
AcDbArc
 50
0.0
 51
180.0
  0
ARC
  5
448
100
AcDbEntity
  8
RUNDUNGEN
100
AcDbCircle
 62
7
  6
CONTINUOUS
 10
91.9140625
 20
64.606969096
 40
1.6
100
AcDbArc
 50
0.0
 51
180.0
  0
ARC
  5
449
100
AcDbEntity
  8
RUNDUNGEN
100
AcDbCircle
 62
7
  6
CONTINUOUS
 10
99.0140625
 20
65.165799771
 40
1.2
100
AcDbArc
 50
165.0
 51
180.0
  0
ARC
  5
44A
100
AcDbEntity
  8
RUNDUNGEN
100
AcDbCircle
 62
7
  6
CONTINUOUS
 10
84.8140625
 20
65.165799771
 40
1.2
100
AcDbArc
 50
0.0
 51
15.0
  0
ARC
  5
44B
100
AcDbEntity
  8
RUNDUNGEN
100
AcDbCircle
 62
7
  6
CONTINUOUS
 10
99.0140625
 20
65.165799771
 40
0.6
100
AcDbArc
 50
165.0
 51
180.0
  0
ARC
  5
44C
100
AcDbEntity
  8
RUNDUNGEN
100
AcDbCircle
 62
7
  6
CONTINUOUS
 10
84.8140625
 20
65.165799771
 40
0.6
100
AcDbArc
 50
0.0
 51
15.0
  0
ARC
  5
44D
100
AcDbEntity
  8
RUNDUNGEN
100
AcDbCircle
 62
7
  6
CONTINUOUS
 10
66.9140625
 20
77.306969096
 40
7.6
100
AcDbArc
 50
180.0
 51
360.0
  0
ARC
  5
44E
100
AcDbEntity
  8
RUNDUNGEN
100
AcDbCircle
 62
7
  6
CONTINUOUS
 10
66.9140625
 20
77.306969096
 40
7.0
100
AcDbArc
 50
180.0
 51
360.0
  0
ARC
  5
44F
100
AcDbEntity
  8
RUNDUNGEN
100
AcDbCircle
 62
7
  6
CONTINUOUS
 10
57.3138308414
 20
78.9248835421
 40
0.9997685523
100
AcDbArc
 50
180.0372192129
 51
196.443100157
  0
ARC
  5
450
100
AcDbEntity
  8
RUNDUNGEN
100
AcDbCircle
 62
7
  6
CONTINUOUS
 10
76.5176148886
 20
78.9244026415
 40
0.9964476257
100
AcDbArc
 50
343.5293720774
 51
359.9903085527
  0
ARC
  5
451
100
AcDbEntity
  8
RUNDUNGEN
100
AcDbCircle
 62
7
  6
CONTINUOUS
 10
57.5140625
 20
78.3859605946
 40
0.6
100
AcDbArc
 50
180.0
 51
195.0
  0
ARC
  5
452
100
AcDbEntity
  8
RUNDUNGEN
100
AcDbCircle
 62
7
  6
CONTINUOUS
 10
76.3140625
 20
78.3859605946
 40
0.6
100
AcDbArc
 50
345.0
 51
360.0
  0
ARC
  5
453
100
AcDbEntity
  8
RUNDUNGEN
100
AcDbCircle
 62
7
  6
CONTINUOUS
 10
56.4536643936
 20
77.7069762377
 40
0.5999993508
100
AcDbArc
 50
27.4993937475
 51
89.9998172611
  0
ARC
  5
454
100
AcDbEntity
  8
RUNDUNGEN
100
AcDbCircle
 62
7
  6
CONTINUOUS
 10
77.3744620087
 20
77.7069814711
 40
0.599998875
100
AcDbArc
 50
90.0003166519
 51
152.501048709
  0
ARC
  5
455
100
AcDbEntity
  8
RUNDUNGEN
100
AcDbCircle
 62
7
  6
CONTINUOUS
 10
58.9140625
 20
84.1306421153
 40
1.0
100
AcDbArc
 50
0.0
 51
20.0
  0
ARC
  5
456
100
AcDbEntity
  8
RUNDUNGEN
100
AcDbCircle
 62
7
  6
CONTINUOUS
 10
74.9140625
 20
84.1306421153
 40
1.0
100
AcDbArc
 50
160.0
 51
180.0
  0
ARC
  5
457
100
AcDbEntity
  8
RUNDUNGEN
100
AcDbCircle
 62
7
  6
CONTINUOUS
 10
76.518002211
 20
89.7069520134
 40
0.6
100
AcDbArc
 50
89.9994062864
 51
159.9982640383
  0
ARC
  5
458
100
AcDbEntity
  8
RUNDUNGEN
100
AcDbCircle
 62
7
  6
CONTINUOUS
 10
57.3101235913
 20
89.7069498093
 40
0.6
100
AcDbArc
 50
20.0019599437
 51
90.0006703142
  0
ARC
  5
459
100
AcDbEntity
  8
RUNDUNGEN
100
AcDbCircle
 62
7
  6
CONTINUOUS
 10
74.9140625
 20
84.1306421153
 40
0.4
100
AcDbArc
 50
160.0
 51
180.0
  0
ARC
  5
45A
100
AcDbEntity
  8
RUNDUNGEN
100
AcDbCircle
 62
7
  6
CONTINUOUS
 10
58.9140625
 20
84.1306421153
 40
0.4
100
AcDbArc
 50
0.0
 51
20.0
  0
ARC
  5
45B
100
AcDbEntity
  8
RUNDUNGEN
100
AcDbCircle
 62
7
  6
CONTINUOUS
 10
91.9140625
 20
77.306969096
 40
7.6
100
AcDbArc
 50
180.0
 51
360.0
  0
ARC
  5
45C
100
AcDbEntity
  8
RUNDUNGEN
100
AcDbCircle
 62
7
  6
CONTINUOUS
 10
91.9140625
 20
77.306969096
 40
7.0
100
AcDbArc
 50
180.0
 51
360.0
  0
ARC
  5
45D
100
AcDbEntity
  8
RUNDUNGEN
100
AcDbCircle
 62
7
  6
CONTINUOUS
 10
82.3138308414
 20
78.9248835421
 40
0.9997685523
100
AcDbArc
 50
180.0372192129
 51
196.443100157
  0
ARC
  5
45E
100
AcDbEntity
  8
RUNDUNGEN
100
AcDbCircle
 62
7
  6
CONTINUOUS
 10
101.5176148886
 20
78.9244026415
 40
0.9964476257
100
AcDbArc
 50
343.5293720774
 51
359.9903085527
  0
ARC
  5
45F
100
AcDbEntity
  8
RUNDUNGEN
100
AcDbCircle
 62
7
  6
CONTINUOUS
 10
82.5140625
 20
78.3859605946
 40
0.6
100
AcDbArc
 50
180.0
 51
195.0
  0
ARC
  5
460
100
AcDbEntity
  8
RUNDUNGEN
100
AcDbCircle
 62
7
  6
CONTINUOUS
 10
101.3140625
 20
78.3859605946
 40
0.6
100
AcDbArc
 50
345.0
 51
360.0
  0
ARC
  5
461
100
AcDbEntity
  8
RUNDUNGEN
100
AcDbCircle
 62
7
  6
CONTINUOUS
 10
81.4536643936
 20
77.7069762377
 40
0.5999993508
100
AcDbArc
 50
27.4993937475
 51
89.9998172611
  0
ARC
  5
462
100
AcDbEntity
  8
RUNDUNGEN
100
AcDbCircle
 62
7
  6
CONTINUOUS
 10
102.3744620087
 20
77.7069814711
 40
0.599998875
100
AcDbArc
 50
90.0003166519
 51
152.501048709
  0
ARC
  5
463
100
AcDbEntity
  8
RUNDUNGEN
100
AcDbCircle
 62
7
  6
CONTINUOUS
 10
99.9140625
 20
84.1306421153
 40
1.0
100
AcDbArc
 50
160.0
 51
180.0
  0
ARC
  5
464
100
AcDbEntity
  8
RUNDUNGEN
100
AcDbCircle
 62
7
  6
CONTINUOUS
 10
83.9140625
 20
84.1306421153
 40
1.0
100
AcDbArc
 50
0.0
 51
20.0
  0
ARC
  5
465
100
AcDbEntity
  8
RUNDUNGEN
100
AcDbCircle
 62
7
  6
CONTINUOUS
 10
101.518002211
 20
89.7069520134
 40
0.6
100
AcDbArc
 50
89.9994062864
 51
159.9982640383
  0
ARC
  5
466
100
AcDbEntity
  8
RUNDUNGEN
100
AcDbCircle
 62
7
  6
CONTINUOUS
 10
82.3101235913
 20
89.7069498093
 40
0.6
100
AcDbArc
 50
20.0019599437
 51
90.0006703142
  0
ARC
  5
467
100
AcDbEntity
  8
RUNDUNGEN
100
AcDbCircle
 62
7
  6
CONTINUOUS
 10
99.9140625
 20
84.1306421153
 40
0.4
100
AcDbArc
 50
160.0
 51
180.0
  0
ARC
  5
468
100
AcDbEntity
  8
RUNDUNGEN
100
AcDbCircle
 62
7
  6
CONTINUOUS
 10
83.9140625
 20
84.1306421153
 40
0.4
100
AcDbArc
 50
0.0
 51
20.0
  0
ARC
  5
469
100
AcDbEntity
  8
RUNDUNGEN
100
AcDbCircle
 62
7
  6
CONTINUOUS
 10
116.9140625
 20
59.806969096
 40
6.5
100
AcDbArc
 50
180.0
 51
360.0
  0
ARC
  5
46A
100
AcDbEntity
  8
0
100
AcDbCircle
 62
7
  6
CONTINUOUS
 10
116.9140625
 20
59.806969096
 40
6.5
100
AcDbArc
 50
184.8963947722
 51
186.1379745931
  0
ARC
  5
46B
100
AcDbEntity
  8
RUNDUNGEN
100
AcDbCircle
 62
7
  6
CONTINUOUS
 10
116.9140625
 20
59.806969096
 40
5.9
100
AcDbArc
 50
310.2958352643
 51
360.0
  0
ARC
  5
46C
100
AcDbEntity
  8
RUNDUNGEN
100
AcDbCircle
 62
7
  6
CONTINUOUS
 10
116.9140625
 20
59.806969096
 40
5.9
100
AcDbArc
 50
180.0
 51
229.7042481305
  0
ARC
  5
46D
100
AcDbEntity
  8
RUNDUNGEN
100
AcDbCircle
 62
7
  6
CONTINUOUS
 10
116.9140625
 20
60.206969096
 40
4.8
100
AcDbArc
 50
180.0
 51
360.0
  0
ARC
  5
46E
100
AcDbEntity
  8
RUNDUNGEN
100
AcDbCircle
 62
7
  6
CONTINUOUS
 10
116.9140625
 20
60.206969096
 40
1.6
100
AcDbArc
 50
180.0
 51
360.0
  0
ARC
  5
46F
100
AcDbEntity
  8
RUNDUNGEN
100
AcDbCircle
 62
7
  6
CONTINUOUS
 10
116.9140625
 20
64.606969096
 40
4.8
100
AcDbArc
 50
0.0
 51
180.0
  0
ARC
  5
470
100
AcDbEntity
  8
RUNDUNGEN
100
AcDbCircle
 62
7
  6
CONTINUOUS
 10
116.9140625
 20
64.606969096
 40
1.6
100
AcDbArc
 50
0.0
 51
180.0
  0
ARC
  5
471
100
AcDbEntity
  8
RUNDUNGEN
100
AcDbCircle
 62
7
  6
CONTINUOUS
 10
124.0140625
 20
65.165799771
 40
1.2
100
AcDbArc
 50
165.0
 51
180.0
  0
ARC
  5
472
100
AcDbEntity
  8
RUNDUNGEN
100
AcDbCircle
 62
7
  6
CONTINUOUS
 10
109.8140625
 20
65.165799771
 40
1.2
100
AcDbArc
 50
0.0
 51
15.0
  0
ARC
  5
473
100
AcDbEntity
  8
RUNDUNGEN
100
AcDbCircle
 62
7
  6
CONTINUOUS
 10
124.0140625
 20
65.165799771
 40
0.6
100
AcDbArc
 50
165.0
 51
180.0
  0
ARC
  5
474
100
AcDbEntity
  8
RUNDUNGEN
100
AcDbCircle
 62
7
  6
CONTINUOUS
 10
109.8140625
 20
65.165799771
 40
0.6
100
AcDbArc
 50
0.0
 51
15.0
  0
ARC
  5
475
100
AcDbEntity
  8
RUNDUNGEN
100
AcDbCircle
 62
7
  6
CONTINUOUS
 10
141.9140625
 20
59.806969096
 40
6.5
100
AcDbArc
 50
179.9999999863
 51
360.0
  0
ARC
  5
476
100
AcDbEntity
  8
RUNDUNGEN
100
AcDbCircle
 62
7
  6
CONTINUOUS
 10
141.9140625
 20
59.806969096
 40
5.9
100
AcDbArc
 50
310.2958352643
 51
360.0
  0
ARC
  5
477
100
AcDbEntity
  8
RUNDUNGEN
100
AcDbCircle
 62
7
  6
CONTINUOUS
 10
141.9140625
 20
59.806969096
 40
5.9
100
AcDbArc
 50
180.0
 51
229.7042481305
  0
ARC
  5
478
100
AcDbEntity
  8
RUNDUNGEN
100
AcDbCircle
 62
7
  6
CONTINUOUS
 10
141.9140625
 20
60.206969096
 40
4.8
100
AcDbArc
 50
180.0
 51
360.0
  0
ARC
  5
479
100
AcDbEntity
  8
RUNDUNGEN
100
AcDbCircle
 62
7
  6
CONTINUOUS
 10
141.9140625
 20
60.206969096
 40
1.6
100
AcDbArc
 50
180.0
 51
360.0
  0
ARC
  5
47A
100
AcDbEntity
  8
RUNDUNGEN
100
AcDbCircle
 62
7
  6
CONTINUOUS
 10
141.9140625
 20
64.606969096
 40
4.8
100
AcDbArc
 50
0.0
 51
180.0
  0
ARC
  5
47B
100
AcDbEntity
  8
RUNDUNGEN
100
AcDbCircle
 62
7
  6
CONTINUOUS
 10
141.9140625
 20
64.606969096
 40
1.6
100
AcDbArc
 50
0.0
 51
180.0
  0
ARC
  5
47C
100
AcDbEntity
  8
RUNDUNGEN
100
AcDbCircle
 62
7
  6
CONTINUOUS
 10
149.0140625
 20
65.165799771
 40
1.2
100
AcDbArc
 50
165.0
 51
180.0
  0
ARC
  5
47D
100
AcDbEntity
  8
RUNDUNGEN
100
AcDbCircle
 62
7
  6
CONTINUOUS
 10
134.8140625
 20
65.165799771
 40
1.2
100
AcDbArc
 50
0.0
 51
15.0
  0
ARC
  5
47E
100
AcDbEntity
  8
RUNDUNGEN
100
AcDbCircle
 62
7
  6
CONTINUOUS
 10
149.0140625
 20
65.165799771
 40
0.6
100
AcDbArc
 50
165.0
 51
180.0
  0
ARC
  5
47F
100
AcDbEntity
  8
RUNDUNGEN
100
AcDbCircle
 62
7
  6
CONTINUOUS
 10
134.8140625
 20
65.165799771
 40
0.6
100
AcDbArc
 50
0.0
 51
15.0
  0
ARC
  5
480
100
AcDbEntity
  8
RUNDUNGEN
100
AcDbCircle
 62
7
  6
CONTINUOUS
 10
116.9140625
 20
77.306969096
 40
7.6
100
AcDbArc
 50
180.0
 51
360.0
  0
ARC
  5
481
100
AcDbEntity
  8
RUNDUNGEN
100
AcDbCircle
 62
7
  6
CONTINUOUS
 10
116.9140625
 20
77.306969096
 40
7.0
100
AcDbArc
 50
180.0
 51
360.0
  0
ARC
  5
482
100
AcDbEntity
  8
RUNDUNGEN
100
AcDbCircle
 62
7
  6
CONTINUOUS
 10
107.3138308414
 20
78.9248835421
 40
0.9997685523
100
AcDbArc
 50
180.0372192129
 51
196.443100157
  0
ARC
  5
483
100
AcDbEntity
  8
RUNDUNGEN
100
AcDbCircle
 62
7
  6
CONTINUOUS
 10
126.5176148886
 20
78.9244026415
 40
0.9964476257
100
AcDbArc
 50
343.5293720774
 51
359.9903085527
  0
ARC
  5
484
100
AcDbEntity
  8
RUNDUNGEN
100
AcDbCircle
 62
7
  6
CONTINUOUS
 10
107.5140625
 20
78.3859605946
 40
0.6
100
AcDbArc
 50
180.0
 51
195.0
  0
ARC
  5
485
100
AcDbEntity
  8
RUNDUNGEN
100
AcDbCircle
 62
7
  6
CONTINUOUS
 10
126.3140625
 20
78.3859605946
 40
0.6
100
AcDbArc
 50
345.0
 51
360.0
  0
ARC
  5
486
100
AcDbEntity
  8
RUNDUNGEN
100
AcDbCircle
 62
7
  6
CONTINUOUS
 10
106.4536643936
 20
77.7069762377
 40
0.5999993508
100
AcDbArc
 50
27.4993937475
 51
89.9998172611
  0
ARC
  5
487
100
AcDbEntity
  8
RUNDUNGEN
100
AcDbCircle
 62
7
  6
CONTINUOUS
 10
127.3744620087
 20
77.7069814711
 40
0.599998875
100
AcDbArc
 50
90.0003166519
 51
152.501048709
  0
ARC
  5
488
100
AcDbEntity
  8
RUNDUNGEN
100
AcDbCircle
 62
7
  6
CONTINUOUS
 10
108.9140625
 20
84.1306421153
 40
1.0
100
AcDbArc
 50
0.0
 51
20.0
  0
ARC
  5
489
100
AcDbEntity
  8
RUNDUNGEN
100
AcDbCircle
 62
7
  6
CONTINUOUS
 10
124.9140625
 20
84.1306421153
 40
1.0
100
AcDbArc
 50
160.0
 51
180.0
  0
ARC
  5
48A
100
AcDbEntity
  8
RUNDUNGEN
100
AcDbCircle
 62
7
  6
CONTINUOUS
 10
126.518002211
 20
89.7069520134
 40
0.6
100
AcDbArc
 50
89.9994062864
 51
159.9982640383
  0
ARC
  5
48B
100
AcDbEntity
  8
RUNDUNGEN
100
AcDbCircle
 62
7
  6
CONTINUOUS
 10
107.3101235913
 20
89.7069498093
 40
0.6
100
AcDbArc
 50
20.0019599437
 51
90.0006703142
  0
ARC
  5
48C
100
AcDbEntity
  8
RUNDUNGEN
100
AcDbCircle
 62
7
  6
CONTINUOUS
 10
124.9140625
 20
84.1306421153
 40
0.4
100
AcDbArc
 50
160.0
 51
180.0
  0
ARC
  5
48D
100
AcDbEntity
  8
RUNDUNGEN
100
AcDbCircle
 62
7
  6
CONTINUOUS
 10
108.9140625
 20
84.1306421153
 40
0.4
100
AcDbArc
 50
0.0
 51
20.0
  0
ARC
  5
48E
100
AcDbEntity
  8
RUNDUNGEN
100
AcDbCircle
 62
7
  6
CONTINUOUS
 10
141.9140625
 20
77.306969096
 40
7.6
100
AcDbArc
 50
180.0
 51
360.0
  0
ARC
  5
48F
100
AcDbEntity
  8
RUNDUNGEN
100
AcDbCircle
 62
7
  6
CONTINUOUS
 10
141.9140625
 20
77.306969096
 40
7.0
100
AcDbArc
 50
180.0
 51
360.0
  0
ARC
  5
490
100
AcDbEntity
  8
RUNDUNGEN
100
AcDbCircle
 62
7
  6
CONTINUOUS
 10
132.3138329063
 20
78.9248838411
 40
0.9997706175
100
AcDbArc
 50
180.0372362738
 51
196.4430830962
  0
ARC
  5
491
100
AcDbEntity
  8
RUNDUNGEN
100
AcDbCircle
 62
7
  6
CONTINUOUS
 10
151.5176145918
 20
78.9244026845
 40
0.9964479225
100
AcDbArc
 50
343.5293745458
 51
359.9903060843
  0
ARC
  5
492
100
AcDbEntity
  8
RUNDUNGEN
100
AcDbCircle
 62
7
  6
CONTINUOUS
 10
132.5140625
 20
78.3859605946
 40
0.6
100
AcDbArc
 50
180.0
 51
195.0
  0
ARC
  5
493
100
AcDbEntity
  8
RUNDUNGEN
100
AcDbCircle
 62
7
  6
CONTINUOUS
 10
151.3140625
 20
78.3859605946
 40
0.6
100
AcDbArc
 50
345.0
 51
360.0
  0
ARC
  5
494
100
AcDbEntity
  8
RUNDUNGEN
100
AcDbCircle
 62
7
  6
CONTINUOUS
 10
131.4536643985
 20
77.7069762195
 40
0.5999993524
100
AcDbArc
 50
27.4993952865
 51
89.9998177263
  0
ARC
  5
495
100
AcDbEntity
  8
RUNDUNGEN
100
AcDbCircle
 62
7
  6
CONTINUOUS
 10
152.3744620007
 20
77.7069814411
 40
0.5999988777
100
AcDbArc
 50
90.0003158842
 51
152.5010461712
  0
ARC
  5
496
100
AcDbEntity
  8
RUNDUNGEN
100
AcDbCircle
 62
7
  6
CONTINUOUS
 10
133.9140625
 20
84.1306421153
 40
1.0
100
AcDbArc
 50
0.0
 51
20.0
  0
ARC
  5
497
100
AcDbEntity
  8
RUNDUNGEN
100
AcDbCircle
 62
7
  6
CONTINUOUS
 10
149.9140625
 20
84.1306421153
 40
1.0
100
AcDbArc
 50
160.0
 51
180.0
  0
ARC
  5
498
100
AcDbEntity
  8
RUNDUNGEN
100
AcDbCircle
 62
7
  6
CONTINUOUS
 10
151.518002211
 20
89.7069520134
 40
0.6
100
AcDbArc
 50
89.9994062864
 51
159.9982640383
  0
ARC
  5
499
100
AcDbEntity
  8
RUNDUNGEN
100
AcDbCircle
 62
7
  6
CONTINUOUS
 10
132.3101235913
 20
89.7069498093
 40
0.6
100
AcDbArc
 50
20.0019599437
 51
90.0006703142
  0
ARC
  5
49A
100
AcDbEntity
  8
RUNDUNGEN
100
AcDbCircle
 62
7
  6
CONTINUOUS
 10
133.9140625
 20
84.1306421153
 40
0.4
100
AcDbArc
 50
0.0
 51
20.0
  0
ARC
  5
49B
100
AcDbEntity
  8
RUNDUNGEN
100
AcDbCircle
 62
7
  6
CONTINUOUS
 10
149.9140625
 20
84.1306421153
 40
0.4
100
AcDbArc
 50
160.0
 51
180.0
  0
SPLINE
  5
49C
100
AcDbEntity
  8
0
100
AcDbSpline
 62
7
  6
CONTINUOUS
 70
0
 71
3
 72
9
 73
5
 74
0
 42
0.0000001
 43
0.0000001
 44
0.0000000001
 40
0.0
 40
0.0
 40
0.0
 40
0.0
 40
0.3756933475
 40
1.0
 40
1.0
 40
1.0
 40
1.0
 10
60.4513250769
 20
156.9356255019
 30
0.0
 10
60.4647639569
 20
156.9356255019
 30
0.0
 10
60.4981307912
 20
156.9162650407
 30
0.0
 10
60.5228895472
 20
156.8914777007
 30
0.0
 10
60.5379996618
 20
156.8750337821
 30
0.0
  0
SPLINE
  5
49D
100
AcDbEntity
  8
0
100
AcDbSpline
 62
7
  6
CONTINUOUS
 70
0
 71
3
 72
25
 73
21
 74
0
 42
0.0000001
 43
0.0000001
 44
0.0000000001
 40
0.0
 40
0.0
 40
0.0
 40
0.0
 40
0.0324060471
 40
0.0787944278
 40
0.137198623
 40
0.205662275
 40
0.2823605773
 40
0.3654266641
 40
0.4526207758
 40
0.541139558
 40
0.6279082779
 40
0.7101893934
 40
0.7858227978
 40
0.8529667792
 40
0.9097818852
 40
0.9542925738
 40
0.971323751
 40
0.9845976863
 40
0.9940449613
 40
1.0
 40
1.0
 40
1.0
 40
1.0
 10
60.5379996618
 20
156.8750337821
 30
0.0
 10
60.5797964151
 20
156.8295475349
 30
0.0
 10
60.6671078718
 20
156.7063833188
 30
0.0
 10
60.7994971142
 20
156.4808637641
 30
0.0
 10
60.9451037104
 20
156.1839817679
 30
0.0
 10
61.0907830396
 20
155.8239735754
 30
0.0
 10
61.22124739
 20
155.4083575731
 30
0.0
 10
61.3201873643
 20
154.9473174683
 30
0.0
 10
61.3723894913
 20
154.4557661286
 30
0.0
 10
61.3682948529
 20
153.9543108685
 30
0.0
 10
61.3086402475
 20
153.4659621372
 30
0.0
 10
61.2041946825
 20
153.0106162016
 30
0.0
 10
61.0705765492
 20
152.6024166583
 30
0.0
 10
60.9240509362
 20
152.2508763007
 30
0.0
 10
60.779458318
 20
151.9639308814
 30
0.0
 10
60.663326577
 20
151.7699730032
 30
0.0
 10
60.5799908225
 20
151.6543084244
 30
0.0
 10
60.5305287501
 20
151.5963447808
 30
0.0
 10
60.490579427
 20
151.5597496514
 30
0.0
 10
60.4626767754
 20
151.5456255019
 30
0.0
 10
60.4513250769
 20
151.5456255019
 30
0.0
  0
SPLINE
  5
49E
100
AcDbEntity
  8
0
100
AcDbSpline
 62
7
  6
CONTINUOUS
 70
0
 71
3
 72
9
 73
5
 74
0
 42
0.0000001
 43
0.0000001
 44
0.0000000001
 40
0.0
 40
0.0
 40
0.0
 40
0.0
 40
0.3766805634
 40
1.0
 40
1.0
 40
1.0
 40
1.0
 10
73.3767999231
 20
151.5456255019
 30
0.0
 10
73.3635702495
 20
151.5456255019
 30
0.0
 10
73.3307415696
 20
151.5644340597
 30
0.0
 10
73.3063250274
 20
151.5887034158
 30
0.0
 10
73.2914571183
 20
151.6047722515
 30
0.0
  0
SPLINE
  5
49F
100
AcDbEntity
  8
0
100
AcDbSpline
 62
7
  6
CONTINUOUS
 70
0
 71
3
 72
25
 73
21
 74
0
 42
0.0000001
 43
0.0000001
 44
0.0000000001
 40
0.0
 40
0.0
 40
0.0
 40
0.0
 40
0.0322224436
 40
0.078469262
 40
0.136770057
 40
0.2051604227
 40
0.2818154174
 40
0.3648797181
 40
0.4521112934
 40
0.5407058935
 40
0.6275525405
 40
0.7099088972
 40
0.7856079763
 40
0.8528134664
 40
0.9096870138
 40
0.9542468972
 40
0.9712968653
 40
0.9845853566
 40
0.9940413075
 40
1.0
 40
1.0
 40
1.0
 40
1.0
 10
73.2914571183
 20
151.6047722515
 30
0.0
 10
73.2497273141
 20
151.6498727
 30
0.0
 10
73.1625684666
 20
151.7724701663
 30
0.0
 10
73.0303213834
 20
151.9972184617
 30
0.0
 10
72.8846915159
 20
152.2935438033
 30
0.0
 10
72.7388257696
 20
152.6531639095
 30
0.0
 10
72.608005428
 20
153.068587165
 30
0.0
 10
72.5086256387
 20
153.5296823389
 30
0.0
 10
72.4559232135
 20
154.0215637263
 30
0.0
 10
72.4595861043
 20
154.523562945
 30
0.0
 10
72.5190011201
 20
155.0125535301
 30
0.0
 10
72.6233175771
 20
155.4685237199
 30
0.0
 10
72.756959445
 20
155.8772786882
 30
0.0
 10
72.9035755128
 20
156.2293065345
 30
0.0
 10
73.0483018422
 20
156.516669376
 30
0.0
 10
73.1645638661
 20
156.7109208931
 30
0.0
 10
73.2479966942
 20
156.8267691315
 30
0.0
 10
73.2975157319
 20
156.8848247626
 30
0.0
 10
73.3375051085
 20
156.9214770902
 30
0.0
 10
73.36543738
 20
156.9356255019
 30
0.0
 10
73.3767999231
 20
156.9356255019
 30
0.0
  0
SPLINE
  5
4A0
100
AcDbEntity
  8
0
100
AcDbSpline
 62
7
  6
CONTINUOUS
 70
0
 71
3
 72
9
 73
5
 74
0
 42
0.0000001
 43
0.0000001
 44
0.0000000001
 40
0.0
 40
0.0
 40
0.0
 40
0.0
 40
0.3757109247
 40
1.0
 40
1.0
 40
1.0
 40
1.0
 10
98.3767999231
 20
151.5456255019
 30
0.0
 10
98.3633663364
 20
151.5456255019
 30
0.0
 10
98.3300123584
 20
151.5649720374
 30
0.0
 10
98.305262062
 20
151.5897470928
 30
0.0
 10
98.2901576557
 20
151.6061820393
 30
0.0
  0
SPLINE
  5
4A1
100
AcDbEntity
  8
0
100
AcDbSpline
 62
7
  6
CONTINUOUS
 70
0
 71
3
 72
25
 73
21
 74
0
 42
0.0000001
 43
0.0000001
 44
0.0000000001
 40
0.0
 40
0.0
 40
0.0
 40
0.0
 40
0.0324031159
 40
0.078789992
 40
0.1371918094
 40
0.2056495524
 40
0.2823404807
 40
0.3654050679
 40
0.452604849
 40
0.5411364915
 40
0.6279097368
 40
0.7101901867
 40
0.7858193746
 40
0.8529609646
 40
0.9097776545
 40
0.9542909115
 40
0.9713231877
 40
0.9845978501
 40
0.9940451117
 40
1.0
 40
1.0
 40
1.0
 40
1.0
 10
98.2901576557
 20
151.6061820393
 30
0.0
 10
98.2483605367
 20
151.6516610474
 30
0.0
 10
98.1610491379
 20
151.774817055
 30
0.0
 10
98.0286605647
 20
152.0003241692
 30
0.0
 10
97.8830569953
 20
152.297190063
 30
0.0
 10
97.7373833438
 20
152.657171463
 30
0.0
 10
97.6069096921
 20
153.0727586814
 30
0.0
 10
97.5079629397
 20
153.5337952752
 30
0.0
 10
97.455743905
 20
154.0253811575
 30
0.0
 10
97.459823643
 20
154.5268853589
 30
0.0
 10
97.5194863119
 20
155.0152693381
 30
0.0
 10
97.6239235999
 20
155.4706202999
 30
0.0
 10
97.7575409625
 20
155.8788093643
 30
0.0
 10
97.9040610661
 20
156.230344797
 30
0.0
 10
98.0486531114
 20
156.5172972886
 30
0.0
 10
98.1647899236
 20
156.7112659466
 30
0.0
 10
98.2481306947
 20
156.8269387527
 30
0.0
 10
98.2975954356
 20
156.8849053723
 30
0.0
 10
98.337545563
 20
156.9215021443
 30
0.0
 10
98.3654484185
 20
156.9356255019
 30
0.0
 10
98.3767999231
 20
156.9356255019
 30
0.0
  0
SPLINE
  5
4A2
100
AcDbEntity
  8
0
100
AcDbSpline
 62
7
  6
CONTINUOUS
 70
0
 71
3
 72
27
 73
23
 74
0
 42
0.0000001
 43
0.0000001
 44
0.0000000001
 40
0.0
 40
0.0
 40
0.0
 40
0.0
 40
0.0063753175
 40
0.0167357487
 40
0.0314126699
 40
0.0502804834
 40
0.0995486234
 40
0.1621948301
 40
0.2358714042
 40
0.3183851473
 40
0.4074037415
 40
0.5000006811
 40
0.5925969673
 40
0.6816142237
 40
0.7641269846
 40
0.8378033552
 40
0.9004499509
 40
0.9497187376
 40
0.9685868743
 40
0.983264033
 40
0.993624598
 40
1.0
 40
1.0
 40
1.0
 40
1.0
 10
110.4513250769
 20
156.9356255019
 30
0.0
 10
110.463705671
 20
156.9356255019
 30
0.0
 10
110.4942917224
 20
156.9190079901
 30
0.0
 10
110.5378452477
 20
156.8773174008
 30
0.0
 10
110.5923366084
 20
156.8110450945
 30
0.0
 10
110.6841664723
 20
156.67915097
 30
0.0
 10
110.8116027835
 20
156.4588453276
 30
0.0
 10
110.9680330799
 20
156.1338989336
 30
0.0
 10
111.1221232924
 20
155.7372885236
 30
0.0
 10
111.2549459337
 20
155.2792579848
 30
0.0
 10
111.3463464302
 20
154.7734541306
 30
0.0
 10
111.379164083
 20
154.2406227996
 30
0.0
 10
111.3463456633
 20
153.7077941651
 30
0.0
 10
111.2549464748
 20
153.2019959929
 30
0.0
 10
111.1221258149
 20
152.7439699971
 30
0.0
 10
110.9680369215
 20
152.3473607419
 30
0.0
 10
110.8116065331
 20
152.0224125903
 30
0.0
 10
110.684169233
 20
151.80210447
 30
0.0
 10
110.5923385084
 20
151.6702081082
 30
0.0
 10
110.5378462492
 20
151.603934723
 30
0.0
 10
110.4942921542
 20
151.5622435971
 30
0.0
 10
110.4637058351
 20
151.5456255019
 30
0.0
 10
110.4513250769
 20
151.5456255019
 30
0.0
  0
SPLINE
  5
4A3
100
AcDbEntity
  8
0
100
AcDbSpline
 62
7
  6
CONTINUOUS
 70
0
 71
3
 72
9
 73
5
 74
0
 42
0.0000001
 43
0.0000001
 44
0.0000000001
 40
0.0
 40
0.0
 40
0.0
 40
0.0
 40
0.3801496672
 40
1.0
 40
1.0
 40
1.0
 40
1.0
 10
123.3767999231
 20
151.5456255019
 30
0.0
 10
123.3642680406
 20
151.5456255019
 30
0.0
 10
123.3332448982
 20
151.5626338919
 30
0.0
 10
123.309975198
 20
151.5851781026
 30
0.0
 10
123.2959170902
 20
151.6000074194
 30
0.0
  0
SPLINE
  5
4A4
100
AcDbEntity
  8
0
100
AcDbSpline
 62
7
  6
CONTINUOUS
 70
0
 71
3
 72
26
 73
22
 74
0
 42
0.0000001
 43
0.0000001
 44
0.0000000001
 40
0.0
 40
0.0
 40
0.0
 40
0.0
 40
0.0139393221
 40
0.0316294374
 40
0.0774075467
 40
0.1353834231
 40
0.2035702795
 40
0.2801211541
 40
0.3631593143
 40
0.4504400377
 40
0.5391466286
 40
0.6261905676
 40
0.7087981816
 40
0.7847649937
 40
0.8522266429
 40
0.9093281681
 40
0.9540730212
 40
0.9711926328
 40
0.9845354593
 40
0.9940259889
 40
1.0
 40
1.0
 40
1.0
 40
1.0
 10
123.2959170902
 20
151.6000074194
 30
0.0
 10
123.277608788
 20
151.6193200907
 30
0.0
 10
123.2391840104
 20
151.6660649271
 30
0.0
 10
123.1539351563
 20
151.7868413832
 30
0.0
 10
123.0360927269
 20
151.9869346372
 30
0.0
 10
122.8901658088
 20
152.2812067359
 30
0.0
 10
122.7436668397
 20
152.6398268433
 30
0.0
 10
122.6116996957
 20
153.0547182226
 30
0.0
 10
122.5108097665
 20
153.5158940316
 30
0.0
 10
122.4565795993
 20
154.0084484487
 30
0.0
 10
122.4588425909
 20
154.511724969
 30
0.0
 10
122.5171564559
 20
155.0025131021
 30
0.0
 10
122.6210496293
 20
155.4605521006
 30
0.0
 10
122.7547224348
 20
155.8713849365
 30
0.0
 10
122.9017066679
 20
156.2252985643
 30
0.0
 10
123.0469504225
 20
156.5142510441
 30
0.0
 10
123.1636959904
 20
156.7095957627
 30
0.0
 10
123.2474834604
 20
156.826117594
 30
0.0
 10
123.2972097858
 20
156.8845150153
 30
0.0
 10
123.3373494205
 20
156.9213808531
 30
0.0
 10
123.365394954
 20
156.9356255019
 30
0.0
 10
123.3767999231
 20
156.9356255019
 30
0.0
  0
SPLINE
  5
4A5
100
AcDbEntity
  8
0
100
AcDbSpline
 62
7
  6
CONTINUOUS
 70
0
 71
3
 72
9
 73
5
 74
0
 42
0.0000001
 43
0.0000001
 44
0.0000000001
 40
0.0
 40
0.0
 40
0.0
 40
0.0
 40
0.3798889572
 40
1.0
 40
1.0
 40
1.0
 40
1.0
 10
135.4513250769
 20
156.9356255019
 30
0.0
 10
135.4639086899
 20
156.9356255019
 30
0.0
 10
135.495065628
 20
156.9184859206
 30
0.0
 10
135.5184204924
 20
156.8958146477
 30
0.0
 10
135.5325383995
 20
156.8808945034
 30
0.0
  0
SPLINE
  5
4A6
100
AcDbEntity
  8
0
100
AcDbSpline
 62
7
  6
CONTINUOUS
 70
0
 71
3
 72
26
 73
22
 74
0
 42
0.0000001
 43
0.0000001
 44
0.0000000001
 40
0.0
 40
0.0
 40
0.0
 40
0.0
 40
0.0139635156
 40
0.0316752795
 40
0.0774880827
 40
0.1354885471
 40
0.203692451
 40
0.2802528841
 40
0.3632937356
 40
0.4505670692
 40
0.5392580229
 40
0.6262834838
 40
0.7088730059
 40
0.7848215821
 40
0.8522666661
 40
0.9093525544
 40
0.9540844622
 40
0.9711993009
 40
0.9845384086
 40
0.9940268161
 40
1.0
 40
1.0
 40
1.0
 40
1.0
 10
135.5325383995
 20
156.8808945034
 30
0.0
 10
135.5508589581
 20
156.8615328957
 30
0.0
 10
135.589307221
 20
156.8147017029
 30
0.0
 10
135.6745894717
 20
156.6937757982
 30
0.0
 10
135.7924521384
 20
156.4935388484
 30
0.0
 10
135.9383711302
 20
156.1991304468
 30
0.0
 10
136.0848225564
 20
155.8404203916
 30
0.0
 10
136.2167080247
 20
155.4254821359
 30
0.0
 10
136.3174826892
 20
154.9643119541
 30
0.0
 10
136.3715957381
 20
154.4718258162
 30
0.0
 10
136.3692270445
 20
153.9686714636
 30
0.0
 10
136.3108383157
 20
153.4780353929
 30
0.0
 10
136.2069203637
 20
153.0201504901
 30
0.0
 10
136.0732492984
 20
152.6094617069
 30
0.0
 10
135.9262902269
 20
152.2556769416
 30
0.0
 10
135.7810814277
 20
151.9668337984
 30
0.0
 10
135.6643700203
 20
151.7715651832
 30
0.0
 10
135.5806076162
 20
151.6550904549
 30
0.0
 10
135.5308955552
 20
151.5967161007
 30
0.0
 10
135.4907657329
 20
151.5598647412
 30
0.0
 10
135.4627275131
 20
151.5456255019
 30
0.0
 10
135.4513250769
 20
151.5456255019
 30
0.0
  0
SPLINE
  5
4A7
100
AcDbEntity
  8
0
100
AcDbSpline
 62
7
  6
CONTINUOUS
 70
0
 71
3
 72
9
 73
5
 74
0
 42
0.0000001
 43
0.0000001
 44
0.0000000001
 40
0.0
 40
0.0
 40
0.0
 40
0.0
 40
0.3845712808
 40
1.0
 40
1.0
 40
1.0
 40
1.0
 10
148.3767999231
 20
151.5456255019
 30
0.0
 10
148.3650938044
 20
151.5456255019
 30
0.0
 10
148.3362210652
 20
151.560589369
 30
0.0
 10
148.314318946
 20
151.5811060845
 30
0.0
 10
148.3012193264
 20
151.5944977148
 30
0.0
  0
SPLINE
  5
4A8
100
AcDbEntity
  8
0
100
AcDbSpline
 62
7
  6
CONTINUOUS
 70
0
 71
3
 72
26
 73
22
 74
0
 42
0.0000001
 43
0.0000001
 44
0.0000000001
 40
0.0
 40
0.0
 40
0.0
 40
0.0
 40
0.0135418865
 40
0.0308741273
 40
0.0760728227
 40
0.1336435197
 40
0.2015729608
 40
0.2779905883
 40
0.3610023638
 40
0.4483649127
 40
0.5372567493
 40
0.6245656241
 40
0.7074799603
 40
0.7837651132
 40
0.8515299192
 40
0.9089020262
 40
0.9538662029
 40
0.9710689992
 40
0.9844758976
 40
0.9940077548
 40
1.0
 40
1.0
 40
1.0
 40
1.0
 10
148.3012193264
 20
151.5944977148
 30
0.0
 10
148.2831171672
 20
151.6130033988
 30
0.0
 10
148.2450925016
 20
151.6583270013
 30
0.0
 10
148.1604152166
 20
151.7766204574
 30
0.0
 10
148.0429402137
 20
151.9743287604
 30
0.0
 10
147.8968898379
 20
152.2663686127
 30
0.0
 10
147.7496024879
 20
152.6235790112
 30
0.0
 10
147.6162671184
 20
153.0377995994
 30
0.0
 10
147.5135735702
 20
153.4990657968
 30
0.0
 10
147.4573491288
 20
153.9925264552
 30
0.0
 10
147.4578612689
 20
154.497507737
 30
0.0
 10
147.5150092024
 20
154.9905676497
 30
0.0
 10
147.6183826846
 20
155.4511222067
 30
0.0
 10
147.7520973455
 20
155.8644213242
 30
0.0
 10
147.8995040651
 20
156.2205644688
 30
0.0
 10
148.0453561822
 20
156.5113926255
 30
0.0
 10
148.1626687591
 20
156.7080316679
 30
0.0
 10
148.2468782049
 20
156.8253463625
 30
0.0
 10
148.2968490484
 20
156.8841484808
 30
0.0
 10
148.3371654682
 20
156.9212663406
 30
0.0
 10
148.365344901
 20
156.9356255019
 30
0.0
 10
148.3767999231
 20
156.9356255019
 30
0.0
  0
SPLINE
  5
4A9
100
AcDbEntity
  8
0
100
AcDbSpline
 62
7
  6
CONTINUOUS
 70
0
 71
3
 72
29
 73
25
 74
0
 42
0.0000001
 43
0.0000001
 44
0.0000000001
 40
0.0
 40
0.0
 40
0.0
 40
0.0
 40
0.0063757653
 40
0.0167358713
 40
0.0314119414
 40
0.0502800755
 40
0.073093311
 40
0.0995575813
 40
0.1621985381
 40
0.2358714663
 40
0.3183844986
 40
0.4074072417
 40
0.5000009227
 40
0.5925940009
 40
0.6816148504
 40
0.7641262364
 40
0.8377988592
 40
0.9004403338
 40
0.926905094
 40
0.9497187745
 40
0.9685874078
 40
0.9832637632
 40
0.9936240962
 40
1.0
 40
1.0
 40
1.0
 40
1.0
 10
85.4513250769
 20
156.9356255019
 30
0.0
 10
85.4637068234
 20
156.9356255019
 30
0.0
 10
85.4942908328
 20
156.9189997748
 30
0.0
 10
85.5378470338
 20
156.8773153225
 30
0.0
 10
85.5923378903
 20
156.8110382873
 30
0.0
 10
85.6548581488
 20
156.7213116982
 30
0.0
 10
85.724690001
 20
156.6087723279
 30
0.0
 10
85.8308688781
 20
156.4190880472
 30
0.0
 10
85.9680067745
 20
156.1338624963
 30
0.0
 10
86.1221229937
 20
155.7373461411
 30
0.0
 10
86.2549455319
 20
155.2792792456
 30
0.0
 10
86.3463039192
 20
154.7734615876
 30
0.0
 10
86.3790879898
 20
154.2406212894
 30
0.0
 10
86.3463049069
 20
153.7077844792
 30
0.0
 10
86.2549454907
 20
153.201975223
 30
0.0
 10
86.1221261331
 20
152.7439152887
 30
0.0
 10
85.9680123319
 20
152.347401002
 30
0.0
 10
85.8308750827
 20
152.062173569
 30
0.0
 10
85.7246945617
 20
151.8724869955
 30
0.0
 10
85.654862148
 20
151.7599446858
 30
0.0
 10
85.5923406278
 20
151.6702160872
 30
0.0
 10
85.5378485552
 20
151.6039374063
 30
0.0
 10
85.4942915482
 20
151.562252207
 30
0.0
 10
85.4637070924
 20
151.5456255019
 30
0.0
 10
85.4513250769
 20
151.5456255019
 30
0.0
  0
SPLINE
  5
4AA
100
AcDbEntity
  8
RUNDUNGEN
100
AcDbSpline
 62
7
  6
CONTINUOUS
 70
0
 71
3
 72
11
 73
7
 74
0
 42
0.0000001
 43
0.0000001
 44
0.0000000001
 40
0.0
 40
0.0
 40
0.0
 40
0.0
 40
0.2540156189
 40
0.5053041303
 40
0.7536150347
 40
1.0
 40
1.0
 40
1.0
 40
1.0
 10
56.9416718017
 20
148.74679536
 30
0.0
 10
56.9522761568
 20
148.677499992
 30
0.0
 10
56.9972744853
 20
148.542072737
 30
0.0
 10
57.1288806372
 20
148.3756794022
 30
0.0
 10
57.3082588014
 20
148.2660951076
 30
0.0
 10
57.4460663019
 20
148.2406255019
 30
0.0
 10
57.5140625
 20
148.2406255019
 30
0.0
  0
SPLINE
  5
4AB
100
AcDbEntity
  8
RUNDUNGEN
100
AcDbSpline
 62
7
  6
CONTINUOUS
 70
0
 71
3
 72
9
 73
5
 74
0
 42
0.0000001
 43
0.0000001
 44
0.0000000001
 40
0.0
 40
0.0
 40
0.0
 40
0.0
 40
0.2547542087
 40
1.0
 40
1.0
 40
1.0
 40
1.0
 10
102.4731734915
 20
152.2640542205
 30
0.0
 10
102.4790451042
 20
152.2069937557
 30
0.0
 10
102.5005718479
 20
151.9828940679
 30
0.0
 10
102.5140860192
 20
151.7577376642
 30
0.0
 10
102.5140625
 20
151.5899342891
 30
0.0
  0
SPLINE
  5
4AC
100
AcDbEntity
  8
RUNDUNGEN
100
AcDbSpline
 62
7
  6
CONTINUOUS
 70
0
 71
3
 72
9
 73
5
 74
0
 42
0.0000001
 43
0.0000001
 44
0.0000000001
 40
0.0
 40
0.0
 40
0.0
 40
0.0
 40
0.5039319364
 40
1.0
 40
1.0
 40
1.0
 40
1.0
 10
60.4219834486
 20
148.6552153439
 30
0.0
 10
60.4496572977
 20
148.5669332367
 30
0.0
 10
60.5460349721
 20
148.401902214
 30
0.0
 10
60.7077491675
 20
148.2989970832
 30
0.0
 10
60.7940810421
 20
148.269991576
 30
0.0
  0
SPLINE
  5
4AD
100
AcDbEntity
  8
RUNDUNGEN
100
AcDbSpline
 62
7
  6
CONTINUOUS
 70
0
 71
3
 72
8
 73
4
 74
0
 42
0.0000001
 43
0.0000001
 44
0.0000000001
 40
0.0
 40
0.0
 40
0.0
 40
0.0
 40
1.0
 40
1.0
 40
1.0
 40
1.0
 10
60.7940810421
 20
148.269991576
 30
0.0
 10
60.8514257088
 20
148.2507250982
 30
0.0
 10
60.9126787977
 20
148.2406255019
 30
0.0
 10
60.9731734914
 20
148.2406255019
 30
0.0
  0
SPLINE
  5
4AE
100
AcDbEntity
  8
RUNDUNGEN
100
AcDbSpline
 62
7
  6
CONTINUOUS
 70
0
 71
3
 72
9
 73
5
 74
0
 42
0.0000001
 43
0.0000001
 44
0.0000000001
 40
0.0
 40
0.0
 40
0.0
 40
0.0
 40
0.2544637161
 40
1.0
 40
1.0
 40
1.0
 40
1.0
 10
102.3744586928
 20
154.2406255019
 30
0.0
 10
102.3744618136
 20
154.072721026
 30
0.0
 10
102.3826532189
 20
153.412925317
 30
0.0
 10
102.4228532662
 20
152.7534059345
 30
0.0
 10
102.4731734915
 20
152.2640542205
 30
0.0
  0
SPLINE
  5
4AF
100
AcDbEntity
  8
RUNDUNGEN
100
AcDbSpline
 62
7
  6
CONTINUOUS
 70
0
 71
3
 72
9
 73
5
 74
0
 42
0.0000001
 43
0.0000001
 44
0.0000000001
 40
0.0
 40
0.0
 40
0.0
 40
0.0
 40
0.243856119
 40
1.0
 40
1.0
 40
1.0
 40
1.0
 10
106.3549515085
 20
152.2640542205
 30
0.0
 10
106.3714107803
 20
152.4241163149
 30
0.0
 10
106.4297902926
 20
153.0814106055
 30
0.0
 10
106.4536570357
 20
153.7416911966
 30
0.0
 10
106.4536663072
 20
154.2406255019
 30
0.0
  0
SPLINE
  5
4B0
100
AcDbEntity
  8
RUNDUNGEN
100
AcDbSpline
 62
7
  6
CONTINUOUS
 70
0
 71
3
 72
9
 73
5
 74
0
 42
0.0000001
 43
0.0000001
 44
0.0000000001
 40
0.0
 40
0.0
 40
0.0
 40
0.0
 40
0.2450382318
 40
1.0
 40
1.0
 40
1.0
 40
1.0
 10
106.3140625
 20
151.5899342891
 30
0.0
 10
106.3140553488
 20
151.6451129161
 30
0.0
 10
106.3186223449
 20
151.8703058439
 30
0.0
 10
106.3375449104
 20
152.0949425669
 30
0.0
 10
106.3549515085
 20
152.2640542205
 30
0.0
  0
SPLINE
  5
4B1
100
AcDbEntity
  8
RUNDUNGEN
100
AcDbSpline
 62
7
  6
CONTINUOUS
 70
0
 71
3
 72
13
 73
9
 74
0
 42
0.0000001
 43
0.0000001
 44
0.0000000001
 40
0.0
 40
0.0
 40
0.0
 40
0.0
 40
0.2689399865
 40
0.5310847713
 40
0.6571540885
 40
0.7782420556
 40
0.8929661596
 40
1.0
 40
1.0
 40
1.0
 40
1.0
 10
141.9140625
 20
150.2406255019
 30
0.0
 10
142.2793289737
 20
150.0791099504
 30
0.0
 10
143.0006081334
 20
149.7602087983
 30
0.0
 10
143.9033657814
 20
149.3884339645
 30
0.0
 10
144.6164086972
 20
149.1356815496
 30
0.0
 10
145.1316805406
 20
148.9817140151
 30
0.0
 10
145.6295933785
 20
148.8729919584
 30
0.0
 10
145.9589142395
 20
148.8406218931
 30
0.0
 10
146.1178623707
 20
148.8406255019
 30
0.0
  0
SPLINE
  5
4B2
100
AcDbEntity
  8
RUNDUNGEN
100
AcDbSpline
 62
7
  6
CONTINUOUS
 70
0
 71
3
 72
12
 73
8
 74
0
 42
0.0000001
 43
0.0000001
 44
0.0000000001
 40
0.0
 40
0.0
 40
0.0
 40
0.0
 40
0.2962196066
 40
0.5675511006
 40
0.7991641896
 40
0.9022077967
 40
1.0
 40
1.0
 40
1.0
 40
1.0
 10
62.7102626322
 20
148.8406255019
 30
0.0
 10
62.7102626329
 20
148.7634580979
 30
0.0
 10
62.7286095026
 20
148.6147812655
 30
0.0
 10
62.8081328084
 20
148.4196658221
 30
0.0
 10
62.9174190792
 20
148.2981795132
 30
0.0
 10
63.0202343197
 20
148.2489652345
 30
0.0
 10
63.0728301002
 20
148.2406255019
 30
0.0
 10
63.0983056943
 20
148.2406255019
 30
0.0
  0
SPLINE
  5
4B3
100
AcDbEntity
  8
RUNDUNGEN
100
AcDbSpline
 62
7
  6
CONTINUOUS
 70
0
 71
3
 72
13
 73
9
 74
0
 42
0.0000001
 43
0.0000001
 44
0.0000000001
 40
0.0
 40
0.0
 40
0.0
 40
0.0
 40
0.2824925649
 40
0.5528264228
 40
0.6791448067
 40
0.7968956515
 40
0.9041821132
 40
1.0
 40
1.0
 40
1.0
 40
1.0
 10
141.9140625
 20
158.2406255019
 30
0.0
 10
141.5774879248
 20
158.474823594
 30
0.0
 10
140.9189188685
 20
158.9331123803
 30
0.0
 10
140.0907889328
 20
159.4693127289
 30
0.0
 10
139.4373965347
 20
159.8313838777
 30
0.0
 10
138.9742684331
 20
160.0466888725
 30
0.0
 10
138.5321160702
 20
160.1961694476
 30
0.0
 10
138.2374120411
 20
160.240626755
 30
0.0
 10
138.098332352
 20
160.2406255017
 30
0.0
  0
SPLINE
  5
4B4
100
AcDbEntity
  8
RUNDUNGEN
100
AcDbSpline
 62
7
  6
CONTINUOUS
 70
0
 71
3
 72
11
 73
7
 74
0
 42
0.0000001
 43
0.0000001
 44
0.0000000001
 40
0.0
 40
0.0
 40
0.0
 40
0.0
 40
0.2540156189
 40
0.5053041303
 40
0.7536150347
 40
1.0
 40
1.0
 40
1.0
 40
1.0
 10
76.8864531983
 20
159.7344556439
 30
0.0
 10
76.8758488432
 20
159.8037510118
 30
0.0
 10
76.8308505147
 20
159.9391782668
 30
0.0
 10
76.6992443628
 20
160.1055716017
 30
0.0
 10
76.5198661986
 20
160.2151558962
 30
0.0
 10
76.3820586981
 20
160.2406255019
 30
0.0
 10
76.3140625
 20
160.2406255019
 30
0.0
  0
SPLINE
  5
4B5
100
AcDbEntity
  8
RUNDUNGEN
100
AcDbSpline
 62
7
  6
CONTINUOUS
 70
0
 71
3
 72
9
 73
5
 74
0
 42
0.0000001
 43
0.0000001
 44
0.0000000001
 40
0.0
 40
0.0
 40
0.0
 40
0.0
 40
0.5039319364
 40
1.0
 40
1.0
 40
1.0
 40
1.0
 10
73.4061415514
 20
159.8260356599
 30
0.0
 10
73.3784677023
 20
159.9143177671
 30
0.0
 10
73.2820900279
 20
160.0793487899
 30
0.0
 10
73.1203758325
 20
160.1822539206
 30
0.0
 10
73.0340439579
 20
160.2112594278
 30
0.0
  0
SPLINE
  5
4B6
100
AcDbEntity
  8
RUNDUNGEN
100
AcDbSpline
 62
7
  6
CONTINUOUS
 70
0
 71
3
 72
8
 73
4
 74
0
 42
0.0000001
 43
0.0000001
 44
0.0000000001
 40
0.0
 40
0.0
 40
0.0
 40
0.0
 40
1.0
 40
1.0
 40
1.0
 40
1.0
 10
73.0340439579
 20
160.2112594278
 30
0.0
 10
72.9766992912
 20
160.2305259056
 30
0.0
 10
72.9154462023
 20
160.2406255019
 30
0.0
 10
72.8549515086
 20
160.2406255019
 30
0.0
  0
SPLINE
  5
4B7
100
AcDbEntity
  8
RUNDUNGEN
100
AcDbSpline
 62
7
  6
CONTINUOUS
 70
0
 71
3
 72
13
 73
9
 74
0
 42
0.0000001
 43
0.0000001
 44
0.0000000001
 40
0.0
 40
0.0
 40
0.0
 40
0.0
 40
0.095816337
 40
0.203100596
 40
0.320851409
 40
0.4471708533
 40
0.7175064746
 40
1.0
 40
1.0
 40
1.0
 40
1.0
 10
145.7297983381
 20
160.2406255018
 30
0.0
 10
145.590720717
 20
160.2406264887
 30
0.0
 10
145.2960212779
 20
160.1961737224
 30
0.0
 10
144.8538738975
 20
160.0466931262
 30
0.0
 10
144.3907443381
 20
159.8313941257
 30
0.0
 10
143.7373478434
 20
159.4693195553
 30
0.0
 10
142.9092117969
 20
158.9331164641
 30
0.0
 10
142.2506385148
 20
158.4748249019
 30
0.0
 10
141.9140625
 20
158.2406255019
 30
0.0
  0
SPLINE
  5
4B8
100
AcDbEntity
  8
RUNDUNGEN
100
AcDbSpline
 62
7
  6
CONTINUOUS
 70
0
 71
3
 72
12
 73
8
 74
0
 42
0.0000001
 43
0.0000001
 44
0.0000000001
 40
0.0
 40
0.0
 40
0.0
 40
0.0
 40
0.2962191674
 40
0.5675501854
 40
0.7991632341
 40
0.9022071691
 40
1.0
 40
1.0
 40
1.0
 40
1.0
 10
71.1178623679
 20
159.6406255019
 30
0.0
 10
71.117862837
 20
159.7177928915
 30
0.0
 10
71.0995166541
 20
159.8664697981
 30
0.0
 10
71.0199936402
 20
160.0615854782
 30
0.0
 10
70.9107069303
 20
160.1830716778
 30
0.0
 10
70.807891201
 20
160.2322858364
 30
0.0
 10
70.7552950968
 20
160.2406255019
 30
0.0
 10
70.7298193062
 20
160.2406255019
 30
0.0
  0
SPLINE
  5
4B9
100
AcDbEntity
  8
RUNDUNGEN
100
AcDbSpline
 62
7
  6
CONTINUOUS
 70
0
 71
3
 72
13
 73
9
 74
0
 42
0.0000001
 43
0.0000001
 44
0.0000000001
 40
0.0
 40
0.0
 40
0.0
 40
0.0
 40
0.0957067944
 40
0.2028820647
 40
0.3205805855
 40
0.4468806579
 40
0.7173105919
 40
1.0
 40
1.0
 40
1.0
 40
1.0
 10
138.0983115276
 20
148.2406255019
 30
0.0
 10
138.2372304737
 20
148.2406252128
 30
0.0
 10
138.5316205409
 20
148.2849630169
 30
0.0
 10
138.9734054793
 20
148.434293864
 30
0.0
 10
139.4363621654
 20
148.6493388643
 30
0.0
 10
140.0898307637
 20
149.0113619505
 30
0.0
 10
140.9183359032
 20
149.5477230695
 30
0.0
 10
141.5772482363
 20
150.0062690102
 30
0.0
 10
141.9140625
 20
150.2406255019
 30
0.0
  0
SPLINE
  5
4BA
100
AcDbEntity
  8
RUNDUNGEN
100
AcDbSpline
 62
7
  6
CONTINUOUS
 70
0
 71
3
 72
12
 73
8
 74
0
 42
0.0000001
 43
0.0000001
 44
0.0000000001
 40
0.0
 40
0.0
 40
0.0
 40
0.0
 40
0.296219684
 40
0.5675512259
 40
0.7991642607
 40
0.902207817
 40
1.0
 40
1.0
 40
1.0
 40
1.0
 10
62.7102626322
 20
159.6406255019
 30
0.0
 10
62.7102626296
 20
159.717792927
 30
0.0
 10
62.7286095079
 20
159.8664697934
 30
0.0
 10
62.8081328397
 20
160.0615852562
 30
0.0
 10
62.9174191292
 20
160.183071521
 30
0.0
 10
63.0202343391
 20
160.2322857942
 30
0.0
 10
63.0728301052
 20
160.2406255019
 30
0.0
 10
63.0983056943
 20
160.2406255019
 30
0.0
  0
SPLINE
  5
4BB
100
AcDbEntity
  8
RUNDUNGEN
100
AcDbSpline
 62
7
  6
CONTINUOUS
 70
0
 71
3
 72
13
 73
9
 74
0
 42
0.0000001
 43
0.0000001
 44
0.0000000001
 40
0.0
 40
0.0
 40
0.0
 40
0.0
 40
0.2824846122
 40
0.5528323978
 40
0.6791688534
 40
0.7969222272
 40
0.9041979321
 40
1.0
 40
1.0
 40
1.0
 40
1.0
 10
141.9140625
 20
150.2406255019
 30
0.0
 10
142.2506279234
 20
150.0064299083
 30
0.0
 10
142.9092105614
 20
149.5481361599
 30
0.0
 10
143.7373792357
 20
149.0119207689
 30
0.0
 10
144.3908140722
 20
148.6498131011
 30
0.0
 10
144.8539645138
 20
148.4345116146
 30
0.0
 10
145.2960933354
 20
148.2850659397
 30
0.0
 10
145.590761695
 20
148.2406137195
 30
0.0
 10
145.7298193057
 20
148.2406255019
 30
0.0
  0
SPLINE
  5
4BC
100
AcDbEntity
  8
RUNDUNGEN
100
AcDbSpline
 62
7
  6
CONTINUOUS
 70
0
 71
3
 72
9
 73
5
 74
0
 42
0.0000001
 43
0.0000001
 44
0.0000000001
 40
0.0
 40
0.0
 40
0.0
 40
0.0
 40
0.5039319356
 40
1.0
 40
1.0
 40
1.0
 40
1.0
 10
60.4219834607
 20
159.8260356985
 30
0.0
 10
60.4496573111
 20
159.9143177896
 30
0.0
 10
60.5460349739
 20
160.0793487806
 30
0.0
 10
60.7077491359
 20
160.1822539015
 30
0.0
 10
60.7940809942
 20
160.2112594117
 30
0.0
  0
SPLINE
  5
4BD
100
AcDbEntity
  8
RUNDUNGEN
100
AcDbSpline
 62
7
  6
CONTINUOUS
 70
0
 71
3
 72
8
 73
4
 74
0
 42
0.0000001
 43
0.0000001
 44
0.0000000001
 40
0.0
 40
0.0
 40
0.0
 40
0.0
 40
1.0
 40
1.0
 40
1.0
 40
1.0
 10
60.7940809942
 20
160.2112594117
 30
0.0
 10
60.851425675
 20
160.2305258999
 30
0.0
 10
60.9126787811
 20
160.2406255019
 30
0.0
 10
60.9731734915
 20
160.2406255019
 30
0.0
  0
SPLINE
  5
4BE
100
AcDbEntity
  8
RUNDUNGEN
100
AcDbSpline
 62
7
  6
CONTINUOUS
 70
0
 71
3
 72
13
 73
9
 74
0
 42
0.0000001
 43
0.0000001
 44
0.0000000001
 40
0.0
 40
0.0
 40
0.0
 40
0.0
 40
0.2689451349
 40
0.5310826577
 40
0.6571401927
 40
0.7782258718
 40
0.892955568
 40
1.0
 40
1.0
 40
1.0
 40
1.0
 10
116.9140625
 20
158.2406255019
 30
0.0
 10
116.5487865455
 20
158.4021387423
 30
0.0
 10
115.8275127755
 20
158.7210443581
 30
0.0
 10
114.9247773807
 20
159.0928205501
 30
0.0
 10
114.2117580894
 20
159.345546424
 30
0.0
 10
113.696500937
 20
159.4995142989
 30
0.0
 10
113.198573671
 20
159.6082776597
 30
0.0
 10
112.8692265256
 20
159.6406227926
 30
0.0
 10
112.7102626293
 20
159.6406255019
 30
0.0
  0
SPLINE
  5
4BF
100
AcDbEntity
  8
RUNDUNGEN
100
AcDbSpline
 62
7
  6
CONTINUOUS
 70
0
 71
3
 72
9
 73
5
 74
0
 42
0.0000001
 43
0.0000001
 44
0.0000000001
 40
0.0
 40
0.0
 40
0.0
 40
0.0
 40
0.2438397076
 40
1.0
 40
1.0
 40
1.0
 40
1.0
 10
81.9345070042
 20
152.0663970923
 30
0.0
 10
81.9509750699
 20
152.2425681809
 30
0.0
 10
82.0093721051
 20
152.9658895622
 30
0.0
 10
82.0332093689
 20
153.6919276193
 30
0.0
 10
82.033221803
 20
154.2406255019
 30
0.0
  0
SPLINE
  5
4C0
100
AcDbEntity
  8
RUNDUNGEN
100
AcDbSpline
 62
7
  6
CONTINUOUS
 70
0
 71
3
 72
9
 73
5
 74
0
 42
0.0000001
 43
0.0000001
 44
0.0000000001
 40
0.0
 40
0.0
 40
0.0
 40
0.0
 40
0.2544602361
 40
1.0
 40
1.0
 40
1.0
 40
1.0
 10
82.033221803
 20
154.2406255019
 30
0.0
 10
82.0332178545
 20
154.4252703452
 30
0.0
 10
82.025029598
 20
155.1508662353
 30
0.0
 10
81.9848589241
 20
155.8762136886
 30
0.0
 10
81.9345070042
 20
156.4148539115
 30
0.0
  0
SPLINE
  5
4C1
100
AcDbEntity
  8
RUNDUNGEN
100
AcDbSpline
 62
7
  6
CONTINUOUS
 70
0
 71
3
 72
11
 73
7
 74
0
 42
0.0000001
 43
0.0000001
 44
0.0000000001
 40
0.0
 40
0.0
 40
0.0
 40
0.0
 40
0.2540156189
 40
0.5053041304
 40
0.7536150349
 40
1.0
 40
1.0
 40
1.0
 40
1.0
 10
56.9416718008
 20
159.7344556381
 30
0.0
 10
56.9522761553
 20
159.8037510067
 30
0.0
 10
56.9972744831
 20
159.9391782631
 30
0.0
 10
57.128880635
 20
160.1055715999
 30
0.0
 10
57.3082588
 20
160.2151558959
 30
0.0
 10
57.4460663015
 20
160.2406255019
 30
0.0
 10
57.5140625
 20
160.2406255019
 30
0.0
  0
SPLINE
  5
4C2
100
AcDbEntity
  8
RUNDUNGEN
100
AcDbSpline
 62
7
  6
CONTINUOUS
 70
0
 71
3
 72
9
 73
5
 74
0
 42
0.0000001
 43
0.0000001
 44
0.0000000001
 40
0.0
 40
0.0
 40
0.0
 40
0.0
 40
0.2547799894
 40
1.0
 40
1.0
 40
1.0
 40
1.0
 10
81.3549515085
 20
156.2171967834
 30
0.0
 10
81.3490842138
 20
156.2742635218
 30
0.0
 10
81.3275470998
 20
156.4983623857
 30
0.0
 10
81.3140568807
 20
156.7235191604
 30
0.0
 10
81.3140625
 20
156.8913167147
 30
0.0
  0
SPLINE
  5
4C3
100
AcDbEntity
  8
RUNDUNGEN
100
AcDbSpline
 62
7
  6
CONTINUOUS
 70
0
 71
3
 72
9
 73
5
 74
0
 42
0.0000001
 43
0.0000001
 44
0.0000000001
 40
0.0
 40
0.0
 40
0.0
 40
0.0
 40
0.2544636778
 40
1.0
 40
1.0
 40
1.0
 40
1.0
 10
81.4536663072
 20
154.2406255019
 30
0.0
 10
81.4536633434
 20
154.4085299509
 30
0.0
 10
81.4454703817
 20
155.0683256228
 30
0.0
 10
81.4052725587
 20
155.7278451337
 30
0.0
 10
81.3549515085
 20
156.2171967834
 30
0.0
  0
SPLINE
  5
4C4
100
AcDbEntity
  8
RUNDUNGEN
100
AcDbSpline
 62
7
  6
CONTINUOUS
 70
0
 71
3
 72
9
 73
5
 74
0
 42
0.0000001
 43
0.0000001
 44
0.0000000001
 40
0.0
 40
0.0
 40
0.0
 40
0.0
 40
0.2438559934
 40
1.0
 40
1.0
 40
1.0
 40
1.0
 10
77.4731734915
 20
156.2171967834
 30
0.0
 10
77.456713962
 20
156.0571347985
 30
0.0
 10
77.3983349815
 20
155.3998404557
 30
0.0
 10
77.3744675178
 20
154.7395598912
 30
0.0
 10
77.3744586928
 20
154.2406255019
 30
0.0
  0
SPLINE
  5
4C5
100
AcDbEntity
  8
RUNDUNGEN
100
AcDbSpline
 62
7
  6
CONTINUOUS
 70
0
 71
3
 72
9
 73
5
 74
0
 42
0.0000001
 43
0.0000001
 44
0.0000000001
 40
0.0
 40
0.0
 40
0.0
 40
0.0
 40
0.2450568363
 40
1.0
 40
1.0
 40
1.0
 40
1.0
 10
77.5140625
 20
156.8913167147
 30
0.0
 10
77.5140645353
 20
156.8361339349
 30
0.0
 10
77.5094909823
 20
156.6109413226
 30
0.0
 10
77.4905598646
 20
156.3863061914
 30
0.0
 10
77.4731734915
 20
156.2171967834
 30
0.0
  0
SPLINE
  5
4C6
100
AcDbEntity
  8
RUNDUNGEN
100
AcDbSpline
 62
7
  6
CONTINUOUS
 70
0
 71
3
 72
13
 73
9
 74
0
 42
0.0000001
 43
0.0000001
 44
0.0000000001
 40
0.0
 40
0.0
 40
0.0
 40
0.0
 40
0.1070434692
 40
0.2217717975
 40
0.3428575612
 40
0.4689158247
 40
0.731054363
 40
1.0
 40
1.0
 40
1.0
 40
1.0
 10
121.1178623707
 20
159.6406255019
 30
0.0
 10
120.9588999093
 20
159.6406223568
 30
0.0
 10
120.6295562015
 20
159.6082779493
 30
0.0
 10
120.1316325747
 20
159.4995139148
 30
0.0
 10
119.6163749171
 20
159.3455507893
 30
0.0
 10
118.9033535546
 20
159.0928224142
 30
0.0
 10
118.0006148758
 20
158.721045761
 30
0.0
 10
117.2793391355
 20
158.4021390141
 30
0.0
 10
116.9140625
 20
158.2406255019
 30
0.0
  0
SPLINE
  5
4C7
100
AcDbEntity
  8
RUNDUNGEN
100
AcDbSpline
 62
7
  6
CONTINUOUS
 70
0
 71
3
 72
9
 73
5
 74
0
 42
0.0000001
 43
0.0000001
 44
0.0000000001
 40
0.0
 40
0.0
 40
0.0
 40
0.0
 40
0.2547542087
 40
1.0
 40
1.0
 40
1.0
 40
1.0
 10
77.4731734915
 20
152.2640542205
 30
0.0
 10
77.4790451042
 20
152.2069937557
 30
0.0
 10
77.5005718479
 20
151.9828940679
 30
0.0
 10
77.5140860192
 20
151.7577376642
 30
0.0
 10
77.5140625
 20
151.5899342891
 30
0.0
  0
SPLINE
  5
4C8
100
AcDbEntity
  8
RUNDUNGEN
100
AcDbSpline
 62
7
  6
CONTINUOUS
 70
0
 71
3
 72
9
 73
5
 74
0
 42
0.0000001
 43
0.0000001
 44
0.0000000001
 40
0.0
 40
0.0
 40
0.0
 40
0.0
 40
0.2544637161
 40
1.0
 40
1.0
 40
1.0
 40
1.0
 10
77.3744586928
 20
154.2406255019
 30
0.0
 10
77.3744618136
 20
154.072721026
 30
0.0
 10
77.3826532189
 20
153.412925317
 30
0.0
 10
77.4228532662
 20
152.7534059345
 30
0.0
 10
77.4731734915
 20
152.2640542205
 30
0.0
  0
SPLINE
  5
4C9
100
AcDbEntity
  8
RUNDUNGEN
100
AcDbSpline
 62
7
  6
CONTINUOUS
 70
0
 71
3
 72
9
 73
5
 74
0
 42
0.0000001
 43
0.0000001
 44
0.0000000001
 40
0.0
 40
0.0
 40
0.0
 40
0.0
 40
0.243856119
 40
1.0
 40
1.0
 40
1.0
 40
1.0
 10
81.3549515085
 20
152.2640542205
 30
0.0
 10
81.3714107803
 20
152.4241163149
 30
0.0
 10
81.4297902926
 20
153.0814106055
 30
0.0
 10
81.4536570357
 20
153.7416911966
 30
0.0
 10
81.4536663072
 20
154.2406255019
 30
0.0
  0
SPLINE
  5
4CA
100
AcDbEntity
  8
RUNDUNGEN
100
AcDbSpline
 62
7
  6
CONTINUOUS
 70
0
 71
3
 72
9
 73
5
 74
0
 42
0.0000001
 43
0.0000001
 44
0.0000000001
 40
0.0
 40
0.0
 40
0.0
 40
0.0
 40
0.2450382318
 40
1.0
 40
1.0
 40
1.0
 40
1.0
 10
81.3140625
 20
151.5899342891
 30
0.0
 10
81.3140553488
 20
151.6451129161
 30
0.0
 10
81.3186223449
 20
151.8703058439
 30
0.0
 10
81.3375449104
 20
152.0949425669
 30
0.0
 10
81.3549515085
 20
152.2640542205
 30
0.0
  0
SPLINE
  5
4CB
100
AcDbEntity
  8
RUNDUNGEN
100
AcDbSpline
 62
7
  6
CONTINUOUS
 70
0
 71
3
 72
12
 73
8
 74
0
 42
0.0000001
 43
0.0000001
 44
0.0000000001
 40
0.0
 40
0.0
 40
0.0
 40
0.0
 40
0.2962196835
 40
0.5675512251
 40
0.79916426
 40
0.9022078166
 40
1.0
 40
1.0
 40
1.0
 40
1.0
 10
96.1178623679
 20
148.8406255019
 30
0.0
 10
96.1178623703
 20
148.763458077
 30
0.0
 10
96.0995154919
 20
148.6147812109
 30
0.0
 10
96.0199921603
 20
148.4196657483
 30
0.0
 10
95.9107058713
 20
148.298179483
 30
0.0
 10
95.8078906611
 20
148.2489652098
 30
0.0
 10
95.7552948949
 20
148.2406255019
 30
0.0
 10
95.7298193057
 20
148.2406255019
 30
0.0
  0
SPLINE
  5
4CC
100
AcDbEntity
  8
RUNDUNGEN
100
AcDbSpline
 62
7
  6
CONTINUOUS
 70
0
 71
3
 72
9
 73
5
 74
0
 42
0.0000001
 43
0.0000001
 44
0.0000000001
 40
0.0
 40
0.0
 40
0.0
 40
0.0
 40
0.2438559927
 40
1.0
 40
1.0
 40
1.0
 40
1.0
 10
152.4731734915
 20
156.2171967834
 30
0.0
 10
152.4567139672
 20
156.0571347984
 30
0.0
 10
152.3983349808
 20
155.3998404565
 30
0.0
 10
152.3744675096
 20
154.7395598916
 30
0.0
 10
152.3744586928
 20
154.2406255019
 30
0.0
  0
SPLINE
  5
4CD
100
AcDbEntity
  8
RUNDUNGEN
100
AcDbSpline
 62
7
  6
CONTINUOUS
 70
0
 71
3
 72
9
 73
5
 74
0
 42
0.0000001
 43
0.0000001
 44
0.0000000001
 40
0.0
 40
0.0
 40
0.0
 40
0.0
 40
0.5039319356
 40
1.0
 40
1.0
 40
1.0
 40
1.0
 10
98.4061415393
 20
148.6552153053
 30
0.0
 10
98.3784676889
 20
148.5669332142
 30
0.0
 10
98.2820900261
 20
148.4019022232
 30
0.0
 10
98.1203758641
 20
148.2989971024
 30
0.0
 10
98.0340440058
 20
148.2699915922
 30
0.0
  0
SPLINE
  5
4CE
100
AcDbEntity
  8
RUNDUNGEN
100
AcDbSpline
 62
7
  6
CONTINUOUS
 70
0
 71
3
 72
8
 73
4
 74
0
 42
0.0000001
 43
0.0000001
 44
0.0000000001
 40
0.0
 40
0.0
 40
0.0
 40
0.0
 40
1.0
 40
1.0
 40
1.0
 40
1.0
 10
98.0340440058
 20
148.2699915922
 30
0.0
 10
97.976699325
 20
148.250725104
 30
0.0
 10
97.9154462189
 20
148.2406255019
 30
0.0
 10
97.8549515085
 20
148.2406255019
 30
0.0
  0
SPLINE
  5
4CF
100
AcDbEntity
  8
RUNDUNGEN
100
AcDbSpline
 62
7
  6
CONTINUOUS
 70
0
 71
3
 72
11
 73
7
 74
0
 42
0.0000001
 43
0.0000001
 44
0.0000000001
 40
0.0
 40
0.0
 40
0.0
 40
0.0
 40
0.2540156189
 40
0.5053041304
 40
0.7536150349
 40
1.0
 40
1.0
 40
1.0
 40
1.0
 10
101.8864531992
 20
148.7467953657
 30
0.0
 10
101.8758488447
 20
148.6774999972
 30
0.0
 10
101.8308505169
 20
148.5420727408
 30
0.0
 10
101.699244365
 20
148.375679404
 30
0.0
 10
101.5198662
 20
148.2660951079
 30
0.0
 10
101.3820586985
 20
148.2406255019
 30
0.0
 10
101.3140625
 20
148.2406255019
 30
0.0
  0
SPLINE
  5
4D0
100
AcDbEntity
  8
RUNDUNGEN
100
AcDbSpline
 62
7
  6
CONTINUOUS
 70
0
 71
3
 72
9
 73
5
 74
0
 42
0.0000001
 43
0.0000001
 44
0.0000000001
 40
0.0
 40
0.0
 40
0.0
 40
0.0
 40
0.2450568455
 40
1.0
 40
1.0
 40
1.0
 40
1.0
 10
152.5140625
 20
156.8913167147
 30
0.0
 10
152.5140645287
 20
156.8361339328
 30
0.0
 10
152.5094909755
 20
156.6109413217
 30
0.0
 10
152.4905599267
 20
156.3863061829
 30
0.0
 10
152.4731734915
 20
156.2171967834
 30
0.0
  0
SPLINE
  5
4D1
100
AcDbEntity
  8
RUNDUNGEN
100
AcDbSpline
 62
7
  6
CONTINUOUS
 70
0
 71
3
 72
13
 73
9
 74
0
 42
0.0000001
 43
0.0000001
 44
0.0000000001
 40
0.0
 40
0.0
 40
0.0
 40
0.0
 40
0.2689399865
 40
0.5310847713
 40
0.6571540885
 40
0.7782420556
 40
0.8929661596
 40
1.0
 40
1.0
 40
1.0
 40
1.0
 10
116.9140625
 20
150.2406255019
 30
0.0
 10
117.2793289737
 20
150.0791099504
 30
0.0
 10
118.0006081334
 20
149.7602087983
 30
0.0
 10
118.9033657814
 20
149.3884339645
 30
0.0
 10
119.6164086972
 20
149.1356815496
 30
0.0
 10
120.1316805406
 20
148.9817140151
 30
0.0
 10
120.6295933785
 20
148.8729919584
 30
0.0
 10
120.9589142395
 20
148.8406218931
 30
0.0
 10
121.1178623707
 20
148.8406255019
 30
0.0
  0
SPLINE
  5
4D2
100
AcDbEntity
  8
RUNDUNGEN
100
AcDbSpline
 62
7
  6
CONTINUOUS
 70
0
 71
3
 72
13
 73
9
 74
0
 42
0.0000001
 43
0.0000001
 44
0.0000000001
 40
0.0
 40
0.0
 40
0.0
 40
0.0
 40
0.1069683091
 40
0.2216304761
 40
0.3426883542
 40
0.4687404093
 40
0.730940168
 40
1.0
 40
1.0
 40
1.0
 40
1.0
 10
112.7102626293
 20
148.8406255019
 30
0.0
 10
112.8691131632
 20
148.8406249076
 30
0.0
 10
113.1982420979
 20
148.872993173
 30
0.0
 10
113.6959286487
 20
148.9816377314
 30
0.0
 10
114.2110676132
 20
149.1354802411
 30
0.0
 10
114.9241364186
 20
149.3881918588
 30
0.0
 10
115.8271200831
 20
149.76002923
 30
0.0
 10
116.5486328275
 20
150.0790406956
 30
0.0
 10
116.9140625
 20
150.2406255019
 30
0.0
  0
SPLINE
  5
4D3
100
AcDbEntity
  8
RUNDUNGEN
100
AcDbSpline
 62
7
  6
CONTINUOUS
 70
0
 71
3
 72
9
 73
5
 74
0
 42
0.0000001
 43
0.0000001
 44
0.0000000001
 40
0.0
 40
0.0
 40
0.0
 40
0.0
 40
0.2438395725
 40
1.0
 40
1.0
 40
1.0
 40
1.0
 10
151.8936179958
 20
156.4148539115
 30
0.0
 10
151.877149564
 20
156.2386829552
 30
0.0
 10
151.8187532863
 20
155.5153615072
 30
0.0
 10
151.794914939
 20
154.7893234839
 30
0.0
 10
151.794903197
 20
154.2406255019
 30
0.0
  0
SPLINE
  5
4D4
100
AcDbEntity
  8
RUNDUNGEN
100
AcDbSpline
 62
7
  6
CONTINUOUS
 70
0
 71
3
 72
9
 73
5
 74
0
 42
0.0000001
 43
0.0000001
 44
0.0000000001
 40
0.0
 40
0.0
 40
0.0
 40
0.0
 40
0.2544602463
 40
1.0
 40
1.0
 40
1.0
 40
1.0
 10
151.794903197
 20
154.2406255019
 30
0.0
 10
151.7949073807
 20
154.0559806499
 30
0.0
 10
151.8030938776
 20
153.3303847211
 30
0.0
 10
151.8432672748
 20
152.6050374242
 30
0.0
 10
151.8936179958
 20
152.0663970923
 30
0.0
  0
SPLINE
  5
4D5
100
AcDbEntity
  8
RUNDUNGEN
100
AcDbSpline
 62
7
  6
CONTINUOUS
 70
0
 71
3
 72
11
 73
7
 74
0
 42
0.0000001
 43
0.0000001
 44
0.0000000001
 40
0.0
 40
0.0
 40
0.0
 40
0.0
 40
0.2540156189
 40
0.5053041303
 40
0.7536150347
 40
1.0
 40
1.0
 40
1.0
 40
1.0
 10
81.9416718017
 20
148.74679536
 30
0.0
 10
81.9522761568
 20
148.677499992
 30
0.0
 10
81.9972744853
 20
148.542072737
 30
0.0
 10
82.1288806372
 20
148.3756794022
 30
0.0
 10
82.3082588014
 20
148.2660951076
 30
0.0
 10
82.4460663019
 20
148.2406255019
 30
0.0
 10
82.5140625
 20
148.2406255019
 30
0.0
  0
SPLINE
  5
4D6
100
AcDbEntity
  8
RUNDUNGEN
100
AcDbSpline
 62
7
  6
CONTINUOUS
 70
0
 71
3
 72
9
 73
5
 74
0
 42
0.0000001
 43
0.0000001
 44
0.0000000001
 40
0.0
 40
0.0
 40
0.0
 40
0.0
 40
0.2547542479
 40
1.0
 40
1.0
 40
1.0
 40
1.0
 10
152.4731734915
 20
152.2640542205
 30
0.0
 10
152.4790451461
 20
152.206993751
 30
0.0
 10
152.5005719775
 20
151.9828940658
 30
0.0
 10
152.5140858041
 20
151.7577376561
 30
0.0
 10
152.5140625
 20
151.5899342891
 30
0.0
  0
SPLINE
  5
4D7
100
AcDbEntity
  8
RUNDUNGEN
100
AcDbSpline
 62
7
  6
CONTINUOUS
 70
0
 71
3
 72
9
 73
5
 74
0
 42
0.0000001
 43
0.0000001
 44
0.0000000001
 40
0.0
 40
0.0
 40
0.0
 40
0.0
 40
0.5039319364
 40
1.0
 40
1.0
 40
1.0
 40
1.0
 10
85.4219834486
 20
148.6552153439
 30
0.0
 10
85.4496572977
 20
148.5669332367
 30
0.0
 10
85.5460349721
 20
148.401902214
 30
0.0
 10
85.7077491675
 20
148.2989970832
 30
0.0
 10
85.7940810421
 20
148.269991576
 30
0.0
  0
SPLINE
  5
4D8
100
AcDbEntity
  8
RUNDUNGEN
100
AcDbSpline
 62
7
  6
CONTINUOUS
 70
0
 71
3
 72
8
 73
4
 74
0
 42
0.0000001
 43
0.0000001
 44
0.0000000001
 40
0.0
 40
0.0
 40
0.0
 40
0.0
 40
1.0
 40
1.0
 40
1.0
 40
1.0
 10
85.7940810421
 20
148.269991576
 30
0.0
 10
85.8514257088
 20
148.2507250982
 30
0.0
 10
85.9126787977
 20
148.2406255019
 30
0.0
 10
85.9731734914
 20
148.2406255019
 30
0.0
  0
SPLINE
  5
4D9
100
AcDbEntity
  8
RUNDUNGEN
100
AcDbSpline
 62
7
  6
CONTINUOUS
 70
0
 71
3
 72
9
 73
5
 74
0
 42
0.0000001
 43
0.0000001
 44
0.0000000001
 40
0.0
 40
0.0
 40
0.0
 40
0.0
 40
0.2544637159
 40
1.0
 40
1.0
 40
1.0
 40
1.0
 10
152.3744586928
 20
154.2406255019
 30
0.0
 10
152.3744618121
 20
154.0727210261
 30
0.0
 10
152.3826532191
 20
153.4129253169
 30
0.0
 10
152.422853281
 20
152.7534059362
 30
0.0
 10
152.4731734915
 20
152.2640542205
 30
0.0
  0
SPLINE
  5
4DA
100
AcDbEntity
  8
RUNDUNGEN
100
AcDbSpline
 62
7
  6
CONTINUOUS
 70
0
 71
3
 72
12
 73
8
 74
0
 42
0.0000001
 43
0.0000001
 44
0.0000000001
 40
0.0
 40
0.0
 40
0.0
 40
0.0
 40
0.2962196066
 40
0.5675511006
 40
0.7991641896
 40
0.9022077967
 40
1.0
 40
1.0
 40
1.0
 40
1.0
 10
87.7102626322
 20
148.8406255019
 30
0.0
 10
87.7102626329
 20
148.7634580979
 30
0.0
 10
87.7286095026
 20
148.6147812655
 30
0.0
 10
87.8081328083
 20
148.4196658221
 30
0.0
 10
87.9174190792
 20
148.2981795132
 30
0.0
 10
88.0202343197
 20
148.2489652345
 30
0.0
 10
88.0728301002
 20
148.2406255019
 30
0.0
 10
88.0983056943
 20
148.2406255019
 30
0.0
  0
SPLINE
  5
4DB
100
AcDbEntity
  8
RUNDUNGEN
100
AcDbSpline
 62
7
  6
CONTINUOUS
 70
0
 71
3
 72
9
 73
5
 74
0
 42
0.0000001
 43
0.0000001
 44
0.0000000001
 40
0.0
 40
0.0
 40
0.0
 40
0.0
 40
0.2438395723
 40
1.0
 40
1.0
 40
1.0
 40
1.0
 10
126.8936179958
 20
156.4148539115
 30
0.0
 10
126.8771495574
 20
156.2386829559
 30
0.0
 10
126.8187532876
 20
155.5153615069
 30
0.0
 10
126.7949149503
 20
154.7893234841
 30
0.0
 10
126.794903197
 20
154.2406255019
 30
0.0
  0
SPLINE
  5
4DC
100
AcDbEntity
  8
RUNDUNGEN
100
AcDbSpline
 62
7
  6
CONTINUOUS
 70
0
 71
3
 72
9
 73
5
 74
0
 42
0.0000001
 43
0.0000001
 44
0.0000000001
 40
0.0
 40
0.0
 40
0.0
 40
0.0
 40
0.2544602463
 40
1.0
 40
1.0
 40
1.0
 40
1.0
 10
126.794903197
 20
154.2406255019
 30
0.0
 10
126.7949073827
 20
154.0559806499
 30
0.0
 10
126.8030938775
 20
153.3303847214
 30
0.0
 10
126.8432672558
 20
152.6050374224
 30
0.0
 10
126.8936179958
 20
152.0663970923
 30
0.0
  0
SPLINE
  5
4DD
100
AcDbEntity
  8
RUNDUNGEN
100
AcDbSpline
 62
7
  6
CONTINUOUS
 70
0
 71
3
 72
11
 73
7
 74
0
 42
0.0000001
 43
0.0000001
 44
0.0000000001
 40
0.0
 40
0.0
 40
0.0
 40
0.0
 40
0.2540156189
 40
0.5053041303
 40
0.7536150347
 40
1.0
 40
1.0
 40
1.0
 40
1.0
 10
101.8864531983
 20
159.7344556439
 30
0.0
 10
101.8758488432
 20
159.8037510118
 30
0.0
 10
101.8308505147
 20
159.9391782668
 30
0.0
 10
101.6992443628
 20
160.1055716017
 30
0.0
 10
101.5198661986
 20
160.2151558962
 30
0.0
 10
101.3820586981
 20
160.2406255019
 30
0.0
 10
101.3140625
 20
160.2406255019
 30
0.0
  0
SPLINE
  5
4DE
100
AcDbEntity
  8
RUNDUNGEN
100
AcDbSpline
 62
7
  6
CONTINUOUS
 70
0
 71
3
 72
9
 73
5
 74
0
 42
0.0000001
 43
0.0000001
 44
0.0000000001
 40
0.0
 40
0.0
 40
0.0
 40
0.0
 40
0.5039319364
 40
1.0
 40
1.0
 40
1.0
 40
1.0
 10
98.4061415514
 20
159.8260356599
 30
0.0
 10
98.3784677023
 20
159.9143177671
 30
0.0
 10
98.2820900279
 20
160.0793487899
 30
0.0
 10
98.1203758325
 20
160.1822539206
 30
0.0
 10
98.0340439579
 20
160.2112594278
 30
0.0
  0
SPLINE
  5
4DF
100
AcDbEntity
  8
RUNDUNGEN
100
AcDbSpline
 62
7
  6
CONTINUOUS
 70
0
 71
3
 72
8
 73
4
 74
0
 42
0.0000001
 43
0.0000001
 44
0.0000000001
 40
0.0
 40
0.0
 40
0.0
 40
0.0
 40
1.0
 40
1.0
 40
1.0
 40
1.0
 10
98.0340439579
 20
160.2112594278
 30
0.0
 10
97.9766992912
 20
160.2305259056
 30
0.0
 10
97.9154462023
 20
160.2406255019
 30
0.0
 10
97.8549515086
 20
160.2406255019
 30
0.0
  0
SPLINE
  5
4E0
100
AcDbEntity
  8
RUNDUNGEN
100
AcDbSpline
 62
7
  6
CONTINUOUS
 70
0
 71
3
 72
12
 73
8
 74
0
 42
0.0000001
 43
0.0000001
 44
0.0000000001
 40
0.0
 40
0.0
 40
0.0
 40
0.0
 40
0.2962191674
 40
0.5675501854
 40
0.7991632341
 40
0.9022071691
 40
1.0
 40
1.0
 40
1.0
 40
1.0
 10
96.1178623679
 20
159.6406255019
 30
0.0
 10
96.117862837
 20
159.7177928915
 30
0.0
 10
96.0995166541
 20
159.8664697981
 30
0.0
 10
96.0199936402
 20
160.0615854782
 30
0.0
 10
95.9107069303
 20
160.1830716779
 30
0.0
 10
95.807891201
 20
160.2322858364
 30
0.0
 10
95.7552950967
 20
160.2406255019
 30
0.0
 10
95.7298193061
 20
160.2406255019
 30
0.0
  0
SPLINE
  5
4E1
100
AcDbEntity
  8
RUNDUNGEN
100
AcDbSpline
 62
7
  6
CONTINUOUS
 70
0
 71
3
 72
12
 73
8
 74
0
 42
0.0000001
 43
0.0000001
 44
0.0000000001
 40
0.0
 40
0.0
 40
0.0
 40
0.0
 40
0.296219684
 40
0.5675512259
 40
0.7991642607
 40
0.902207817
 40
1.0
 40
1.0
 40
1.0
 40
1.0
 10
87.7102626322
 20
159.6406255019
 30
0.0
 10
87.7102626296
 20
159.717792927
 30
0.0
 10
87.7286095079
 20
159.8664697934
 30
0.0
 10
87.8081328397
 20
160.0615852562
 30
0.0
 10
87.9174191292
 20
160.183071521
 30
0.0
 10
88.0202343391
 20
160.2322857942
 30
0.0
 10
88.0728301052
 20
160.2406255019
 30
0.0
 10
88.0983056943
 20
160.2406255019
 30
0.0
  0
SPLINE
  5
4E2
100
AcDbEntity
  8
RUNDUNGEN
100
AcDbSpline
 62
7
  6
CONTINUOUS
 70
0
 71
3
 72
9
 73
5
 74
0
 42
0.0000001
 43
0.0000001
 44
0.0000000001
 40
0.0
 40
0.0
 40
0.0
 40
0.0
 40
0.5039319356
 40
1.0
 40
1.0
 40
1.0
 40
1.0
 10
85.4219834607
 20
159.8260356985
 30
0.0
 10
85.4496573111
 20
159.9143177896
 30
0.0
 10
85.5460349739
 20
160.0793487806
 30
0.0
 10
85.7077491359
 20
160.1822539015
 30
0.0
 10
85.7940809942
 20
160.2112594117
 30
0.0
  0
SPLINE
  5
4E3
100
AcDbEntity
  8
RUNDUNGEN
100
AcDbSpline
 62
7
  6
CONTINUOUS
 70
0
 71
3
 72
8
 73
4
 74
0
 42
0.0000001
 43
0.0000001
 44
0.0000000001
 40
0.0
 40
0.0
 40
0.0
 40
0.0
 40
1.0
 40
1.0
 40
1.0
 40
1.0
 10
85.7940809942
 20
160.2112594117
 30
0.0
 10
85.851425675
 20
160.2305258999
 30
0.0
 10
85.9126787811
 20
160.2406255019
 30
0.0
 10
85.9731734915
 20
160.2406255019
 30
0.0
  0
SPLINE
  5
4E4
100
AcDbEntity
  8
RUNDUNGEN
100
AcDbSpline
 62
7
  6
CONTINUOUS
 70
0
 71
3
 72
9
 73
5
 74
0
 42
0.0000001
 43
0.0000001
 44
0.0000000001
 40
0.0
 40
0.0
 40
0.0
 40
0.0
 40
0.2438397079
 40
1.0
 40
1.0
 40
1.0
 40
1.0
 10
131.9345070042
 20
152.0663970923
 30
0.0
 10
131.9509750638
 20
152.2425681817
 30
0.0
 10
132.0093721063
 20
152.9658895621
 30
0.0
 10
132.0332093749
 20
153.6919276195
 30
0.0
 10
132.033221803
 20
154.2406255019
 30
0.0
  0
SPLINE
  5
4E5
100
AcDbEntity
  8
RUNDUNGEN
100
AcDbSpline
 62
7
  6
CONTINUOUS
 70
0
 71
3
 72
9
 73
5
 74
0
 42
0.0000001
 43
0.0000001
 44
0.0000000001
 40
0.0
 40
0.0
 40
0.0
 40
0.0
 40
0.2544602362
 40
1.0
 40
1.0
 40
1.0
 40
1.0
 10
132.033221803
 20
154.2406255019
 30
0.0
 10
132.0332178583
 20
154.4252703452
 30
0.0
 10
132.0250295993
 20
155.1508662357
 30
0.0
 10
131.984858904
 20
155.8762136867
 30
0.0
 10
131.9345070042
 20
156.4148539115
 30
0.0
  0
SPLINE
  5
4E6
100
AcDbEntity
  8
RUNDUNGEN
100
AcDbSpline
 62
7
  6
CONTINUOUS
 70
0
 71
3
 72
11
 73
7
 74
0
 42
0.0000001
 43
0.0000001
 44
0.0000000001
 40
0.0
 40
0.0
 40
0.0
 40
0.0
 40
0.2540156189
 40
0.5053041304
 40
0.7536150349
 40
1.0
 40
1.0
 40
1.0
 40
1.0
 10
81.9416718008
 20
159.7344556381
 30
0.0
 10
81.9522761553
 20
159.8037510067
 30
0.0
 10
81.9972744831
 20
159.9391782631
 30
0.0
 10
82.128880635
 20
160.1055715999
 30
0.0
 10
82.3082588
 20
160.2151558959
 30
0.0
 10
82.4460663015
 20
160.2406255019
 30
0.0
 10
82.5140625
 20
160.2406255019
 30
0.0
  0
SPLINE
  5
4E7
100
AcDbEntity
  8
RUNDUNGEN
100
AcDbSpline
 62
7
  6
CONTINUOUS
 70
0
 71
3
 72
13
 73
9
 74
0
 42
0.0000001
 43
0.0000001
 44
0.0000000001
 40
0.0
 40
0.0
 40
0.0
 40
0.0
 40
0.2824925649
 40
0.5528264228
 40
0.6791448067
 40
0.7968956515
 40
0.9041821132
 40
1.0
 40
1.0
 40
1.0
 40
1.0
 10
116.9140625
 20
158.2406255019
 30
0.0
 10
116.5774879248
 20
158.474823594
 30
0.0
 10
115.9189188685
 20
158.9331123803
 30
0.0
 10
115.0907889328
 20
159.4693127289
 30
0.0
 10
114.4373965347
 20
159.8313838777
 30
0.0
 10
113.9742684331
 20
160.0466888725
 30
0.0
 10
113.5321160702
 20
160.1961694476
 30
0.0
 10
113.2374120411
 20
160.240626755
 30
0.0
 10
113.098332352
 20
160.2406255017
 30
0.0
  0
SPLINE
  5
4E8
100
AcDbEntity
  8
RUNDUNGEN
100
AcDbSpline
 62
7
  6
CONTINUOUS
 70
0
 71
3
 72
13
 73
9
 74
0
 42
0.0000001
 43
0.0000001
 44
0.0000000001
 40
0.0
 40
0.0
 40
0.0
 40
0.0
 40
0.095816337
 40
0.203100596
 40
0.320851409
 40
0.4471708533
 40
0.7175064746
 40
1.0
 40
1.0
 40
1.0
 40
1.0
 10
120.7297983381
 20
160.2406255018
 30
0.0
 10
120.590720717
 20
160.2406264887
 30
0.0
 10
120.2960212779
 20
160.1961737224
 30
0.0
 10
119.8538738975
 20
160.0466931262
 30
0.0
 10
119.3907443381
 20
159.8313941257
 30
0.0
 10
118.7373478434
 20
159.4693195553
 30
0.0
 10
117.9092117969
 20
158.9331164641
 30
0.0
 10
117.2506385148
 20
158.4748249019
 30
0.0
 10
116.9140625
 20
158.2406255019
 30
0.0
  0
SPLINE
  5
4E9
100
AcDbEntity
  8
RUNDUNGEN
100
AcDbSpline
 62
7
  6
CONTINUOUS
 70
0
 71
3
 72
13
 73
9
 74
0
 42
0.0000001
 43
0.0000001
 44
0.0000000001
 40
0.0
 40
0.0
 40
0.0
 40
0.0
 40
0.0957067944
 40
0.2028820647
 40
0.3205805855
 40
0.4468806579
 40
0.7173105919
 40
1.0
 40
1.0
 40
1.0
 40
1.0
 10
113.0983115276
 20
148.2406255019
 30
0.0
 10
113.2372304737
 20
148.2406252128
 30
0.0
 10
113.5316205409
 20
148.2849630169
 30
0.0
 10
113.9734054793
 20
148.434293864
 30
0.0
 10
114.4363621654
 20
148.6493388643
 30
0.0
 10
115.0898307637
 20
149.0113619505
 30
0.0
 10
115.9183359032
 20
149.5477230695
 30
0.0
 10
116.5772482363
 20
150.0062690102
 30
0.0
 10
116.9140625
 20
150.2406255019
 30
0.0
  0
SPLINE
  5
4EA
100
AcDbEntity
  8
RUNDUNGEN
100
AcDbSpline
 62
7
  6
CONTINUOUS
 70
0
 71
3
 72
13
 73
9
 74
0
 42
0.0000001
 43
0.0000001
 44
0.0000000001
 40
0.0
 40
0.0
 40
0.0
 40
0.0
 40
0.2824846122
 40
0.5528323978
 40
0.6791688534
 40
0.7969222272
 40
0.9041979321
 40
1.0
 40
1.0
 40
1.0
 40
1.0
 10
116.9140625
 20
150.2406255019
 30
0.0
 10
117.2506279234
 20
150.0064299083
 30
0.0
 10
117.9092105614
 20
149.5481361599
 30
0.0
 10
118.7373792357
 20
149.0119207689
 30
0.0
 10
119.3908140722
 20
148.6498131011
 30
0.0
 10
119.8539645138
 20
148.4345116146
 30
0.0
 10
120.2960933354
 20
148.2850659397
 30
0.0
 10
120.590761695
 20
148.2406137195
 30
0.0
 10
120.7298193057
 20
148.2406255019
 30
0.0
  0
SPLINE
  5
4EB
100
AcDbEntity
  8
RUNDUNGEN
100
AcDbSpline
 62
7
  6
CONTINUOUS
 70
0
 71
3
 72
12
 73
8
 74
0
 42
0.0000001
 43
0.0000001
 44
0.0000000001
 40
0.0
 40
0.0
 40
0.0
 40
0.0
 40
0.2962196835
 40
0.5675512251
 40
0.79916426
 40
0.9022078166
 40
1.0
 40
1.0
 40
1.0
 40
1.0
 10
121.1178623679
 20
148.8406255019
 30
0.0
 10
121.1178623703
 20
148.763458077
 30
0.0
 10
121.0995154919
 20
148.6147812109
 30
0.0
 10
121.0199921603
 20
148.4196657483
 30
0.0
 10
120.9107058713
 20
148.298179483
 30
0.0
 10
120.8078906611
 20
148.2489652098
 30
0.0
 10
120.7552948949
 20
148.2406255019
 30
0.0
 10
120.7298193057
 20
148.2406255019
 30
0.0
  0
SPLINE
  5
4EC
100
AcDbEntity
  8
RUNDUNGEN
100
AcDbSpline
 62
7
  6
CONTINUOUS
 70
0
 71
3
 72
9
 73
5
 74
0
 42
0.0000001
 43
0.0000001
 44
0.0000000001
 40
0.0
 40
0.0
 40
0.0
 40
0.0
 40
0.2547799739
 40
1.0
 40
1.0
 40
1.0
 40
1.0
 10
131.3549515085
 20
156.2171967834
 30
0.0
 10
131.3490841889
 20
156.2742635157
 30
0.0
 10
131.3275471723
 20
156.4983623891
 30
0.0
 10
131.3140568914
 20
156.723519157
 30
0.0
 10
131.3140625
 20
156.8913167147
 30
0.0
  0
SPLINE
  5
4ED
100
AcDbEntity
  8
RUNDUNGEN
100
AcDbSpline
 62
7
  6
CONTINUOUS
 70
0
 71
3
 72
9
 73
5
 74
0
 42
0.0000001
 43
0.0000001
 44
0.0000000001
 40
0.0
 40
0.0
 40
0.0
 40
0.0
 40
0.2544636777
 40
1.0
 40
1.0
 40
1.0
 40
1.0
 10
131.4536663072
 20
154.2406255019
 30
0.0
 10
131.4536633462
 20
154.4085299509
 30
0.0
 10
131.4454703831
 20
155.0683256231
 30
0.0
 10
131.4052725432
 20
155.727845132
 30
0.0
 10
131.3549515085
 20
156.2171967834
 30
0.0
  0
SPLINE
  5
4EE
100
AcDbEntity
  8
RUNDUNGEN
100
AcDbSpline
 62
7
  6
CONTINUOUS
 70
0
 71
3
 72
9
 73
5
 74
0
 42
0.0000001
 43
0.0000001
 44
0.0000000001
 40
0.0
 40
0.0
 40
0.0
 40
0.0
 40
0.2438559934
 40
1.0
 40
1.0
 40
1.0
 40
1.0
 10
127.4731734915
 20
156.2171967834
 30
0.0
 10
127.456713962
 20
156.0571347985
 30
0.0
 10
127.3983349815
 20
155.3998404557
 30
0.0
 10
127.3744675178
 20
154.7395598912
 30
0.0
 10
127.3744586928
 20
154.2406255019
 30
0.0
  0
SPLINE
  5
4EF
100
AcDbEntity
  8
RUNDUNGEN
100
AcDbSpline
 62
7
  6
CONTINUOUS
 70
0
 71
3
 72
9
 73
5
 74
0
 42
0.0000001
 43
0.0000001
 44
0.0000000001
 40
0.0
 40
0.0
 40
0.0
 40
0.0
 40
0.2450568363
 40
1.0
 40
1.0
 40
1.0
 40
1.0
 10
127.5140625
 20
156.8913167147
 30
0.0
 10
127.5140645353
 20
156.8361339349
 30
0.0
 10
127.5094909823
 20
156.6109413226
 30
0.0
 10
127.4905598646
 20
156.3863061914
 30
0.0
 10
127.4731734915
 20
156.2171967834
 30
0.0
  0
SPLINE
  5
4F0
100
AcDbEntity
  8
RUNDUNGEN
100
AcDbSpline
 62
7
  6
CONTINUOUS
 70
0
 71
3
 72
9
 73
5
 74
0
 42
0.0000001
 43
0.0000001
 44
0.0000000001
 40
0.0
 40
0.0
 40
0.0
 40
0.0
 40
0.5039319356
 40
1.0
 40
1.0
 40
1.0
 40
1.0
 10
123.4061415393
 20
148.6552153053
 30
0.0
 10
123.3784676889
 20
148.5669332142
 30
0.0
 10
123.2820900261
 20
148.4019022232
 30
0.0
 10
123.1203758641
 20
148.2989971024
 30
0.0
 10
123.0340440058
 20
148.2699915922
 30
0.0
  0
SPLINE
  5
4F1
100
AcDbEntity
  8
RUNDUNGEN
100
AcDbSpline
 62
7
  6
CONTINUOUS
 70
0
 71
3
 72
8
 73
4
 74
0
 42
0.0000001
 43
0.0000001
 44
0.0000000001
 40
0.0
 40
0.0
 40
0.0
 40
0.0
 40
1.0
 40
1.0
 40
1.0
 40
1.0
 10
123.0340440058
 20
148.2699915922
 30
0.0
 10
122.976699325
 20
148.250725104
 30
0.0
 10
122.9154462189
 20
148.2406255019
 30
0.0
 10
122.8549515085
 20
148.2406255019
 30
0.0
  0
SPLINE
  5
4F2
100
AcDbEntity
  8
RUNDUNGEN
100
AcDbSpline
 62
7
  6
CONTINUOUS
 70
0
 71
3
 72
11
 73
7
 74
0
 42
0.0000001
 43
0.0000001
 44
0.0000000001
 40
0.0
 40
0.0
 40
0.0
 40
0.0
 40
0.2535935348
 40
0.5046431749
 40
0.7531225408
 40
1.0
 40
1.0
 40
1.0
 40
1.0
 10
126.8652642315
 20
148.6552525908
 30
0.0
 10
126.8466796515
 20
148.595952994
 30
0.0
 10
126.7912403974
 20
148.4828341789
 30
0.0
 10
126.6611572819
 20
148.3477871106
 30
0.0
 10
126.496849338
 20
148.2606830083
 30
0.0
 10
126.3745603262
 20
148.2406255019
 30
0.0
 10
126.3140625
 20
148.2406255019
 30
0.0
  0
SPLINE
  5
4F3
100
AcDbEntity
  8
RUNDUNGEN
100
AcDbSpline
 62
7
  6
CONTINUOUS
 70
0
 71
3
 72
13
 73
9
 74
0
 42
0.0000001
 43
0.0000001
 44
0.0000000001
 40
0.0
 40
0.0
 40
0.0
 40
0.0
 40
0.1069683091
 40
0.2216304761
 40
0.3426883542
 40
0.4687404093
 40
0.730940168
 40
1.0
 40
1.0
 40
1.0
 40
1.0
 10
137.7102626293
 20
148.8406255019
 30
0.0
 10
137.8691131632
 20
148.8406249076
 30
0.0
 10
138.1982420979
 20
148.872993173
 30
0.0
 10
138.6959286487
 20
148.9816377314
 30
0.0
 10
139.2110676132
 20
149.1354802411
 30
0.0
 10
139.9241364186
 20
149.3881918588
 30
0.0
 10
140.8271200831
 20
149.76002923
 30
0.0
 10
141.5486328275
 20
150.0790406956
 30
0.0
 10
141.9140625
 20
150.2406255019
 30
0.0
  0
SPLINE
  5
4F4
100
AcDbEntity
  8
RUNDUNGEN
100
AcDbSpline
 62
7
  6
CONTINUOUS
 70
0
 71
3
 72
9
 73
5
 74
0
 42
0.0000001
 43
0.0000001
 44
0.0000000001
 40
0.0
 40
0.0
 40
0.0
 40
0.0
 40
0.2547542087
 40
1.0
 40
1.0
 40
1.0
 40
1.0
 10
127.4731734915
 20
152.2640542205
 30
0.0
 10
127.4790451042
 20
152.2069937557
 30
0.0
 10
127.5005718479
 20
151.9828940679
 30
0.0
 10
127.5140860192
 20
151.7577376642
 30
0.0
 10
127.5140625
 20
151.5899342891
 30
0.0
  0
SPLINE
  5
4F5
100
AcDbEntity
  8
RUNDUNGEN
100
AcDbSpline
 62
7
  6
CONTINUOUS
 70
0
 71
3
 72
9
 73
5
 74
0
 42
0.0000001
 43
0.0000001
 44
0.0000000001
 40
0.0
 40
0.0
 40
0.0
 40
0.0
 40
0.2544637161
 40
1.0
 40
1.0
 40
1.0
 40
1.0
 10
127.3744586928
 20
154.2406255019
 30
0.0
 10
127.3744618136
 20
154.072721026
 30
0.0
 10
127.3826532189
 20
153.412925317
 30
0.0
 10
127.4228532662
 20
152.7534059345
 30
0.0
 10
127.4731734915
 20
152.2640542205
 30
0.0
  0
SPLINE
  5
4F6
100
AcDbEntity
  8
RUNDUNGEN
100
AcDbSpline
 62
7
  6
CONTINUOUS
 70
0
 71
3
 72
9
 73
5
 74
0
 42
0.0000001
 43
0.0000001
 44
0.0000000001
 40
0.0
 40
0.0
 40
0.0
 40
0.0
 40
0.2438561183
 40
1.0
 40
1.0
 40
1.0
 40
1.0
 10
131.3549515085
 20
152.2640542205
 30
0.0
 10
131.3714107755
 20
152.424116315
 30
0.0
 10
131.4297902932
 20
153.0814106048
 30
0.0
 10
131.45365704
 20
153.7416911962
 30
0.0
 10
131.4536663072
 20
154.2406255019
 30
0.0
  0
SPLINE
  5
4F7
100
AcDbEntity
  8
RUNDUNGEN
100
AcDbSpline
 62
7
  6
CONTINUOUS
 70
0
 71
3
 72
11
 73
7
 74
0
 42
0.0000001
 43
0.0000001
 44
0.0000000001
 40
0.0
 40
0.0
 40
0.0
 40
0.0
 40
0.2540156189
 40
0.5053041303
 40
0.7536150347
 40
1.0
 40
1.0
 40
1.0
 40
1.0
 10
106.9416718017
 20
148.74679536
 30
0.0
 10
106.9522761568
 20
148.677499992
 30
0.0
 10
106.9972744853
 20
148.542072737
 30
0.0
 10
107.1288806372
 20
148.3756794022
 30
0.0
 10
107.3082588014
 20
148.2660951076
 30
0.0
 10
107.4460663019
 20
148.2406255019
 30
0.0
 10
107.5140625
 20
148.2406255019
 30
0.0
  0
SPLINE
  5
4F8
100
AcDbEntity
  8
RUNDUNGEN
100
AcDbSpline
 62
7
  6
CONTINUOUS
 70
0
 71
3
 72
9
 73
5
 74
0
 42
0.0000001
 43
0.0000001
 44
0.0000000001
 40
0.0
 40
0.0
 40
0.0
 40
0.0
 40
0.5039319364
 40
1.0
 40
1.0
 40
1.0
 40
1.0
 10
110.4219834486
 20
148.6552153439
 30
0.0
 10
110.4496572977
 20
148.5669332367
 30
0.0
 10
110.5460349721
 20
148.401902214
 30
0.0
 10
110.7077491675
 20
148.2989970832
 30
0.0
 10
110.7940810421
 20
148.269991576
 30
0.0
  0
SPLINE
  5
4F9
100
AcDbEntity
  8
RUNDUNGEN
100
AcDbSpline
 62
7
  6
CONTINUOUS
 70
0
 71
3
 72
8
 73
4
 74
0
 42
0.0000001
 43
0.0000001
 44
0.0000000001
 40
0.0
 40
0.0
 40
0.0
 40
0.0
 40
1.0
 40
1.0
 40
1.0
 40
1.0
 10
110.7940810421
 20
148.269991576
 30
0.0
 10
110.8514257088
 20
148.2507250982
 30
0.0
 10
110.9126787977
 20
148.2406255019
 30
0.0
 10
110.9731734914
 20
148.2406255019
 30
0.0
  0
SPLINE
  5
4FA
100
AcDbEntity
  8
RUNDUNGEN
100
AcDbSpline
 62
7
  6
CONTINUOUS
 70
0
 71
3
 72
9
 73
5
 74
0
 42
0.0000001
 43
0.0000001
 44
0.0000000001
 40
0.0
 40
0.0
 40
0.0
 40
0.0
 40
0.2450382146
 40
1.0
 40
1.0
 40
1.0
 40
1.0
 10
131.3140625
 20
151.5899342891
 30
0.0
 10
131.3140553973
 20
151.6451129121
 30
0.0
 10
131.3186223938
 20
151.8703058355
 30
0.0
 10
131.3375448443
 20
152.0949425704
 30
0.0
 10
131.3549515085
 20
152.2640542205
 30
0.0
  0
SPLINE
  5
4FB
100
AcDbEntity
  8
RUNDUNGEN
100
AcDbSpline
 62
7
  6
CONTINUOUS
 70
0
 71
3
 72
9
 73
5
 74
0
 42
0.0000001
 43
0.0000001
 44
0.0000000001
 40
0.0
 40
0.0
 40
0.0
 40
0.0
 40
0.2486023934
 40
1.0
 40
1.0
 40
1.0
 40
1.0
 10
101.9140625
 20
157.156385836
 30
0.0
 10
101.9140630423
 20
157.0949099654
 30
0.0
 10
101.9117538863
 20
156.8476220067
 30
0.0
 10
101.9022934208
 20
156.6004613198
 30
0.0
 10
101.8936179958
 20
156.4148539115
 30
0.0
  0
SPLINE
  5
4FC
100
AcDbEntity
  8
RUNDUNGEN
100
AcDbSpline
 62
7
  6
CONTINUOUS
 70
0
 71
3
 72
12
 73
8
 74
0
 42
0.0000001
 43
0.0000001
 44
0.0000000001
 40
0.0
 40
0.0
 40
0.0
 40
0.0
 40
0.2962196066
 40
0.5675511006
 40
0.7991641896
 40
0.9022077967
 40
1.0
 40
1.0
 40
1.0
 40
1.0
 10
112.7102626322
 20
148.8406255019
 30
0.0
 10
112.7102626329
 20
148.7634580979
 30
0.0
 10
112.7286095026
 20
148.6147812655
 30
0.0
 10
112.8081328083
 20
148.4196658221
 30
0.0
 10
112.9174190792
 20
148.2981795132
 30
0.0
 10
113.0202343197
 20
148.2489652345
 30
0.0
 10
113.0728301002
 20
148.2406255019
 30
0.0
 10
113.0983056943
 20
148.2406255019
 30
0.0
  0
SPLINE
  5
4FD
100
AcDbEntity
  8
RUNDUNGEN
100
AcDbSpline
 62
7
  6
CONTINUOUS
 70
0
 71
3
 72
11
 73
7
 74
0
 42
0.0000001
 43
0.0000001
 44
0.0000000001
 40
0.0
 40
0.0
 40
0.0
 40
0.0
 40
0.2540156189
 40
0.5053041303
 40
0.7536150347
 40
1.0
 40
1.0
 40
1.0
 40
1.0
 10
126.8864531983
 20
159.7344556439
 30
0.0
 10
126.8758488432
 20
159.8037510118
 30
0.0
 10
126.8308505147
 20
159.9391782668
 30
0.0
 10
126.6992443628
 20
160.1055716017
 30
0.0
 10
126.5198661986
 20
160.2151558962
 30
0.0
 10
126.3820586981
 20
160.2406255019
 30
0.0
 10
126.3140625
 20
160.2406255019
 30
0.0
  0
SPLINE
  5
4FE
100
AcDbEntity
  8
RUNDUNGEN
100
AcDbSpline
 62
7
  6
CONTINUOUS
 70
0
 71
3
 72
13
 73
9
 74
0
 42
0.0000001
 43
0.0000001
 44
0.0000000001
 40
0.0
 40
0.0
 40
0.0
 40
0.0
 40
0.2689451349
 40
0.5310826577
 40
0.6571401927
 40
0.7782258718
 40
0.892955568
 40
1.0
 40
1.0
 40
1.0
 40
1.0
 10
141.9140625
 20
158.2406255019
 30
0.0
 10
141.5487865455
 20
158.4021387423
 30
0.0
 10
140.8275127755
 20
158.7210443581
 30
0.0
 10
139.9247773807
 20
159.0928205501
 30
0.0
 10
139.2117580894
 20
159.345546424
 30
0.0
 10
138.696500937
 20
159.4995142989
 30
0.0
 10
138.198573671
 20
159.6082776597
 30
0.0
 10
137.8692265256
 20
159.6406227926
 30
0.0
 10
137.7102626293
 20
159.6406255019
 30
0.0
  0
SPLINE
  5
4FF
100
AcDbEntity
  8
RUNDUNGEN
100
AcDbSpline
 62
7
  6
CONTINUOUS
 70
0
 71
3
 72
9
 73
5
 74
0
 42
0.0000001
 43
0.0000001
 44
0.0000000001
 40
0.0
 40
0.0
 40
0.0
 40
0.0
 40
0.5039319364
 40
1.0
 40
1.0
 40
1.0
 40
1.0
 10
123.4061415514
 20
159.8260356599
 30
0.0
 10
123.3784677023
 20
159.9143177671
 30
0.0
 10
123.2820900279
 20
160.0793487899
 30
0.0
 10
123.1203758325
 20
160.1822539206
 30
0.0
 10
123.0340439579
 20
160.2112594278
 30
0.0
  0
SPLINE
  5
500
100
AcDbEntity
  8
RUNDUNGEN
100
AcDbSpline
 62
7
  6
CONTINUOUS
 70
0
 71
3
 72
8
 73
4
 74
0
 42
0.0000001
 43
0.0000001
 44
0.0000000001
 40
0.0
 40
0.0
 40
0.0
 40
0.0
 40
1.0
 40
1.0
 40
1.0
 40
1.0
 10
123.0340439579
 20
160.2112594278
 30
0.0
 10
122.9766992912
 20
160.2305259056
 30
0.0
 10
122.9154462023
 20
160.2406255019
 30
0.0
 10
122.8549515086
 20
160.2406255019
 30
0.0
  0
SPLINE
  5
501
100
AcDbEntity
  8
RUNDUNGEN
100
AcDbSpline
 62
7
  6
CONTINUOUS
 70
0
 71
3
 72
12
 73
8
 74
0
 42
0.0000001
 43
0.0000001
 44
0.0000000001
 40
0.0
 40
0.0
 40
0.0
 40
0.0
 40
0.2962191674
 40
0.5675501854
 40
0.7991632341
 40
0.9022071691
 40
1.0
 40
1.0
 40
1.0
 40
1.0
 10
121.1178623679
 20
159.6406255019
 30
0.0
 10
121.117862837
 20
159.7177928915
 30
0.0
 10
121.0995166541
 20
159.8664697981
 30
0.0
 10
121.0199936402
 20
160.0615854782
 30
0.0
 10
120.9107069303
 20
160.1830716778
 30
0.0
 10
120.807891201
 20
160.2322858364
 30
0.0
 10
120.7552950968
 20
160.2406255019
 30
0.0
 10
120.7298193062
 20
160.2406255019
 30
0.0
  0
SPLINE
  5
502
100
AcDbEntity
  8
RUNDUNGEN
100
AcDbSpline
 62
7
  6
CONTINUOUS
 70
0
 71
3
 72
12
 73
8
 74
0
 42
0.0000001
 43
0.0000001
 44
0.0000000001
 40
0.0
 40
0.0
 40
0.0
 40
0.0
 40
0.296219684
 40
0.5675512259
 40
0.7991642607
 40
0.902207817
 40
1.0
 40
1.0
 40
1.0
 40
1.0
 10
112.7102626322
 20
159.6406255019
 30
0.0
 10
112.7102626296
 20
159.717792927
 30
0.0
 10
112.7286095079
 20
159.8664697934
 30
0.0
 10
112.8081328397
 20
160.0615852562
 30
0.0
 10
112.9174191292
 20
160.183071521
 30
0.0
 10
113.0202343391
 20
160.2322857942
 30
0.0
 10
113.0728301052
 20
160.2406255019
 30
0.0
 10
113.0983056943
 20
160.2406255019
 30
0.0
  0
SPLINE
  5
503
100
AcDbEntity
  8
RUNDUNGEN
100
AcDbSpline
 62
7
  6
CONTINUOUS
 70
0
 71
3
 72
13
 73
9
 74
0
 42
0.0000001
 43
0.0000001
 44
0.0000000001
 40
0.0
 40
0.0
 40
0.0
 40
0.0
 40
0.2689451349
 40
0.5310826577
 40
0.6571401927
 40
0.7782258718
 40
0.892955568
 40
1.0
 40
1.0
 40
1.0
 40
1.0
 10
66.9140625
 20
158.2406255019
 30
0.0
 10
66.5487865455
 20
158.4021387423
 30
0.0
 10
65.8275127755
 20
158.7210443581
 30
0.0
 10
64.9247773807
 20
159.0928205501
 30
0.0
 10
64.2117580894
 20
159.345546424
 30
0.0
 10
63.696500937
 20
159.4995142989
 30
0.0
 10
63.198573671
 20
159.6082776597
 30
0.0
 10
62.8692265256
 20
159.6406227926
 30
0.0
 10
62.7102626293
 20
159.6406255019
 30
0.0
  0
SPLINE
  5
504
100
AcDbEntity
  8
RUNDUNGEN
100
AcDbSpline
 62
7
  6
CONTINUOUS
 70
0
 71
3
 72
13
 73
9
 74
0
 42
0.0000001
 43
0.0000001
 44
0.0000000001
 40
0.0
 40
0.0
 40
0.0
 40
0.0
 40
0.1070434692
 40
0.2217717975
 40
0.3428575612
 40
0.4689158247
 40
0.731054363
 40
1.0
 40
1.0
 40
1.0
 40
1.0
 10
71.1178623707
 20
159.6406255019
 30
0.0
 10
70.9588999093
 20
159.6406223568
 30
0.0
 10
70.6295562015
 20
159.6082779493
 30
0.0
 10
70.1316325747
 20
159.4995139148
 30
0.0
 10
69.6163749171
 20
159.3455507893
 30
0.0
 10
68.9033535546
 20
159.0928224142
 30
0.0
 10
68.0006148758
 20
158.721045761
 30
0.0
 10
67.2793391355
 20
158.4021390141
 30
0.0
 10
66.9140625
 20
158.2406255019
 30
0.0
  0
SPLINE
  5
505
100
AcDbEntity
  8
RUNDUNGEN
100
AcDbSpline
 62
7
  6
CONTINUOUS
 70
0
 71
3
 72
9
 73
5
 74
0
 42
0.0000001
 43
0.0000001
 44
0.0000000001
 40
0.0
 40
0.0
 40
0.0
 40
0.0
 40
0.2486023977
 40
1.0
 40
1.0
 40
1.0
 40
1.0
 10
151.9140625
 20
157.156385836
 30
0.0
 10
151.9140630406
 20
157.0949099643
 30
0.0
 10
151.9117538897
 20
156.8476220058
 30
0.0
 10
151.9022934349
 20
156.6004613181
 30
0.0
 10
151.8936179958
 20
156.4148539115
 30
0.0
  0
SPLINE
  5
506
100
AcDbEntity
  8
RUNDUNGEN
100
AcDbSpline
 62
7
  6
CONTINUOUS
 70
0
 71
3
 72
13
 73
9
 74
0
 42
0.0000001
 43
0.0000001
 44
0.0000000001
 40
0.0
 40
0.0
 40
0.0
 40
0.0
 40
0.2689399865
 40
0.5310847713
 40
0.6571540885
 40
0.7782420556
 40
0.8929661596
 40
1.0
 40
1.0
 40
1.0
 40
1.0
 10
66.9140625
 20
150.2406255019
 30
0.0
 10
67.2793289737
 20
150.0791099504
 30
0.0
 10
68.0006081334
 20
149.7602087983
 30
0.0
 10
68.9033657814
 20
149.3884339645
 30
0.0
 10
69.6164086972
 20
149.1356815496
 30
0.0
 10
70.1316805406
 20
148.9817140151
 30
0.0
 10
70.6295933785
 20
148.8729919584
 30
0.0
 10
70.9589142395
 20
148.8406218931
 30
0.0
 10
71.1178623707
 20
148.8406255019
 30
0.0
  0
SPLINE
  5
507
100
AcDbEntity
  8
RUNDUNGEN
100
AcDbSpline
 62
7
  6
CONTINUOUS
 70
0
 71
3
 72
13
 73
9
 74
0
 42
0.0000001
 43
0.0000001
 44
0.0000000001
 40
0.0
 40
0.0
 40
0.0
 40
0.0
 40
0.1069683091
 40
0.2216304761
 40
0.3426883542
 40
0.4687404093
 40
0.730940168
 40
1.0
 40
1.0
 40
1.0
 40
1.0
 10
62.7102626293
 20
148.8406255019
 30
0.0
 10
62.8691131632
 20
148.8406249076
 30
0.0
 10
63.1982420979
 20
148.872993173
 30
0.0
 10
63.6959286487
 20
148.9816377314
 30
0.0
 10
64.2110676132
 20
149.1354802411
 30
0.0
 10
64.9241364186
 20
149.3881918588
 30
0.0
 10
65.8271200831
 20
149.76002923
 30
0.0
 10
66.5486328275
 20
150.0790406956
 30
0.0
 10
66.9140625
 20
150.2406255019
 30
0.0
  0
SPLINE
  5
508
100
AcDbEntity
  8
RUNDUNGEN
100
AcDbSpline
 62
7
  6
CONTINUOUS
 70
0
 71
3
 72
9
 73
5
 74
0
 42
0.0000001
 43
0.0000001
 44
0.0000000001
 40
0.0
 40
0.0
 40
0.0
 40
0.0
 40
0.5039319356
 40
1.0
 40
1.0
 40
1.0
 40
1.0
 10
110.4219834607
 20
159.8260356985
 30
0.0
 10
110.4496573111
 20
159.9143177896
 30
0.0
 10
110.5460349739
 20
160.0793487806
 30
0.0
 10
110.7077491359
 20
160.1822539015
 30
0.0
 10
110.7940809942
 20
160.2112594117
 30
0.0
  0
SPLINE
  5
509
100
AcDbEntity
  8
RUNDUNGEN
100
AcDbSpline
 62
7
  6
CONTINUOUS
 70
0
 71
3
 72
8
 73
4
 74
0
 42
0.0000001
 43
0.0000001
 44
0.0000000001
 40
0.0
 40
0.0
 40
0.0
 40
0.0
 40
1.0
 40
1.0
 40
1.0
 40
1.0
 10
110.7940809942
 20
160.2112594117
 30
0.0
 10
110.851425675
 20
160.2305258999
 30
0.0
 10
110.9126787811
 20
160.2406255019
 30
0.0
 10
110.9731734915
 20
160.2406255019
 30
0.0
  0
SPLINE
  5
50A
100
AcDbEntity
  8
RUNDUNGEN
100
AcDbSpline
 62
7
  6
CONTINUOUS
 70
0
 71
3
 72
11
 73
7
 74
0
 42
0.0000001
 43
0.0000001
 44
0.0000000001
 40
0.0
 40
0.0
 40
0.0
 40
0.0
 40
0.2540156189
 40
0.5053041304
 40
0.7536150349
 40
1.0
 40
1.0
 40
1.0
 40
1.0
 10
106.9416718008
 20
159.7344556381
 30
0.0
 10
106.9522761553
 20
159.8037510067
 30
0.0
 10
106.9972744831
 20
159.9391782631
 30
0.0
 10
107.128880635
 20
160.1055715999
 30
0.0
 10
107.3082588
 20
160.2151558959
 30
0.0
 10
107.4460663015
 20
160.2406255019
 30
0.0
 10
107.5140625
 20
160.2406255019
 30
0.0
  0
SPLINE
  5
50B
100
AcDbEntity
  8
RUNDUNGEN
100
AcDbSpline
 62
7
  6
CONTINUOUS
 70
0
 71
3
 72
13
 73
9
 74
0
 42
0.0000001
 43
0.0000001
 44
0.0000000001
 40
0.0
 40
0.0
 40
0.0
 40
0.0
 40
0.1070434692
 40
0.2217717975
 40
0.3428575612
 40
0.4689158247
 40
0.731054363
 40
1.0
 40
1.0
 40
1.0
 40
1.0
 10
146.1178623707
 20
159.6406255019
 30
0.0
 10
145.9588999093
 20
159.6406223568
 30
0.0
 10
145.6295562015
 20
159.6082779493
 30
0.0
 10
145.1316325747
 20
159.4995139148
 30
0.0
 10
144.6163749171
 20
159.3455507893
 30
0.0
 10
143.9033535546
 20
159.0928224142
 30
0.0
 10
143.0006148758
 20
158.721045761
 30
0.0
 10
142.2793391355
 20
158.4021390141
 30
0.0
 10
141.9140625
 20
158.2406255019
 30
0.0
  0
SPLINE
  5
50C
100
AcDbEntity
  8
RUNDUNGEN
100
AcDbSpline
 62
7
  6
CONTINUOUS
 70
0
 71
3
 72
12
 73
8
 74
0
 42
0.0000001
 43
0.0000001
 44
0.0000000001
 40
0.0
 40
0.0
 40
0.0
 40
0.0
 40
0.2962196835
 40
0.5675512251
 40
0.79916426
 40
0.9022078166
 40
1.0
 40
1.0
 40
1.0
 40
1.0
 10
146.1178623679
 20
148.8406255019
 30
0.0
 10
146.1178623703
 20
148.763458077
 30
0.0
 10
146.0995154919
 20
148.6147812109
 30
0.0
 10
146.0199921603
 20
148.4196657483
 30
0.0
 10
145.9107058713
 20
148.298179483
 30
0.0
 10
145.8078906611
 20
148.2489652098
 30
0.0
 10
145.7552948949
 20
148.2406255019
 30
0.0
 10
145.7298193057
 20
148.2406255019
 30
0.0
  0
SPLINE
  5
50D
100
AcDbEntity
  8
RUNDUNGEN
100
AcDbSpline
 62
7
  6
CONTINUOUS
 70
0
 71
3
 72
13
 73
9
 74
0
 42
0.0000001
 43
0.0000001
 44
0.0000000001
 40
0.0
 40
0.0
 40
0.0
 40
0.0
 40
0.2689451349
 40
0.5310826577
 40
0.6571401927
 40
0.7782258718
 40
0.892955568
 40
1.0
 40
1.0
 40
1.0
 40
1.0
 10
91.9140625
 20
158.2406255019
 30
0.0
 10
91.5487865455
 20
158.4021387423
 30
0.0
 10
90.8275127755
 20
158.7210443581
 30
0.0
 10
89.9247773807
 20
159.0928205501
 30
0.0
 10
89.2117580894
 20
159.345546424
 30
0.0
 10
88.696500937
 20
159.4995142989
 30
0.0
 10
88.198573671
 20
159.6082776597
 30
0.0
 10
87.8692265256
 20
159.6406227926
 30
0.0
 10
87.7102626293
 20
159.6406255019
 30
0.0
  0
SPLINE
  5
50E
100
AcDbEntity
  8
RUNDUNGEN
100
AcDbSpline
 62
7
  6
CONTINUOUS
 70
0
 71
3
 72
13
 73
9
 74
0
 42
0.0000001
 43
0.0000001
 44
0.0000000001
 40
0.0
 40
0.0
 40
0.0
 40
0.0
 40
0.1070434692
 40
0.2217717975
 40
0.3428575612
 40
0.4689158247
 40
0.731054363
 40
1.0
 40
1.0
 40
1.0
 40
1.0
 10
96.1178623707
 20
159.6406255019
 30
0.0
 10
95.9588999093
 20
159.6406223568
 30
0.0
 10
95.6295562015
 20
159.6082779493
 30
0.0
 10
95.1316325747
 20
159.4995139148
 30
0.0
 10
94.6163749171
 20
159.3455507893
 30
0.0
 10
93.9033535546
 20
159.0928224142
 30
0.0
 10
93.0006148758
 20
158.721045761
 30
0.0
 10
92.2793391355
 20
158.4021390141
 30
0.0
 10
91.9140625
 20
158.2406255019
 30
0.0
  0
SPLINE
  5
50F
100
AcDbEntity
  8
RUNDUNGEN
100
AcDbSpline
 62
7
  6
CONTINUOUS
 70
0
 71
3
 72
9
 73
5
 74
0
 42
0.0000001
 43
0.0000001
 44
0.0000000001
 40
0.0
 40
0.0
 40
0.0
 40
0.0
 40
0.5039319356
 40
1.0
 40
1.0
 40
1.0
 40
1.0
 10
148.4061415393
 20
148.6552153053
 30
0.0
 10
148.3784676889
 20
148.5669332142
 30
0.0
 10
148.2820900261
 20
148.4019022232
 30
0.0
 10
148.1203758641
 20
148.2989971024
 30
0.0
 10
148.0340440058
 20
148.2699915922
 30
0.0
  0
SPLINE
  5
510
100
AcDbEntity
  8
RUNDUNGEN
100
AcDbSpline
 62
7
  6
CONTINUOUS
 70
0
 71
3
 72
8
 73
4
 74
0
 42
0.0000001
 43
0.0000001
 44
0.0000000001
 40
0.0
 40
0.0
 40
0.0
 40
0.0
 40
1.0
 40
1.0
 40
1.0
 40
1.0
 10
148.0340440058
 20
148.2699915922
 30
0.0
 10
147.976699325
 20
148.250725104
 30
0.0
 10
147.9154462189
 20
148.2406255019
 30
0.0
 10
147.8549515085
 20
148.2406255019
 30
0.0
  0
SPLINE
  5
511
100
AcDbEntity
  8
RUNDUNGEN
100
AcDbSpline
 62
7
  6
CONTINUOUS
 70
0
 71
3
 72
11
 73
7
 74
0
 42
0.0000001
 43
0.0000001
 44
0.0000000001
 40
0.0
 40
0.0
 40
0.0
 40
0.0
 40
0.2540156189
 40
0.5053041304
 40
0.7536150349
 40
1.0
 40
1.0
 40
1.0
 40
1.0
 10
151.8864531992
 20
148.7467953657
 30
0.0
 10
151.8758488447
 20
148.6774999972
 30
0.0
 10
151.8308505169
 20
148.5420727408
 30
0.0
 10
151.699244365
 20
148.375679404
 30
0.0
 10
151.5198662
 20
148.2660951079
 30
0.0
 10
151.3820586985
 20
148.2406255019
 30
0.0
 10
151.3140625
 20
148.2406255019
 30
0.0
  0
SPLINE
  5
512
100
AcDbEntity
  8
RUNDUNGEN
100
AcDbSpline
 62
7
  6
CONTINUOUS
 70
0
 71
3
 72
9
 73
5
 74
0
 42
0.0000001
 43
0.0000001
 44
0.0000000001
 40
0.0
 40
0.0
 40
0.0
 40
0.0
 40
0.2438395723
 40
1.0
 40
1.0
 40
1.0
 40
1.0
 10
76.8936179958
 20
156.4148539115
 30
0.0
 10
76.8771495574
 20
156.2386829559
 30
0.0
 10
76.8187532876
 20
155.5153615069
 30
0.0
 10
76.7949149503
 20
154.7893234841
 30
0.0
 10
76.794903197
 20
154.2406255019
 30
0.0
  0
SPLINE
  5
513
100
AcDbEntity
  8
RUNDUNGEN
100
AcDbSpline
 62
7
  6
CONTINUOUS
 70
0
 71
3
 72
9
 73
5
 74
0
 42
0.0000001
 43
0.0000001
 44
0.0000000001
 40
0.0
 40
0.0
 40
0.0
 40
0.0
 40
0.2544602463
 40
1.0
 40
1.0
 40
1.0
 40
1.0
 10
76.794903197
 20
154.2406255019
 30
0.0
 10
76.7949073827
 20
154.0559806499
 30
0.0
 10
76.8030938775
 20
153.3303847214
 30
0.0
 10
76.8432672558
 20
152.6050374224
 30
0.0
 10
76.8936179958
 20
152.0663970923
 30
0.0
  0
SPLINE
  5
514
100
AcDbEntity
  8
RUNDUNGEN
100
AcDbSpline
 62
7
  6
CONTINUOUS
 70
0
 71
3
 72
13
 73
9
 74
0
 42
0.0000001
 43
0.0000001
 44
0.0000000001
 40
0.0
 40
0.0
 40
0.0
 40
0.0
 40
0.2689399865
 40
0.5310847713
 40
0.6571540885
 40
0.7782420556
 40
0.8929661596
 40
1.0
 40
1.0
 40
1.0
 40
1.0
 10
91.9140625
 20
150.2406255019
 30
0.0
 10
92.2793289737
 20
150.0791099504
 30
0.0
 10
93.0006081334
 20
149.7602087983
 30
0.0
 10
93.9033657814
 20
149.3884339645
 30
0.0
 10
94.6164086972
 20
149.1356815496
 30
0.0
 10
95.1316805406
 20
148.9817140151
 30
0.0
 10
95.6295933785
 20
148.8729919584
 30
0.0
 10
95.9589142395
 20
148.8406218931
 30
0.0
 10
96.1178623707
 20
148.8406255019
 30
0.0
  0
SPLINE
  5
515
100
AcDbEntity
  8
RUNDUNGEN
100
AcDbSpline
 62
7
  6
CONTINUOUS
 70
0
 71
3
 72
13
 73
9
 74
0
 42
0.0000001
 43
0.0000001
 44
0.0000000001
 40
0.0
 40
0.0
 40
0.0
 40
0.0
 40
0.1069683091
 40
0.2216304761
 40
0.3426883542
 40
0.4687404093
 40
0.730940168
 40
1.0
 40
1.0
 40
1.0
 40
1.0
 10
87.7102626293
 20
148.8406255019
 30
0.0
 10
87.8691131632
 20
148.8406249076
 30
0.0
 10
88.1982420979
 20
148.872993173
 30
0.0
 10
88.6959286487
 20
148.9816377314
 30
0.0
 10
89.2110676132
 20
149.1354802411
 30
0.0
 10
89.9241364186
 20
149.3881918588
 30
0.0
 10
90.8271200831
 20
149.76002923
 30
0.0
 10
91.5486328275
 20
150.0790406956
 30
0.0
 10
91.9140625
 20
150.2406255019
 30
0.0
  0
SPLINE
  5
516
100
AcDbEntity
  8
RUNDUNGEN
100
AcDbSpline
 62
7
  6
CONTINUOUS
 70
0
 71
3
 72
11
 73
7
 74
0
 42
0.0000001
 43
0.0000001
 44
0.0000000001
 40
0.0
 40
0.0
 40
0.0
 40
0.0
 40
0.2540156189
 40
0.5053041303
 40
0.7536150347
 40
1.0
 40
1.0
 40
1.0
 40
1.0
 10
131.9416718017
 20
148.74679536
 30
0.0
 10
131.9522761568
 20
148.677499992
 30
0.0
 10
131.9972744853
 20
148.542072737
 30
0.0
 10
132.1288806372
 20
148.3756794022
 30
0.0
 10
132.3082588014
 20
148.2660951076
 30
0.0
 10
132.4460663019
 20
148.2406255019
 30
0.0
 10
132.5140625
 20
148.2406255019
 30
0.0
  0
SPLINE
  5
517
100
AcDbEntity
  8
RUNDUNGEN
100
AcDbSpline
 62
7
  6
CONTINUOUS
 70
0
 71
3
 72
9
 73
5
 74
0
 42
0.0000001
 43
0.0000001
 44
0.0000000001
 40
0.0
 40
0.0
 40
0.0
 40
0.0
 40
0.5039319364
 40
1.0
 40
1.0
 40
1.0
 40
1.0
 10
135.4219834486
 20
148.6552153439
 30
0.0
 10
135.4496572977
 20
148.5669332367
 30
0.0
 10
135.5460349721
 20
148.401902214
 30
0.0
 10
135.7077491675
 20
148.2989970832
 30
0.0
 10
135.7940810421
 20
148.269991576
 30
0.0
  0
SPLINE
  5
518
100
AcDbEntity
  8
RUNDUNGEN
100
AcDbSpline
 62
7
  6
CONTINUOUS
 70
0
 71
3
 72
8
 73
4
 74
0
 42
0.0000001
 43
0.0000001
 44
0.0000000001
 40
0.0
 40
0.0
 40
0.0
 40
0.0
 40
1.0
 40
1.0
 40
1.0
 40
1.0
 10
135.7940810421
 20
148.269991576
 30
0.0
 10
135.8514257088
 20
148.2507250982
 30
0.0
 10
135.9126787977
 20
148.2406255019
 30
0.0
 10
135.9731734914
 20
148.2406255019
 30
0.0
  0
SPLINE
  5
519
100
AcDbEntity
  8
RUNDUNGEN
100
AcDbSpline
 62
7
  6
CONTINUOUS
 70
0
 71
3
 72
13
 73
9
 74
0
 42
0.0000001
 43
0.0000001
 44
0.0000000001
 40
0.0
 40
0.0
 40
0.0
 40
0.0
 40
0.2824925649
 40
0.5528264228
 40
0.6791448067
 40
0.7968956515
 40
0.9041821132
 40
1.0
 40
1.0
 40
1.0
 40
1.0
 10
66.9140625
 20
158.2406255019
 30
0.0
 10
66.5774879248
 20
158.474823594
 30
0.0
 10
65.9189188685
 20
158.9331123803
 30
0.0
 10
65.0907889328
 20
159.4693127289
 30
0.0
 10
64.4373965347
 20
159.8313838777
 30
0.0
 10
63.9742684331
 20
160.0466888725
 30
0.0
 10
63.5321160702
 20
160.1961694476
 30
0.0
 10
63.2374120411
 20
160.240626755
 30
0.0
 10
63.098332352
 20
160.2406255017
 30
0.0
  0
SPLINE
  5
51A
100
AcDbEntity
  8
RUNDUNGEN
100
AcDbSpline
 62
7
  6
CONTINUOUS
 70
0
 71
3
 72
13
 73
9
 74
0
 42
0.0000001
 43
0.0000001
 44
0.0000000001
 40
0.0
 40
0.0
 40
0.0
 40
0.0
 40
0.095816337
 40
0.203100596
 40
0.320851409
 40
0.4471708533
 40
0.7175064746
 40
1.0
 40
1.0
 40
1.0
 40
1.0
 10
70.7297983381
 20
160.2406255018
 30
0.0
 10
70.590720717
 20
160.2406264887
 30
0.0
 10
70.2960212779
 20
160.1961737224
 30
0.0
 10
69.8538738975
 20
160.0466931262
 30
0.0
 10
69.3907443381
 20
159.8313941257
 30
0.0
 10
68.7373478434
 20
159.4693195553
 30
0.0
 10
67.9092117969
 20
158.9331164641
 30
0.0
 10
67.2506385148
 20
158.4748249019
 30
0.0
 10
66.9140625
 20
158.2406255019
 30
0.0
  0
SPLINE
  5
51B
100
AcDbEntity
  8
RUNDUNGEN
100
AcDbSpline
 62
7
  6
CONTINUOUS
 70
0
 71
3
 72
13
 73
9
 74
0
 42
0.0000001
 43
0.0000001
 44
0.0000000001
 40
0.0
 40
0.0
 40
0.0
 40
0.0
 40
0.0957067944
 40
0.2028820647
 40
0.3205805855
 40
0.4468806579
 40
0.7173105919
 40
1.0
 40
1.0
 40
1.0
 40
1.0
 10
63.0983115276
 20
148.2406255019
 30
0.0
 10
63.2372304737
 20
148.2406252128
 30
0.0
 10
63.5316205409
 20
148.2849630169
 30
0.0
 10
63.9734054793
 20
148.434293864
 30
0.0
 10
64.4363621654
 20
148.6493388643
 30
0.0
 10
65.0898307637
 20
149.0113619505
 30
0.0
 10
65.9183359032
 20
149.5477230695
 30
0.0
 10
66.5772482363
 20
150.0062690102
 30
0.0
 10
66.9140625
 20
150.2406255019
 30
0.0
  0
SPLINE
  5
51C
100
AcDbEntity
  8
RUNDUNGEN
100
AcDbSpline
 62
7
  6
CONTINUOUS
 70
0
 71
3
 72
13
 73
9
 74
0
 42
0.0000001
 43
0.0000001
 44
0.0000000001
 40
0.0
 40
0.0
 40
0.0
 40
0.0
 40
0.2824846122
 40
0.5528323978
 40
0.6791688534
 40
0.7969222272
 40
0.9041979321
 40
1.0
 40
1.0
 40
1.0
 40
1.0
 10
66.9140625
 20
150.2406255019
 30
0.0
 10
67.2506279234
 20
150.0064299083
 30
0.0
 10
67.9092105614
 20
149.5481361599
 30
0.0
 10
68.7373792357
 20
149.0119207689
 30
0.0
 10
69.3908140722
 20
148.6498131011
 30
0.0
 10
69.8539645138
 20
148.4345116146
 30
0.0
 10
70.2960933354
 20
148.2850659397
 30
0.0
 10
70.590761695
 20
148.2406137195
 30
0.0
 10
70.7298193057
 20
148.2406255019
 30
0.0
  0
SPLINE
  5
51D
100
AcDbEntity
  8
RUNDUNGEN
100
AcDbSpline
 62
7
  6
CONTINUOUS
 70
0
 71
3
 72
12
 73
8
 74
0
 42
0.0000001
 43
0.0000001
 44
0.0000000001
 40
0.0
 40
0.0
 40
0.0
 40
0.0
 40
0.2962196066
 40
0.5675511006
 40
0.7991641896
 40
0.9022077967
 40
1.0
 40
1.0
 40
1.0
 40
1.0
 10
137.7102626322
 20
148.8406255019
 30
0.0
 10
137.7102626329
 20
148.7634580979
 30
0.0
 10
137.7286095026
 20
148.6147812655
 30
0.0
 10
137.8081328083
 20
148.4196658221
 30
0.0
 10
137.9174190792
 20
148.2981795132
 30
0.0
 10
138.0202343197
 20
148.2489652345
 30
0.0
 10
138.0728301002
 20
148.2406255019
 30
0.0
 10
138.0983056943
 20
148.2406255019
 30
0.0
  0
SPLINE
  5
51E
100
AcDbEntity
  8
RUNDUNGEN
100
AcDbSpline
 62
7
  6
CONTINUOUS
 70
0
 71
3
 72
11
 73
7
 74
0
 42
0.0000001
 43
0.0000001
 44
0.0000000001
 40
0.0
 40
0.0
 40
0.0
 40
0.0
 40
0.2540156189
 40
0.5053041303
 40
0.7536150347
 40
1.0
 40
1.0
 40
1.0
 40
1.0
 10
151.8864531983
 20
159.7344556439
 30
0.0
 10
151.8758488432
 20
159.8037510118
 30
0.0
 10
151.8308505147
 20
159.9391782668
 30
0.0
 10
151.6992443628
 20
160.1055716017
 30
0.0
 10
151.5198661986
 20
160.2151558962
 30
0.0
 10
151.3820586981
 20
160.2406255019
 30
0.0
 10
151.3140625
 20
160.2406255019
 30
0.0
  0
SPLINE
  5
51F
100
AcDbEntity
  8
RUNDUNGEN
100
AcDbSpline
 62
7
  6
CONTINUOUS
 70
0
 71
3
 72
9
 73
5
 74
0
 42
0.0000001
 43
0.0000001
 44
0.0000000001
 40
0.0
 40
0.0
 40
0.0
 40
0.0
 40
0.5039319364
 40
1.0
 40
1.0
 40
1.0
 40
1.0
 10
148.4061415514
 20
159.8260356599
 30
0.0
 10
148.3784677023
 20
159.9143177671
 30
0.0
 10
148.2820900279
 20
160.0793487899
 30
0.0
 10
148.1203758325
 20
160.1822539206
 30
0.0
 10
148.0340439579
 20
160.2112594278
 30
0.0
  0
SPLINE
  5
520
100
AcDbEntity
  8
RUNDUNGEN
100
AcDbSpline
 62
7
  6
CONTINUOUS
 70
0
 71
3
 72
8
 73
4
 74
0
 42
0.0000001
 43
0.0000001
 44
0.0000000001
 40
0.0
 40
0.0
 40
0.0
 40
0.0
 40
1.0
 40
1.0
 40
1.0
 40
1.0
 10
148.0340439579
 20
160.2112594278
 30
0.0
 10
147.9766992912
 20
160.2305259056
 30
0.0
 10
147.9154462023
 20
160.2406255019
 30
0.0
 10
147.8549515086
 20
160.2406255019
 30
0.0
  0
SPLINE
  5
521
100
AcDbEntity
  8
RUNDUNGEN
100
AcDbSpline
 62
7
  6
CONTINUOUS
 70
0
 71
3
 72
9
 73
5
 74
0
 42
0.0000001
 43
0.0000001
 44
0.0000000001
 40
0.0
 40
0.0
 40
0.0
 40
0.0
 40
0.2438395723
 40
1.0
 40
1.0
 40
1.0
 40
1.0
 10
101.8936179958
 20
156.4148539115
 30
0.0
 10
101.8771495574
 20
156.2386829559
 30
0.0
 10
101.8187532876
 20
155.5153615069
 30
0.0
 10
101.7949149503
 20
154.7893234841
 30
0.0
 10
101.794903197
 20
154.2406255019
 30
0.0
  0
SPLINE
  5
522
100
AcDbEntity
  8
RUNDUNGEN
100
AcDbSpline
 62
7
  6
CONTINUOUS
 70
0
 71
3
 72
9
 73
5
 74
0
 42
0.0000001
 43
0.0000001
 44
0.0000000001
 40
0.0
 40
0.0
 40
0.0
 40
0.0
 40
0.2544602463
 40
1.0
 40
1.0
 40
1.0
 40
1.0
 10
101.794903197
 20
154.2406255019
 30
0.0
 10
101.7949073827
 20
154.0559806499
 30
0.0
 10
101.8030938775
 20
153.3303847214
 30
0.0
 10
101.8432672558
 20
152.6050374224
 30
0.0
 10
101.8936179958
 20
152.0663970923
 30
0.0
  0
SPLINE
  5
523
100
AcDbEntity
  8
RUNDUNGEN
100
AcDbSpline
 62
7
  6
CONTINUOUS
 70
0
 71
3
 72
12
 73
8
 74
0
 42
0.0000001
 43
0.0000001
 44
0.0000000001
 40
0.0
 40
0.0
 40
0.0
 40
0.0
 40
0.2962191674
 40
0.5675501854
 40
0.7991632341
 40
0.9022071691
 40
1.0
 40
1.0
 40
1.0
 40
1.0
 10
146.1178623679
 20
159.6406255019
 30
0.0
 10
146.117862837
 20
159.7177928915
 30
0.0
 10
146.0995166541
 20
159.8664697981
 30
0.0
 10
146.0199936402
 20
160.0615854782
 30
0.0
 10
145.9107069303
 20
160.1830716778
 30
0.0
 10
145.807891201
 20
160.2322858364
 30
0.0
 10
145.7552950968
 20
160.2406255019
 30
0.0
 10
145.7298193062
 20
160.2406255019
 30
0.0
  0
SPLINE
  5
524
100
AcDbEntity
  8
RUNDUNGEN
100
AcDbSpline
 62
7
  6
CONTINUOUS
 70
0
 71
3
 72
12
 73
8
 74
0
 42
0.0000001
 43
0.0000001
 44
0.0000000001
 40
0.0
 40
0.0
 40
0.0
 40
0.0
 40
0.296219684
 40
0.5675512259
 40
0.7991642607
 40
0.902207817
 40
1.0
 40
1.0
 40
1.0
 40
1.0
 10
137.7102626322
 20
159.6406255019
 30
0.0
 10
137.7102626296
 20
159.717792927
 30
0.0
 10
137.7286095079
 20
159.8664697934
 30
0.0
 10
137.8081328397
 20
160.0615852562
 30
0.0
 10
137.9174191292
 20
160.183071521
 30
0.0
 10
138.0202343391
 20
160.2322857942
 30
0.0
 10
138.0728301052
 20
160.2406255019
 30
0.0
 10
138.0983056943
 20
160.2406255019
 30
0.0
  0
SPLINE
  5
525
100
AcDbEntity
  8
RUNDUNGEN
100
AcDbSpline
 62
7
  6
CONTINUOUS
 70
0
 71
3
 72
12
 73
8
 74
0
 42
0.0000001
 43
0.0000001
 44
0.0000000001
 40
0.0
 40
0.0
 40
0.0
 40
0.0
 40
0.2962196835
 40
0.5675512251
 40
0.79916426
 40
0.9022078166
 40
1.0
 40
1.0
 40
1.0
 40
1.0
 10
71.1178623679
 20
148.8406255019
 30
0.0
 10
71.1178623703
 20
148.763458077
 30
0.0
 10
71.0995154919
 20
148.6147812109
 30
0.0
 10
71.0199921603
 20
148.4196657483
 30
0.0
 10
70.9107058713
 20
148.298179483
 30
0.0
 10
70.8078906611
 20
148.2489652098
 30
0.0
 10
70.7552948949
 20
148.2406255019
 30
0.0
 10
70.7298193057
 20
148.2406255019
 30
0.0
  0
SPLINE
  5
526
100
AcDbEntity
  8
RUNDUNGEN
100
AcDbSpline
 62
7
  6
CONTINUOUS
 70
0
 71
3
 72
9
 73
5
 74
0
 42
0.0000001
 43
0.0000001
 44
0.0000000001
 40
0.0
 40
0.0
 40
0.0
 40
0.0
 40
0.2438397076
 40
1.0
 40
1.0
 40
1.0
 40
1.0
 10
106.9345070042
 20
152.0663970923
 30
0.0
 10
106.9509750699
 20
152.2425681809
 30
0.0
 10
107.0093721051
 20
152.9658895622
 30
0.0
 10
107.0332093689
 20
153.6919276193
 30
0.0
 10
107.033221803
 20
154.2406255019
 30
0.0
  0
SPLINE
  5
527
100
AcDbEntity
  8
RUNDUNGEN
100
AcDbSpline
 62
7
  6
CONTINUOUS
 70
0
 71
3
 72
9
 73
5
 74
0
 42
0.0000001
 43
0.0000001
 44
0.0000000001
 40
0.0
 40
0.0
 40
0.0
 40
0.0
 40
0.5039319356
 40
1.0
 40
1.0
 40
1.0
 40
1.0
 10
135.4219834607
 20
159.8260356985
 30
0.0
 10
135.4496573111
 20
159.9143177896
 30
0.0
 10
135.5460349739
 20
160.0793487806
 30
0.0
 10
135.7077491359
 20
160.1822539015
 30
0.0
 10
135.7940809942
 20
160.2112594117
 30
0.0
  0
SPLINE
  5
528
100
AcDbEntity
  8
RUNDUNGEN
100
AcDbSpline
 62
7
  6
CONTINUOUS
 70
0
 71
3
 72
8
 73
4
 74
0
 42
0.0000001
 43
0.0000001
 44
0.0000000001
 40
0.0
 40
0.0
 40
0.0
 40
0.0
 40
1.0
 40
1.0
 40
1.0
 40
1.0
 10
135.7940809942
 20
160.2112594117
 30
0.0
 10
135.851425675
 20
160.2305258999
 30
0.0
 10
135.9126787811
 20
160.2406255019
 30
0.0
 10
135.9731734915
 20
160.2406255019
 30
0.0
  0
SPLINE
  5
529
100
AcDbEntity
  8
RUNDUNGEN
100
AcDbSpline
 62
7
  6
CONTINUOUS
 70
0
 71
3
 72
9
 73
5
 74
0
 42
0.0000001
 43
0.0000001
 44
0.0000000001
 40
0.0
 40
0.0
 40
0.0
 40
0.0
 40
0.2544602361
 40
1.0
 40
1.0
 40
1.0
 40
1.0
 10
107.033221803
 20
154.2406255019
 30
0.0
 10
107.0332178545
 20
154.4252703452
 30
0.0
 10
107.025029598
 20
155.1508662353
 30
0.0
 10
106.9848589241
 20
155.8762136886
 30
0.0
 10
106.9345070042
 20
156.4148539115
 30
0.0
  0
SPLINE
  5
52A
100
AcDbEntity
  8
RUNDUNGEN
100
AcDbSpline
 62
7
  6
CONTINUOUS
 70
0
 71
3
 72
11
 73
7
 74
0
 42
0.0000001
 43
0.0000001
 44
0.0000000001
 40
0.0
 40
0.0
 40
0.0
 40
0.0
 40
0.2540156189
 40
0.5053041304
 40
0.7536150349
 40
1.0
 40
1.0
 40
1.0
 40
1.0
 10
131.9416718008
 20
159.7344556381
 30
0.0
 10
131.9522761553
 20
159.8037510067
 30
0.0
 10
131.9972744831
 20
159.9391782631
 30
0.0
 10
132.128880635
 20
160.1055715999
 30
0.0
 10
132.3082588
 20
160.2151558959
 30
0.0
 10
132.4460663015
 20
160.2406255019
 30
0.0
 10
132.5140625
 20
160.2406255019
 30
0.0
  0
SPLINE
  5
52B
100
AcDbEntity
  8
RUNDUNGEN
100
AcDbSpline
 62
7
  6
CONTINUOUS
 70
0
 71
3
 72
11
 73
7
 74
0
 42
0.0000001
 43
0.0000001
 44
0.0000000001
 40
0.0
 40
0.0
 40
0.0
 40
0.0
 40
0.221888556
 40
0.462009086
 40
0.7242526164
 40
1.0
 40
1.0
 40
1.0
 40
1.0
 10
77.5140625
 20
160.2406255019
 30
0.0
 10
77.44584358
 20
160.2406248507
 30
0.0
 10
77.3025839579
 20
160.2094237427
 30
0.0
 10
77.114954894
 20
160.0816263431
 30
0.0
 10
76.9661067872
 20
159.8906119486
 30
0.0
 10
76.9140611447
 20
159.7254031445
 30
0.0
 10
76.9140625
 20
159.6406255019
 30
0.0
  0
SPLINE
  5
52C
100
AcDbEntity
  8
RUNDUNGEN
100
AcDbSpline
 62
7
  6
CONTINUOUS
 70
0
 71
3
 72
9
 73
5
 74
0
 42
0.0000001
 43
0.0000001
 44
0.0000000001
 40
0.0
 40
0.0
 40
0.0
 40
0.0
 40
0.5039319356
 40
1.0
 40
1.0
 40
1.0
 40
1.0
 10
73.4061415393
 20
148.6552153053
 30
0.0
 10
73.3784676889
 20
148.5669332142
 30
0.0
 10
73.2820900261
 20
148.4019022232
 30
0.0
 10
73.1203758641
 20
148.2989971024
 30
0.0
 10
73.0340440058
 20
148.2699915922
 30
0.0
  0
SPLINE
  5
52D
100
AcDbEntity
  8
RUNDUNGEN
100
AcDbSpline
 62
7
  6
CONTINUOUS
 70
0
 71
3
 72
8
 73
4
 74
0
 42
0.0000001
 43
0.0000001
 44
0.0000000001
 40
0.0
 40
0.0
 40
0.0
 40
0.0
 40
1.0
 40
1.0
 40
1.0
 40
1.0
 10
73.0340440058
 20
148.2699915922
 30
0.0
 10
72.976699325
 20
148.250725104
 30
0.0
 10
72.9154462189
 20
148.2406255019
 30
0.0
 10
72.8549515085
 20
148.2406255019
 30
0.0
  0
SPLINE
  5
52E
100
AcDbEntity
  8
RUNDUNGEN
100
AcDbSpline
 62
7
  6
CONTINUOUS
 70
0
 71
3
 72
11
 73
7
 74
0
 42
0.0000001
 43
0.0000001
 44
0.0000000001
 40
0.0
 40
0.0
 40
0.0
 40
0.0
 40
0.2540156189
 40
0.5053041304
 40
0.7536150349
 40
1.0
 40
1.0
 40
1.0
 40
1.0
 10
76.8864531992
 20
148.7467953657
 30
0.0
 10
76.8758488447
 20
148.6774999972
 30
0.0
 10
76.8308505169
 20
148.5420727408
 30
0.0
 10
76.699244365
 20
148.375679404
 30
0.0
 10
76.5198662
 20
148.2660951079
 30
0.0
 10
76.3820586985
 20
148.2406255019
 30
0.0
 10
76.3140625
 20
148.2406255019
 30
0.0
  0
SPLINE
  5
52F
100
AcDbEntity
  8
RUNDUNGEN
100
AcDbSpline
 62
7
  6
CONTINUOUS
 70
0
 71
3
 72
13
 73
9
 74
0
 42
0.0000001
 43
0.0000001
 44
0.0000000001
 40
0.0
 40
0.0
 40
0.0
 40
0.0
 40
0.0751852984
 40
0.1610364026
 40
0.2633712672
 40
0.383773579
 40
0.672312356
 40
1.0
 40
1.0
 40
1.0
 40
1.0
 10
76.9140625
 20
157.1563858354
 30
0.0
 10
76.9140625001
 20
157.1387574353
 30
0.0
 10
76.9233385028
 20
157.1007437533
 30
0.0
 10
76.960280725
 20
157.0499686421
 30
0.0
 10
77.0174812552
 20
157.0046718183
 30
0.0
 10
77.1241827073
 20
156.9489696765
 30
0.0
 10
77.2925685016
 20
156.9033325856
 30
0.0
 10
77.4372308714
 20
156.8913166784
 30
0.0
 10
77.5140625
 20
156.8913167082
 30
0.0
  0
SPLINE
  5
530
100
AcDbEntity
  8
RUNDUNGEN
100
AcDbSpline
 62
7
  6
CONTINUOUS
 70
0
 71
3
 72
9
 73
5
 74
0
 42
0.0000001
 43
0.0000001
 44
0.0000000001
 40
0.0
 40
0.0
 40
0.0
 40
0.0
 40
0.2547799894
 40
1.0
 40
1.0
 40
1.0
 40
1.0
 10
106.3549515085
 20
156.2171967834
 30
0.0
 10
106.3490842138
 20
156.2742635218
 30
0.0
 10
106.3275470998
 20
156.4983623857
 30
0.0
 10
106.3140568807
 20
156.7235191604
 30
0.0
 10
106.3140625
 20
156.8913167147
 30
0.0
  0
SPLINE
  5
531
100
AcDbEntity
  8
RUNDUNGEN
100
AcDbSpline
 62
7
  6
CONTINUOUS
 70
0
 71
3
 72
9
 73
5
 74
0
 42
0.0000001
 43
0.0000001
 44
0.0000000001
 40
0.0
 40
0.0
 40
0.0
 40
0.0
 40
0.2438397076
 40
1.0
 40
1.0
 40
1.0
 40
1.0
 10
56.9345070042
 20
152.0663970923
 30
0.0
 10
56.9509750699
 20
152.2425681809
 30
0.0
 10
57.0093721051
 20
152.9658895622
 30
0.0
 10
57.0332093689
 20
153.6919276193
 30
0.0
 10
57.033221803
 20
154.2406255019
 30
0.0
  0
SPLINE
  5
532
100
AcDbEntity
  8
RUNDUNGEN
100
AcDbSpline
 62
7
  6
CONTINUOUS
 70
0
 71
3
 72
9
 73
5
 74
0
 42
0.0000001
 43
0.0000001
 44
0.0000000001
 40
0.0
 40
0.0
 40
0.0
 40
0.0
 40
0.2544602361
 40
1.0
 40
1.0
 40
1.0
 40
1.0
 10
57.033221803
 20
154.2406255019
 30
0.0
 10
57.0332178545
 20
154.4252703452
 30
0.0
 10
57.025029598
 20
155.1508662353
 30
0.0
 10
56.9848589241
 20
155.8762136886
 30
0.0
 10
56.9345070042
 20
156.4148539115
 30
0.0
  0
SPLINE
  5
533
100
AcDbEntity
  8
RUNDUNGEN
100
AcDbSpline
 62
7
  6
CONTINUOUS
 70
0
 71
3
 72
9
 73
5
 74
0
 42
0.0000001
 43
0.0000001
 44
0.0000000001
 40
0.0
 40
0.0
 40
0.0
 40
0.0
 40
0.2544636778
 40
1.0
 40
1.0
 40
1.0
 40
1.0
 10
106.4536663072
 20
154.2406255019
 30
0.0
 10
106.4536633434
 20
154.4085299509
 30
0.0
 10
106.4454703817
 20
155.0683256228
 30
0.0
 10
106.4052725587
 20
155.7278451337
 30
0.0
 10
106.3549515085
 20
156.2171967834
 30
0.0
  0
SPLINE
  5
534
100
AcDbEntity
  8
RUNDUNGEN
100
AcDbSpline
 62
7
  6
CONTINUOUS
 70
0
 71
3
 72
12
 73
8
 74
0
 42
0.0000001
 43
0.0000001
 44
0.0000000001
 40
0.0
 40
0.0
 40
0.0
 40
0.0
 40
0.0740901446
 40
0.1657844195
 40
0.3992213464
 40
0.6862278272
 40
1.0
 40
1.0
 40
1.0
 40
1.0
 10
76.8936212396
 20
156.4148539115
 30
0.0
 10
76.9026018831
 20
156.4023187167
 30
0.0
 10
76.9274367766
 20
156.3777388774
 30
0.0
 10
76.996539081
 20
156.3312019124
 30
0.0
 10
77.115332625
 20
156.282239597
 30
0.0
 10
77.2838788995
 20
156.2396197455
 30
0.0
 10
77.4080944343
 20
156.2226152779
 30
0.0
 10
77.4731734914
 20
156.2171912334
 30
0.0
  0
SPLINE
  5
535
100
AcDbEntity
  8
RUNDUNGEN
100
AcDbSpline
 62
7
  6
CONTINUOUS
 70
0
 71
3
 72
13
 73
9
 74
0
 42
0.0000001
 43
0.0000001
 44
0.0000000001
 40
0.0
 40
0.0
 40
0.0
 40
0.0
 40
0.2824925649
 40
0.5528264228
 40
0.6791448067
 40
0.7968956515
 40
0.9041821132
 40
1.0
 40
1.0
 40
1.0
 40
1.0
 10
91.9140625
 20
158.2406255019
 30
0.0
 10
91.5774879248
 20
158.474823594
 30
0.0
 10
90.9189188685
 20
158.9331123803
 30
0.0
 10
90.0907889328
 20
159.4693127289
 30
0.0
 10
89.4373965347
 20
159.8313838777
 30
0.0
 10
88.9742684331
 20
160.0466888725
 30
0.0
 10
88.5321160702
 20
160.1961694476
 30
0.0
 10
88.2374120411
 20
160.240626755
 30
0.0
 10
88.098332352
 20
160.2406255017
 30
0.0
  0
SPLINE
  5
536
100
AcDbEntity
  8
RUNDUNGEN
100
AcDbSpline
 62
7
  6
CONTINUOUS
 70
0
 71
3
 72
12
 73
8
 74
0
 42
0.0000001
 43
0.0000001
 44
0.0000000001
 40
0.0
 40
0.0
 40
0.0
 40
0.0
 40
0.0740919014
 40
0.1657880414
 40
0.3992268842
 40
0.6862317204
 40
1.0
 40
1.0
 40
1.0
 40
1.0
 10
76.8936204135
 20
152.0663970923
 30
0.0
 10
76.9026021763
 20
152.0789318419
 30
0.0
 10
76.9274388212
 20
152.1035106105
 30
0.0
 10
76.9965432895
 20
152.1500456019
 30
0.0
 10
77.1153371114
 20
152.1990062284
 30
0.0
 10
77.2838819191
 20
152.2416252831
 30
0.0
 10
77.4080955952
 20
152.258629978
 30
0.0
 10
77.4731734915
 20
152.2640543386
 30
0.0
  0
SPLINE
  5
537
100
AcDbEntity
  8
RUNDUNGEN
100
AcDbSpline
 62
7
  6
CONTINUOUS
 70
0
 71
3
 72
9
 73
5
 74
0
 42
0.0000001
 43
0.0000001
 44
0.0000000001
 40
0.0
 40
0.0
 40
0.0
 40
0.0
 40
0.2547799894
 40
1.0
 40
1.0
 40
1.0
 40
1.0
 10
56.3549515085
 20
156.2171967834
 30
0.0
 10
56.3490842138
 20
156.2742635218
 30
0.0
 10
56.3275470998
 20
156.4983623857
 30
0.0
 10
56.3140568807
 20
156.7235191604
 30
0.0
 10
56.3140625
 20
156.8913167147
 30
0.0
  0
SPLINE
  5
538
100
AcDbEntity
  8
RUNDUNGEN
100
AcDbSpline
 62
7
  6
CONTINUOUS
 70
0
 71
3
 72
9
 73
5
 74
0
 42
0.0000001
 43
0.0000001
 44
0.0000000001
 40
0.0
 40
0.0
 40
0.0
 40
0.0
 40
0.2544636778
 40
1.0
 40
1.0
 40
1.0
 40
1.0
 10
56.4536663072
 20
154.2406255019
 30
0.0
 10
56.4536633434
 20
154.4085299509
 30
0.0
 10
56.4454703817
 20
155.0683256228
 30
0.0
 10
56.4052725587
 20
155.7278451337
 30
0.0
 10
56.3549515085
 20
156.2171967834
 30
0.0
  0
SPLINE
  5
539
100
AcDbEntity
  8
RUNDUNGEN
100
AcDbSpline
 62
7
  6
CONTINUOUS
 70
0
 71
3
 72
13
 73
9
 74
0
 42
0.0000001
 43
0.0000001
 44
0.0000000001
 40
0.0
 40
0.0
 40
0.0
 40
0.0
 40
0.0751852891
 40
0.1610364264
 40
0.2633713272
 40
0.3837736725
 40
0.6723124222
 40
1.0
 40
1.0
 40
1.0
 40
1.0
 10
76.9140625
 20
151.3248651683
 30
0.0
 10
76.9140625
 20
151.3424935649
 30
0.0
 10
76.9233385358
 20
151.3805072431
 30
0.0
 10
76.9602807666
 20
151.4312823542
 30
0.0
 10
77.0174813297
 20
151.476579171
 30
0.0
 10
77.124182802
 20
151.5322812704
 30
0.0
 10
77.2925685612
 20
151.5779183601
 30
0.0
 10
77.4372308931
 20
151.589934299
 30
0.0
 10
77.5140625
 20
151.5899342999
 30
0.0
  0
SPLINE
  5
53A
100
AcDbEntity
  8
RUNDUNGEN
100
AcDbSpline
 62
7
  6
CONTINUOUS
 70
0
 71
3
 72
9
 73
5
 74
0
 42
0.0000001
 43
0.0000001
 44
0.0000000001
 40
0.0
 40
0.0
 40
0.0
 40
0.0
 40
0.243856119
 40
1.0
 40
1.0
 40
1.0
 40
1.0
 10
56.3549515085
 20
152.2640542205
 30
0.0
 10
56.3714107803
 20
152.4241163149
 30
0.0
 10
56.4297902926
 20
153.0814106055
 30
0.0
 10
56.4536570357
 20
153.7416911966
 30
0.0
 10
56.4536663072
 20
154.2406255019
 30
0.0
  0
SPLINE
  5
53B
100
AcDbEntity
  8
RUNDUNGEN
100
AcDbSpline
 62
7
  6
CONTINUOUS
 70
0
 71
3
 72
9
 73
5
 74
0
 42
0.0000001
 43
0.0000001
 44
0.0000000001
 40
0.0
 40
0.0
 40
0.0
 40
0.0
 40
0.2450382318
 40
1.0
 40
1.0
 40
1.0
 40
1.0
 10
56.3140625
 20
151.5899342891
 30
0.0
 10
56.3140553488
 20
151.6451129161
 30
0.0
 10
56.3186223449
 20
151.8703058439
 30
0.0
 10
56.3375449104
 20
152.0949425669
 30
0.0
 10
56.3549515085
 20
152.2640542205
 30
0.0
  0
SPLINE
  5
53C
100
AcDbEntity
  8
RUNDUNGEN
100
AcDbSpline
 62
7
  6
CONTINUOUS
 70
0
 71
3
 72
11
 73
7
 74
0
 42
0.0000001
 43
0.0000001
 44
0.0000000001
 40
0.0
 40
0.0
 40
0.0
 40
0.0
 40
0.2757473548
 40
0.53798971
 40
0.7781100633
 40
1.0
 40
1.0
 40
1.0
 40
1.0
 10
76.9140625
 20
148.8406255019
 30
0.0
 10
76.9140609739
 20
148.7558478985
 30
0.0
 10
76.9661076069
 20
148.5906398202
 30
0.0
 10
77.1149543052
 20
148.3996252575
 30
0.0
 10
77.3025833249
 20
148.2718277216
 30
0.0
 10
77.4458431799
 20
148.2406263231
 30
0.0
 10
77.5140625
 20
148.2406255019
 30
0.0
  0
SPLINE
  5
53D
100
AcDbEntity
  8
RUNDUNGEN
100
AcDbSpline
 62
7
  6
CONTINUOUS
 70
0
 71
3
 72
11
 73
7
 74
0
 42
0.0000001
 43
0.0000001
 44
0.0000000001
 40
0.0
 40
0.0
 40
0.0
 40
0.0
 40
0.2218885349
 40
0.4620091213
 40
0.7242524488
 40
1.0
 40
1.0
 40
1.0
 40
1.0
 10
56.3140625
 20
148.2406255019
 30
0.0
 10
56.3822814259
 20
148.2406261727
 30
0.0
 10
56.5255410726
 20
148.2718272148
 30
0.0
 10
56.7131702692
 20
148.3996244416
 30
0.0
 10
56.8620183535
 20
148.5906389223
 30
0.0
 10
56.9140639712
 20
148.7558477924
 30
0.0
 10
56.9140625
 20
148.8406255019
 30
0.0
  0
SPLINE
  5
53E
100
AcDbEntity
  8
RUNDUNGEN
100
AcDbSpline
 62
7
  6
CONTINUOUS
 70
0
 71
3
 72
13
 73
9
 74
0
 42
0.0000001
 43
0.0000001
 44
0.0000000001
 40
0.0
 40
0.0
 40
0.0
 40
0.0
 40
0.0751853676
 40
0.1610365514
 40
0.2633714878
 40
0.3837738417
 40
0.6723125368
 40
1.0
 40
1.0
 40
1.0
 40
1.0
 10
56.9140625
 20
151.3248651684
 30
0.0
 10
56.9140624999
 20
151.3424935884
 30
0.0
 10
56.9047864846
 20
151.3805073104
 30
0.0
 10
56.8678442584
 20
151.4312824953
 30
0.0
 10
56.8106437086
 20
151.4765793948
 30
0.0
 10
56.7039422528
 20
151.5322816012
 30
0.0
 10
56.5355564624
 20
151.5779186901
 30
0.0
 10
56.3908941019
 20
151.5899344376
 30
0.0
 10
56.3140625
 20
151.5899342956
 30
0.0
  0
SPLINE
  5
53F
100
AcDbEntity
  8
RUNDUNGEN
100
AcDbSpline
 62
7
  6
CONTINUOUS
 70
0
 71
3
 72
12
 73
8
 74
0
 42
0.0000001
 43
0.0000001
 44
0.0000000001
 40
0.0
 40
0.0
 40
0.0
 40
0.0
 40
0.0740899228
 40
0.1657840063
 40
0.3992207703
 40
0.6862274225
 40
1.0
 40
1.0
 40
1.0
 40
1.0
 10
56.9345034286
 20
152.0663970923
 30
0.0
 10
56.9255228928
 20
152.0789323076
 30
0.0
 10
56.9006881674
 20
152.1035122062
 30
0.0
 10
56.8315860888
 20
152.1500492983
 30
0.0
 10
56.7127926282
 20
152.1990117552
 30
0.0
 10
56.5442462993
 20
152.2416317437
 30
0.0
 10
56.4200306486
 20
152.2586362741
 30
0.0
 10
56.3549515086
 20
152.2640603427
 30
0.0
  0
SPLINE
  5
540
100
AcDbEntity
  8
RUNDUNGEN
100
AcDbSpline
 62
7
  6
CONTINUOUS
 70
0
 71
3
 72
12
 73
8
 74
0
 42
0.0000001
 43
0.0000001
 44
0.0000000001
 40
0.0
 40
0.0
 40
0.0
 40
0.0
 40
0.0740923587
 40
0.1657884267
 40
0.3992266328
 40
0.6862313315
 40
1.0
 40
1.0
 40
1.0
 40
1.0
 10
56.9345057268
 20
156.4148539115
 30
0.0
 10
56.9255240656
 20
156.4023189052
 30
0.0
 10
56.9006876531
 20
156.3777396001
 30
0.0
 10
56.8315834485
 20
156.331203741
 30
0.0
 10
56.7127894835
 20
156.2822425556
 30
0.0
 10
56.5442440433
 20
156.2396237324
 30
0.0
 10
56.4200297563
 20
156.2226197027
 30
0.0
 10
56.3549515085
 20
156.2171958132
 30
0.0
  0
SPLINE
  5
541
100
AcDbEntity
  8
RUNDUNGEN
100
AcDbSpline
 62
7
  6
CONTINUOUS
 70
0
 71
3
 72
9
 73
5
 74
0
 42
0.0000001
 43
0.0000001
 44
0.0000000001
 40
0.0
 40
0.0
 40
0.0
 40
0.0
 40
0.2438559934
 40
1.0
 40
1.0
 40
1.0
 40
1.0
 10
102.4731734915
 20
156.2171967834
 30
0.0
 10
102.456713962
 20
156.0571347985
 30
0.0
 10
102.3983349815
 20
155.3998404557
 30
0.0
 10
102.3744675178
 20
154.7395598912
 30
0.0
 10
102.3744586928
 20
154.2406255019
 30
0.0
  0
SPLINE
  5
542
100
AcDbEntity
  8
RUNDUNGEN
100
AcDbSpline
 62
7
  6
CONTINUOUS
 70
0
 71
3
 72
13
 73
9
 74
0
 42
0.0000001
 43
0.0000001
 44
0.0000000001
 40
0.0
 40
0.0
 40
0.0
 40
0.0
 40
0.095816337
 40
0.203100596
 40
0.320851409
 40
0.4471708533
 40
0.7175064746
 40
1.0
 40
1.0
 40
1.0
 40
1.0
 10
95.7297983381
 20
160.2406255018
 30
0.0
 10
95.590720717
 20
160.2406264887
 30
0.0
 10
95.2960212779
 20
160.1961737224
 30
0.0
 10
94.8538738975
 20
160.0466931262
 30
0.0
 10
94.3907443381
 20
159.8313941257
 30
0.0
 10
93.7373478434
 20
159.4693195553
 30
0.0
 10
92.9092117969
 20
158.9331164641
 30
0.0
 10
92.2506385148
 20
158.4748249019
 30
0.0
 10
91.9140625
 20
158.2406255019
 30
0.0
  0
SPLINE
  5
543
100
AcDbEntity
  8
RUNDUNGEN
100
AcDbSpline
 62
7
  6
CONTINUOUS
 70
0
 71
3
 72
13
 73
9
 74
0
 42
0.0000001
 43
0.0000001
 44
0.0000000001
 40
0.0
 40
0.0
 40
0.0
 40
0.0
 40
0.0751852898
 40
0.1610364278
 40
0.2633713291
 40
0.3837736745
 40
0.6723124235
 40
1.0
 40
1.0
 40
1.0
 40
1.0
 10
56.9140625
 20
157.1563858355
 30
0.0
 10
56.9140625
 20
157.1387574387
 30
0.0
 10
56.9047864639
 20
157.1007437602
 30
0.0
 10
56.8678442331
 20
157.0499686486
 30
0.0
 10
56.8106436698
 20
157.0046718313
 30
0.0
 10
56.7039421973
 20
156.948969732
 30
0.0
 10
56.5355564384
 20
156.903332642
 30
0.0
 10
56.3908941067
 20
156.8913167036
 30
0.0
 10
56.3140625
 20
156.891316703
 30
0.0
  0
SPLINE
  5
544
100
AcDbEntity
  8
RUNDUNGEN
100
AcDbSpline
 62
7
  6
CONTINUOUS
 70
0
 71
3
 72
13
 73
9
 74
0
 42
0.0000001
 43
0.0000001
 44
0.0000000001
 40
0.0
 40
0.0
 40
0.0
 40
0.0
 40
0.0957067944
 40
0.2028820647
 40
0.3205805855
 40
0.4468806579
 40
0.7173105919
 40
1.0
 40
1.0
 40
1.0
 40
1.0
 10
88.0983115276
 20
148.2406255019
 30
0.0
 10
88.2372304737
 20
148.2406252128
 30
0.0
 10
88.5316205409
 20
148.2849630169
 30
0.0
 10
88.9734054793
 20
148.434293864
 30
0.0
 10
89.4363621654
 20
148.6493388643
 30
0.0
 10
90.0898307637
 20
149.0113619505
 30
0.0
 10
90.9183359032
 20
149.5477230695
 30
0.0
 10
91.5772482363
 20
150.0062690102
 30
0.0
 10
91.9140625
 20
150.2406255019
 30
0.0
  0
SPLINE
  5
545
100
AcDbEntity
  8
RUNDUNGEN
100
AcDbSpline
 62
7
  6
CONTINUOUS
 70
0
 71
3
 72
11
 73
7
 74
0
 42
0.0000001
 43
0.0000001
 44
0.0000000001
 40
0.0
 40
0.0
 40
0.0
 40
0.0
 40
0.2757478755
 40
0.5379904257
 40
0.7781107633
 40
1.0
 40
1.0
 40
1.0
 40
1.0
 10
56.9140625
 20
159.6406255019
 30
0.0
 10
56.9140641708
 20
159.72540328
 30
0.0
 10
56.8620173981
 20
159.8906116741
 30
0.0
 10
56.7131703495
 20
160.0816262672
 30
0.0
 10
56.5255413064
 20
160.2094235874
 30
0.0
 10
56.3822816166
 20
160.2406247304
 30
0.0
 10
56.3140625
 20
160.2406255019
 30
0.0
  0
SPLINE
  5
546
100
AcDbEntity
  8
RUNDUNGEN
100
AcDbSpline
 62
7
  6
CONTINUOUS
 70
0
 71
3
 72
13
 73
9
 74
0
 42
0.0000001
 43
0.0000001
 44
0.0000000001
 40
0.0
 40
0.0
 40
0.0
 40
0.0
 40
0.2824846122
 40
0.5528323978
 40
0.6791688534
 40
0.7969222272
 40
0.9041979321
 40
1.0
 40
1.0
 40
1.0
 40
1.0
 10
91.9140625
 20
150.2406255019
 30
0.0
 10
92.2506279234
 20
150.0064299083
 30
0.0
 10
92.9092105614
 20
149.5481361599
 30
0.0
 10
93.7373792357
 20
149.0119207689
 30
0.0
 10
94.3908140722
 20
148.6498131011
 30
0.0
 10
94.8539645138
 20
148.4345116146
 30
0.0
 10
95.2960933354
 20
148.2850659397
 30
0.0
 10
95.590761695
 20
148.2406137195
 30
0.0
 10
95.7298193057
 20
148.2406255019
 30
0.0
  0
SPLINE
  5
547
100
AcDbEntity
  8
RUNDUNGEN
100
AcDbSpline
 62
7
  6
CONTINUOUS
 70
0
 71
3
 72
9
 73
5
 74
0
 42
0.0000001
 43
0.0000001
 44
0.0000000001
 40
0.0
 40
0.0
 40
0.0
 40
0.0
 40
0.2450568363
 40
1.0
 40
1.0
 40
1.0
 40
1.0
 10
102.5140625
 20
156.8913167147
 30
0.0
 10
102.5140645353
 20
156.8361339349
 30
0.0
 10
102.5094909823
 20
156.6109413226
 30
0.0
 10
102.4905598646
 20
156.3863061914
 30
0.0
 10
102.4731734915
 20
156.2171967834
 30
0.0
  0
SPLINE
  5
548
100
AcDbEntity
  8
RUNDUNGEN
100
AcDbSpline
 62
7
  6
CONTINUOUS
 70
0
 71
3
 72
11
 73
7
 74
0
 42
0.0000001
 43
0.0000001
 44
0.0000000001
 40
0.0
 40
0.0
 40
0.0
 40
0.0
 40
0.221888556
 40
0.462009086
 40
0.7242526164
 40
1.0
 40
1.0
 40
1.0
 40
1.0
 10
102.5140625
 20
160.2406255019
 30
0.0
 10
102.44584358
 20
160.2406248507
 30
0.0
 10
102.3025839579
 20
160.2094237427
 30
0.0
 10
102.114954894
 20
160.0816263431
 30
0.0
 10
101.9661067872
 20
159.8906119486
 30
0.0
 10
101.9140611447
 20
159.7254031445
 30
0.0
 10
101.9140625
 20
159.6406255019
 30
0.0
  0
SPLINE
  5
549
100
AcDbEntity
  8
RUNDUNGEN
100
AcDbSpline
 62
7
  6
CONTINUOUS
 70
0
 71
3
 72
13
 73
9
 74
0
 42
0.0000001
 43
0.0000001
 44
0.0000000001
 40
0.0
 40
0.0
 40
0.0
 40
0.0
 40
0.0751852984
 40
0.1610364026
 40
0.2633712672
 40
0.383773579
 40
0.672312356
 40
1.0
 40
1.0
 40
1.0
 40
1.0
 10
101.9140625
 20
157.1563858354
 30
0.0
 10
101.9140625001
 20
157.1387574353
 30
0.0
 10
101.9233385028
 20
157.1007437533
 30
0.0
 10
101.960280725
 20
157.0499686421
 30
0.0
 10
102.0174812552
 20
157.0046718183
 30
0.0
 10
102.1241827073
 20
156.9489696765
 30
0.0
 10
102.2925685016
 20
156.9033325856
 30
0.0
 10
102.4372308714
 20
156.8913166784
 30
0.0
 10
102.5140625
 20
156.8913167082
 30
0.0
  0
SPLINE
  5
54A
100
AcDbEntity
  8
RUNDUNGEN
100
AcDbSpline
 62
7
  6
CONTINUOUS
 70
0
 71
3
 72
12
 73
8
 74
0
 42
0.0000001
 43
0.0000001
 44
0.0000000001
 40
0.0
 40
0.0
 40
0.0
 40
0.0
 40
0.0740901446
 40
0.1657844195
 40
0.3992213464
 40
0.6862278272
 40
1.0
 40
1.0
 40
1.0
 40
1.0
 10
101.8936212396
 20
156.4148539115
 30
0.0
 10
101.9026018831
 20
156.4023187167
 30
0.0
 10
101.9274367766
 20
156.3777388774
 30
0.0
 10
101.996539081
 20
156.3312019124
 30
0.0
 10
102.115332625
 20
156.282239597
 30
0.0
 10
102.2838788995
 20
156.2396197455
 30
0.0
 10
102.4080944343
 20
156.2226152779
 30
0.0
 10
102.4731734914
 20
156.2171912334
 30
0.0
  0
SPLINE
  5
54B
100
AcDbEntity
  8
RUNDUNGEN
100
AcDbSpline
 62
7
  6
CONTINUOUS
 70
0
 71
3
 72
9
 73
5
 74
0
 42
0.0000001
 43
0.0000001
 44
0.0000000001
 40
0.0
 40
0.0
 40
0.0
 40
0.0
 40
0.2513069173
 40
1.0
 40
1.0
 40
1.0
 40
1.0
 10
151.8936179958
 20
152.0663970923
 30
0.0
 10
151.8965201051
 20
152.0043213325
 30
0.0
 10
151.9073185309
 20
151.7572833174
 30
0.0
 10
151.9140663374
 20
151.5100031451
 30
0.0
 10
151.9140625
 20
151.3248651678
 30
0.0
  0
SPLINE
  5
54C
100
AcDbEntity
  8
RUNDUNGEN
100
AcDbSpline
 62
7
  6
CONTINUOUS
 70
0
 71
3
 72
9
 73
5
 74
0
 42
0.0000001
 43
0.0000001
 44
0.0000000001
 40
0.0
 40
0.0
 40
0.0
 40
0.0
 40
0.2513140665
 40
1.0
 40
1.0
 40
1.0
 40
1.0
 10
131.9345070042
 20
156.4148539115
 30
0.0
 10
131.9316053916
 20
156.4769314611
 30
0.0
 10
131.9208101363
 20
156.7239696064
 30
0.0
 10
131.9140610325
 20
156.9712496363
 30
0.0
 10
131.9140625
 20
157.156385836
 30
0.0
  0
SPLINE
  5
54D
100
AcDbEntity
  8
RUNDUNGEN
100
AcDbSpline
 62
7
  6
CONTINUOUS
 70
0
 71
3
 72
9
 73
5
 74
0
 42
0.0000001
 43
0.0000001
 44
0.0000000001
 40
0.0
 40
0.0
 40
0.0
 40
0.0
 40
0.2485955812
 40
1.0
 40
1.0
 40
1.0
 40
1.0
 10
131.9140625
 20
151.3248651678
 30
0.0
 10
131.9140606576
 20
151.3863393647
 30
0.0
 10
131.9163597688
 20
151.6336274771
 30
0.0
 10
131.925827469
 20
151.8807881571
 30
0.0
 10
131.9345070042
 20
152.0663970923
 30
0.0
  0
SPLINE
  5
54E
100
AcDbEntity
  8
RUNDUNGEN
100
AcDbSpline
 62
7
  6
CONTINUOUS
 70
0
 71
3
 72
9
 73
5
 74
0
 42
0.0000001
 43
0.0000001
 44
0.0000000001
 40
0.0
 40
0.0
 40
0.0
 40
0.0
 40
0.2486023934
 40
1.0
 40
1.0
 40
1.0
 40
1.0
 10
126.9140625
 20
157.156385836
 30
0.0
 10
126.9140630423
 20
157.0949099654
 30
0.0
 10
126.9117538863
 20
156.8476220067
 30
0.0
 10
126.9022934208
 20
156.6004613198
 30
0.0
 10
126.8936179958
 20
156.4148539115
 30
0.0
  0
SPLINE
  5
54F
100
AcDbEntity
  8
RUNDUNGEN
100
AcDbSpline
 62
7
  6
CONTINUOUS
 70
0
 71
3
 72
9
 73
5
 74
0
 42
0.0000001
 43
0.0000001
 44
0.0000000001
 40
0.0
 40
0.0
 40
0.0
 40
0.0
 40
0.2513069107
 40
1.0
 40
1.0
 40
1.0
 40
1.0
 10
126.8936179958
 20
152.0663970923
 30
0.0
 10
126.8965200978
 20
152.0043213339
 30
0.0
 10
126.9073184844
 20
151.7572833177
 30
0.0
 10
126.9140663834
 20
151.5100031466
 30
0.0
 10
126.9140625
 20
151.3248651678
 30
0.0
  0
SPLINE
  5
550
100
AcDbEntity
  8
RUNDUNGEN
100
AcDbSpline
 62
7
  6
CONTINUOUS
 70
0
 71
3
 72
9
 73
5
 74
0
 42
0.0000001
 43
0.0000001
 44
0.0000000001
 40
0.0
 40
0.0
 40
0.0
 40
0.0
 40
0.2513140695
 40
1.0
 40
1.0
 40
1.0
 40
1.0
 10
106.9345070042
 20
156.4148539115
 30
0.0
 10
106.9316053967
 20
156.4769314621
 30
0.0
 10
106.9208101316
 20
156.7239696069
 30
0.0
 10
106.9140610299
 20
156.971249637
 30
0.0
 10
106.9140625
 20
157.156385836
 30
0.0
  0
SPLINE
  5
551
100
AcDbEntity
  8
RUNDUNGEN
100
AcDbSpline
 62
7
  6
CONTINUOUS
 70
0
 71
3
 72
9
 73
5
 74
0
 42
0.0000001
 43
0.0000001
 44
0.0000000001
 40
0.0
 40
0.0
 40
0.0
 40
0.0
 40
0.2485955743
 40
1.0
 40
1.0
 40
1.0
 40
1.0
 10
106.9140625
 20
151.3248651678
 30
0.0
 10
106.9140606448
 20
151.386339363
 30
0.0
 10
106.9163597623
 20
151.6336274758
 30
0.0
 10
106.9258274743
 20
151.8807881551
 30
0.0
 10
106.9345070042
 20
152.0663970923
 30
0.0
  0
SPLINE
  5
552
100
AcDbEntity
  8
RUNDUNGEN
100
AcDbSpline
 62
7
  6
CONTINUOUS
 70
0
 71
3
 72
12
 73
8
 74
0
 42
0.0000001
 43
0.0000001
 44
0.0000000001
 40
0.0
 40
0.0
 40
0.0
 40
0.0
 40
0.0740919014
 40
0.1657880414
 40
0.3992268842
 40
0.6862317204
 40
1.0
 40
1.0
 40
1.0
 40
1.0
 10
101.8936204135
 20
152.0663970923
 30
0.0
 10
101.9026021763
 20
152.0789318419
 30
0.0
 10
101.9274388212
 20
152.1035106105
 30
0.0
 10
101.9965432895
 20
152.1500456019
 30
0.0
 10
102.1153371114
 20
152.1990062284
 30
0.0
 10
102.2838819191
 20
152.2416252831
 30
0.0
 10
102.4080955952
 20
152.258629978
 30
0.0
 10
102.4731734915
 20
152.2640543386
 30
0.0
  0
SPLINE
  5
553
100
AcDbEntity
  8
RUNDUNGEN
100
AcDbSpline
 62
7
  6
CONTINUOUS
 70
0
 71
3
 72
13
 73
9
 74
0
 42
0.0000001
 43
0.0000001
 44
0.0000000001
 40
0.0
 40
0.0
 40
0.0
 40
0.0
 40
0.0751852891
 40
0.1610364264
 40
0.2633713272
 40
0.3837736725
 40
0.6723124222
 40
1.0
 40
1.0
 40
1.0
 40
1.0
 10
101.9140625
 20
151.3248651683
 30
0.0
 10
101.9140625
 20
151.3424935649
 30
0.0
 10
101.9233385358
 20
151.3805072431
 30
0.0
 10
101.9602807666
 20
151.4312823542
 30
0.0
 10
102.0174813297
 20
151.476579171
 30
0.0
 10
102.124182802
 20
151.5322812704
 30
0.0
 10
102.2925685612
 20
151.5779183601
 30
0.0
 10
102.4372308931
 20
151.589934299
 30
0.0
 10
102.5140625
 20
151.5899342999
 30
0.0
  0
SPLINE
  5
554
100
AcDbEntity
  8
RUNDUNGEN
100
AcDbSpline
 62
7
  6
CONTINUOUS
 70
0
 71
3
 72
11
 73
7
 74
0
 42
0.0000001
 43
0.0000001
 44
0.0000000001
 40
0.0
 40
0.0
 40
0.0
 40
0.0
 40
0.2757473548
 40
0.53798971
 40
0.7781100633
 40
1.0
 40
1.0
 40
1.0
 40
1.0
 10
101.9140625
 20
148.8406255019
 30
0.0
 10
101.9140609739
 20
148.7558478985
 30
0.0
 10
101.9661076069
 20
148.5906398202
 30
0.0
 10
102.1149543052
 20
148.3996252575
 30
0.0
 10
102.3025833249
 20
148.2718277216
 30
0.0
 10
102.4458431799
 20
148.2406263231
 30
0.0
 10
102.5140625
 20
148.2406255019
 30
0.0
  0
SPLINE
  5
555
100
AcDbEntity
  8
RUNDUNGEN
100
AcDbSpline
 62
7
  6
CONTINUOUS
 70
0
 71
3
 72
9
 73
5
 74
0
 42
0.0000001
 43
0.0000001
 44
0.0000000001
 40
0.0
 40
0.0
 40
0.0
 40
0.0
 40
0.2513069107
 40
1.0
 40
1.0
 40
1.0
 40
1.0
 10
101.8936179958
 20
152.0663970923
 30
0.0
 10
101.8965200978
 20
152.0043213339
 30
0.0
 10
101.9073184844
 20
151.7572833177
 30
0.0
 10
101.9140663834
 20
151.5100031466
 30
0.0
 10
101.9140625
 20
151.3248651678
 30
0.0
  0
SPLINE
  5
556
100
AcDbEntity
  8
RUNDUNGEN
100
AcDbSpline
 62
7
  6
CONTINUOUS
 70
0
 71
3
 72
9
 73
5
 74
0
 42
0.0000001
 43
0.0000001
 44
0.0000000001
 40
0.0
 40
0.0
 40
0.0
 40
0.0
 40
0.2513140695
 40
1.0
 40
1.0
 40
1.0
 40
1.0
 10
81.9345070042
 20
156.4148539115
 30
0.0
 10
81.9316053967
 20
156.4769314621
 30
0.0
 10
81.9208101316
 20
156.7239696069
 30
0.0
 10
81.9140610299
 20
156.971249637
 30
0.0
 10
81.9140625
 20
157.156385836
 30
0.0
  0
SPLINE
  5
557
100
AcDbEntity
  8
RUNDUNGEN
100
AcDbSpline
 62
7
  6
CONTINUOUS
 70
0
 71
3
 72
9
 73
5
 74
0
 42
0.0000001
 43
0.0000001
 44
0.0000000001
 40
0.0
 40
0.0
 40
0.0
 40
0.0
 40
0.2485955743
 40
1.0
 40
1.0
 40
1.0
 40
1.0
 10
81.9140625
 20
151.3248651678
 30
0.0
 10
81.9140606448
 20
151.386339363
 30
0.0
 10
81.9163597623
 20
151.6336274758
 30
0.0
 10
81.9258274743
 20
151.8807881551
 30
0.0
 10
81.9345070042
 20
152.0663970923
 30
0.0
  0
SPLINE
  5
558
100
AcDbEntity
  8
RUNDUNGEN
100
AcDbSpline
 62
7
  6
CONTINUOUS
 70
0
 71
3
 72
11
 73
7
 74
0
 42
0.0000001
 43
0.0000001
 44
0.0000000001
 40
0.0
 40
0.0
 40
0.0
 40
0.0
 40
0.2218885349
 40
0.4620091213
 40
0.7242524488
 40
1.0
 40
1.0
 40
1.0
 40
1.0
 10
81.3140625
 20
148.2406255019
 30
0.0
 10
81.3822814259
 20
148.2406261727
 30
0.0
 10
81.5255410726
 20
148.2718272148
 30
0.0
 10
81.7131702692
 20
148.3996244416
 30
0.0
 10
81.8620183535
 20
148.5906389223
 30
0.0
 10
81.9140639712
 20
148.7558477924
 30
0.0
 10
81.9140625
 20
148.8406255019
 30
0.0
  0
SPLINE
  5
559
100
AcDbEntity
  8
RUNDUNGEN
100
AcDbSpline
 62
7
  6
CONTINUOUS
 70
0
 71
3
 72
13
 73
9
 74
0
 42
0.0000001
 43
0.0000001
 44
0.0000000001
 40
0.0
 40
0.0
 40
0.0
 40
0.0
 40
0.0751853676
 40
0.1610365514
 40
0.2633714878
 40
0.3837738417
 40
0.6723125368
 40
1.0
 40
1.0
 40
1.0
 40
1.0
 10
81.9140625
 20
151.3248651684
 30
0.0
 10
81.9140624999
 20
151.3424935884
 30
0.0
 10
81.9047864846
 20
151.3805073104
 30
0.0
 10
81.8678442584
 20
151.4312824953
 30
0.0
 10
81.8106437086
 20
151.4765793948
 30
0.0
 10
81.7039422528
 20
151.5322816012
 30
0.0
 10
81.5355564624
 20
151.5779186901
 30
0.0
 10
81.3908941019
 20
151.5899344376
 30
0.0
 10
81.3140625
 20
151.5899342956
 30
0.0
  0
SPLINE
  5
55A
100
AcDbEntity
  8
RUNDUNGEN
100
AcDbSpline
 62
7
  6
CONTINUOUS
 70
0
 71
3
 72
9
 73
5
 74
0
 42
0.0000001
 43
0.0000001
 44
0.0000000001
 40
0.0
 40
0.0
 40
0.0
 40
0.0
 40
0.2486023934
 40
1.0
 40
1.0
 40
1.0
 40
1.0
 10
76.9140625
 20
157.156385836
 30
0.0
 10
76.9140630423
 20
157.0949099654
 30
0.0
 10
76.9117538863
 20
156.8476220067
 30
0.0
 10
76.9022934208
 20
156.6004613198
 30
0.0
 10
76.8936179958
 20
156.4148539115
 30
0.0
  0
SPLINE
  5
55B
100
AcDbEntity
  8
RUNDUNGEN
100
AcDbSpline
 62
7
  6
CONTINUOUS
 70
0
 71
3
 72
9
 73
5
 74
0
 42
0.0000001
 43
0.0000001
 44
0.0000000001
 40
0.0
 40
0.0
 40
0.0
 40
0.0
 40
0.2513069107
 40
1.0
 40
1.0
 40
1.0
 40
1.0
 10
76.8936179958
 20
152.0663970923
 30
0.0
 10
76.8965200978
 20
152.0043213339
 30
0.0
 10
76.9073184844
 20
151.7572833177
 30
0.0
 10
76.9140663834
 20
151.5100031466
 30
0.0
 10
76.9140625
 20
151.3248651678
 30
0.0
  0
SPLINE
  5
55C
100
AcDbEntity
  8
RUNDUNGEN
100
AcDbSpline
 62
7
  6
CONTINUOUS
 70
0
 71
3
 72
9
 73
5
 74
0
 42
0.0000001
 43
0.0000001
 44
0.0000000001
 40
0.0
 40
0.0
 40
0.0
 40
0.0
 40
0.2513140695
 40
1.0
 40
1.0
 40
1.0
 40
1.0
 10
56.9345070042
 20
156.4148539115
 30
0.0
 10
56.9316053967
 20
156.4769314621
 30
0.0
 10
56.9208101316
 20
156.7239696069
 30
0.0
 10
56.9140610299
 20
156.971249637
 30
0.0
 10
56.9140625
 20
157.156385836
 30
0.0
  0
SPLINE
  5
55D
100
AcDbEntity
  8
RUNDUNGEN
100
AcDbSpline
 62
7
  6
CONTINUOUS
 70
0
 71
3
 72
9
 73
5
 74
0
 42
0.0000001
 43
0.0000001
 44
0.0000000001
 40
0.0
 40
0.0
 40
0.0
 40
0.0
 40
0.2485955743
 40
1.0
 40
1.0
 40
1.0
 40
1.0
 10
56.9140625
 20
151.3248651678
 30
0.0
 10
56.9140606448
 20
151.386339363
 30
0.0
 10
56.9163597623
 20
151.6336274758
 30
0.0
 10
56.9258274743
 20
151.8807881551
 30
0.0
 10
56.9345070042
 20
152.0663970923
 30
0.0
  0
SPLINE
  5
55E
100
AcDbEntity
  8
RUNDUNGEN
100
AcDbSpline
 62
7
  6
CONTINUOUS
 70
0
 71
3
 72
11
 73
7
 74
0
 42
0.0000001
 43
0.0000001
 44
0.0000000001
 40
0.0
 40
0.0
 40
0.0
 40
0.0
 40
0.2757478755
 40
0.5379904257
 40
0.7781107633
 40
1.0
 40
1.0
 40
1.0
 40
1.0
 10
131.9140625
 20
159.6406255019
 30
0.0
 10
131.9140641708
 20
159.72540328
 30
0.0
 10
131.8620173981
 20
159.8906116741
 30
0.0
 10
131.7131703495
 20
160.0816262672
 30
0.0
 10
131.5255413064
 20
160.2094235874
 30
0.0
 10
131.3822816166
 20
160.2406247304
 30
0.0
 10
131.3140625
 20
160.2406255019
 30
0.0
  0
SPLINE
  5
55F
100
AcDbEntity
  8
RUNDUNGEN
100
AcDbSpline
 62
7
  6
CONTINUOUS
 70
0
 71
3
 72
13
 73
9
 74
0
 42
0.0000001
 43
0.0000001
 44
0.0000000001
 40
0.0
 40
0.0
 40
0.0
 40
0.0
 40
0.0751852898
 40
0.1610364277
 40
0.2633713288
 40
0.3837736742
 40
0.6723124233
 40
1.0
 40
1.0
 40
1.0
 40
1.0
 10
131.9140625
 20
157.1563858355
 30
0.0
 10
131.9140625
 20
157.1387574388
 30
0.0
 10
131.904786464
 20
157.1007437602
 30
0.0
 10
131.8678442332
 20
157.0499686486
 30
0.0
 10
131.8106436699
 20
157.0046718315
 30
0.0
 10
131.7039421975
 20
156.9489697321
 30
0.0
 10
131.5355564385
 20
156.9033326421
 30
0.0
 10
131.3908941067
 20
156.8913167037
 30
0.0
 10
131.3140625
 20
156.891316703
 30
0.0
  0
SPLINE
  5
560
100
AcDbEntity
  8
RUNDUNGEN
100
AcDbSpline
 62
7
  6
CONTINUOUS
 70
0
 71
3
 72
12
 73
8
 74
0
 42
0.0000001
 43
0.0000001
 44
0.0000000001
 40
0.0
 40
0.0
 40
0.0
 40
0.0
 40
0.0740923583
 40
0.1657884261
 40
0.3992266326
 40
0.6862313318
 40
1.0
 40
1.0
 40
1.0
 40
1.0
 10
131.9345057288
 20
156.4148539115
 30
0.0
 10
131.9255240677
 20
156.4023189052
 30
0.0
 10
131.9006876553
 20
156.3777396
 30
0.0
 10
131.8315834505
 20
156.3312037408
 30
0.0
 10
131.7127894848
 20
156.2822425557
 30
0.0
 10
131.5442440439
 20
156.239623733
 30
0.0
 10
131.4200297565
 20
156.2226197036
 30
0.0
 10
131.3549515085
 20
156.2171958143
 30
0.0
  0
SPLINE
  5
561
100
AcDbEntity
  8
RUNDUNGEN
100
AcDbSpline
 62
7
  6
CONTINUOUS
 70
0
 71
3
 72
12
 73
8
 74
0
 42
0.0000001
 43
0.0000001
 44
0.0000000001
 40
0.0
 40
0.0
 40
0.0
 40
0.0
 40
0.0740899269
 40
0.1657840137
 40
0.3992207807
 40
0.6862274298
 40
1.0
 40
1.0
 40
1.0
 40
1.0
 10
131.9345034347
 20
152.0663970923
 30
0.0
 10
131.925522897
 20
152.0789323073
 30
0.0
 10
131.9006881685
 20
152.1035122048
 30
0.0
 10
131.8315860858
 20
152.1500492946
 30
0.0
 10
131.7127926237
 20
152.1990117489
 30
0.0
 10
131.5442462958
 20
152.241631735
 30
0.0
 10
131.4200306471
 20
152.2586362642
 30
0.0
 10
131.3549515086
 20
152.2640603323
 30
0.0
  0
SPLINE
  5
562
100
AcDbEntity
  8
RUNDUNGEN
100
AcDbSpline
 62
7
  6
CONTINUOUS
 70
0
 71
3
 72
13
 73
9
 74
0
 42
0.0000001
 43
0.0000001
 44
0.0000000001
 40
0.0
 40
0.0
 40
0.0
 40
0.0
 40
0.0751853682
 40
0.1610365521
 40
0.2633714883
 40
0.3837738418
 40
0.6723125366
 40
1.0
 40
1.0
 40
1.0
 40
1.0
 10
131.9140625
 20
151.3248651684
 30
0.0
 10
131.9140624999
 20
151.3424935886
 30
0.0
 10
131.9047864848
 20
151.3805073107
 30
0.0
 10
131.8678442586
 20
151.4312824959
 30
0.0
 10
131.8106437089
 20
151.4765793954
 30
0.0
 10
131.7039422531
 20
151.5322816018
 30
0.0
 10
131.5355564625
 20
151.5779186904
 30
0.0
 10
131.390894102
 20
151.5899344377
 30
0.0
 10
131.3140625
 20
151.5899342956
 30
0.0
  0
SPLINE
  5
563
100
AcDbEntity
  8
RUNDUNGEN
100
AcDbSpline
 62
7
  6
CONTINUOUS
 70
0
 71
3
 72
11
 73
7
 74
0
 42
0.0000001
 43
0.0000001
 44
0.0000000001
 40
0.0
 40
0.0
 40
0.0
 40
0.0
 40
0.2218885349
 40
0.4620091213
 40
0.7242524488
 40
1.0
 40
1.0
 40
1.0
 40
1.0
 10
131.3140625
 20
148.2406255019
 30
0.0
 10
131.3822814259
 20
148.2406261727
 30
0.0
 10
131.5255410726
 20
148.2718272148
 30
0.0
 10
131.7131702692
 20
148.3996244416
 30
0.0
 10
131.8620183535
 20
148.5906389223
 30
0.0
 10
131.9140639712
 20
148.7558477924
 30
0.0
 10
131.9140625
 20
148.8406255019
 30
0.0
  0
SPLINE
  5
564
100
AcDbEntity
  8
RUNDUNGEN
100
AcDbSpline
 62
7
  6
CONTINUOUS
 70
0
 71
3
 72
11
 73
7
 74
0
 42
0.0000001
 43
0.0000001
 44
0.0000000001
 40
0.0
 40
0.0
 40
0.0
 40
0.0
 40
0.2757473548
 40
0.53798971
 40
0.7781100633
 40
1.0
 40
1.0
 40
1.0
 40
1.0
 10
151.9140625
 20
148.8406255019
 30
0.0
 10
151.9140609739
 20
148.7558478985
 30
0.0
 10
151.9661076069
 20
148.5906398202
 30
0.0
 10
152.1149543052
 20
148.3996252575
 30
0.0
 10
152.3025833249
 20
148.2718277216
 30
0.0
 10
152.4458431799
 20
148.2406263231
 30
0.0
 10
152.5140625
 20
148.2406255019
 30
0.0
  0
SPLINE
  5
565
100
AcDbEntity
  8
RUNDUNGEN
100
AcDbSpline
 62
7
  6
CONTINUOUS
 70
0
 71
3
 72
13
 73
9
 74
0
 42
0.0000001
 43
0.0000001
 44
0.0000000001
 40
0.0
 40
0.0
 40
0.0
 40
0.0
 40
0.0751852891
 40
0.1610364263
 40
0.263371327
 40
0.3837736722
 40
0.672312422
 40
1.0
 40
1.0
 40
1.0
 40
1.0
 10
151.9140625
 20
151.3248651683
 30
0.0
 10
151.9140625
 20
151.3424935649
 30
0.0
 10
151.9233385358
 20
151.3805072431
 30
0.0
 10
151.9602807666
 20
151.4312823541
 30
0.0
 10
152.0174813295
 20
151.476579171
 30
0.0
 10
152.1241828018
 20
151.5322812703
 30
0.0
 10
152.2925685611
 20
151.5779183601
 30
0.0
 10
152.4372308931
 20
151.589934299
 30
0.0
 10
152.5140625
 20
151.5899342999
 30
0.0
  0
SPLINE
  5
566
100
AcDbEntity
  8
RUNDUNGEN
100
AcDbSpline
 62
7
  6
CONTINUOUS
 70
0
 71
3
 72
12
 73
8
 74
0
 42
0.0000001
 43
0.0000001
 44
0.0000000001
 40
0.0
 40
0.0
 40
0.0
 40
0.0
 40
0.0740919039
 40
0.1657880415
 40
0.3992268779
 40
0.6862317156
 40
1.0
 40
1.0
 40
1.0
 40
1.0
 10
151.8936203985
 20
152.0663970923
 30
0.0
 10
151.9026021591
 20
152.0789318449
 30
0.0
 10
151.9274388003
 20
152.1035106198
 30
0.0
 10
151.996543265
 20
152.1500456209
 30
0.0
 10
152.11533709
 20
152.1990062525
 30
0.0
 10
152.2838819067
 20
152.2416253022
 30
0.0
 10
152.408095591
 20
152.258629988
 30
0.0
 10
152.4731734915
 20
152.2640543423
 30
0.0
  0
SPLINE
  5
567
100
AcDbEntity
  8
RUNDUNGEN
100
AcDbSpline
 62
7
  6
CONTINUOUS
 70
0
 71
3
 72
12
 73
8
 74
0
 42
0.0000001
 43
0.0000001
 44
0.0000000001
 40
0.0
 40
0.0
 40
0.0
 40
0.0
 40
0.0740901479
 40
0.1657844256
 40
0.399221355
 40
0.6862278333
 40
1.0
 40
1.0
 40
1.0
 40
1.0
 10
151.8936212346
 20
156.4148539115
 30
0.0
 10
151.9026018797
 20
156.4023187171
 30
0.0
 10
151.9274367757
 20
156.3777388786
 30
0.0
 10
151.9965390835
 20
156.3312019154
 30
0.0
 10
152.1153326288
 20
156.2822396022
 30
0.0
 10
152.2838789025
 20
156.2396197527
 30
0.0
 10
152.4080944355
 20
156.222615286
 30
0.0
 10
152.4731734914
 20
156.2171912419
 30
0.0
  0
SPLINE
  5
568
100
AcDbEntity
  8
RUNDUNGEN
100
AcDbSpline
 62
7
  6
CONTINUOUS
 70
0
 71
3
 72
13
 73
9
 74
0
 42
0.0000001
 43
0.0000001
 44
0.0000000001
 40
0.0
 40
0.0
 40
0.0
 40
0.0
 40
0.0751852981
 40
0.1610364022
 40
0.2633712667
 40
0.3837735785
 40
0.6723123557
 40
1.0
 40
1.0
 40
1.0
 40
1.0
 10
151.9140625
 20
157.1563858354
 30
0.0
 10
151.9140625001
 20
157.1387574353
 30
0.0
 10
151.9233385028
 20
157.1007437535
 30
0.0
 10
151.960280725
 20
157.0499686424
 30
0.0
 10
152.0174812552
 20
157.0046718188
 30
0.0
 10
152.1241827073
 20
156.9489696771
 30
0.0
 10
152.2925685016
 20
156.9033325861
 30
0.0
 10
152.4372308714
 20
156.8913166786
 30
0.0
 10
152.5140625
 20
156.8913167082
 30
0.0
  0
SPLINE
  5
569
100
AcDbEntity
  8
RUNDUNGEN
100
AcDbSpline
 62
7
  6
CONTINUOUS
 70
0
 71
3
 72
11
 73
7
 74
0
 42
0.0000001
 43
0.0000001
 44
0.0000000001
 40
0.0
 40
0.0
 40
0.0
 40
0.0
 40
0.221888556
 40
0.462009086
 40
0.7242526164
 40
1.0
 40
1.0
 40
1.0
 40
1.0
 10
152.5140625
 20
160.2406255019
 30
0.0
 10
152.44584358
 20
160.2406248507
 30
0.0
 10
152.3025839579
 20
160.2094237427
 30
0.0
 10
152.114954894
 20
160.0816263431
 30
0.0
 10
151.9661067872
 20
159.8906119486
 30
0.0
 10
151.9140611447
 20
159.7254031445
 30
0.0
 10
151.9140625
 20
159.6406255019
 30
0.0
  0
SPLINE
  5
56A
100
AcDbEntity
  8
RUNDUNGEN
100
AcDbSpline
 62
7
  6
CONTINUOUS
 70
0
 71
3
 72
11
 73
7
 74
0
 42
0.0000001
 43
0.0000001
 44
0.0000000001
 40
0.0
 40
0.0
 40
0.0
 40
0.0
 40
0.2757478755
 40
0.5379904257
 40
0.7781107633
 40
1.0
 40
1.0
 40
1.0
 40
1.0
 10
106.9140625
 20
159.6406255019
 30
0.0
 10
106.9140641708
 20
159.72540328
 30
0.0
 10
106.8620173981
 20
159.8906116741
 30
0.0
 10
106.7131703495
 20
160.0816262672
 30
0.0
 10
106.5255413064
 20
160.2094235874
 30
0.0
 10
106.3822816166
 20
160.2406247304
 30
0.0
 10
106.3140625
 20
160.2406255019
 30
0.0
  0
SPLINE
  5
56B
100
AcDbEntity
  8
RUNDUNGEN
100
AcDbSpline
 62
7
  6
CONTINUOUS
 70
0
 71
3
 72
13
 73
9
 74
0
 42
0.0000001
 43
0.0000001
 44
0.0000000001
 40
0.0
 40
0.0
 40
0.0
 40
0.0
 40
0.0751852898
 40
0.1610364278
 40
0.2633713291
 40
0.3837736745
 40
0.6723124235
 40
1.0
 40
1.0
 40
1.0
 40
1.0
 10
106.9140625
 20
157.1563858355
 30
0.0
 10
106.9140625
 20
157.1387574387
 30
0.0
 10
106.9047864639
 20
157.1007437602
 30
0.0
 10
106.8678442331
 20
157.0499686486
 30
0.0
 10
106.8106436698
 20
157.0046718313
 30
0.0
 10
106.7039421973
 20
156.948969732
 30
0.0
 10
106.5355564384
 20
156.903332642
 30
0.0
 10
106.3908941067
 20
156.8913167036
 30
0.0
 10
106.3140625
 20
156.891316703
 30
0.0
  0
SPLINE
  5
56C
100
AcDbEntity
  8
RUNDUNGEN
100
AcDbSpline
 62
7
  6
CONTINUOUS
 70
0
 71
3
 72
12
 73
8
 74
0
 42
0.0000001
 43
0.0000001
 44
0.0000000001
 40
0.0
 40
0.0
 40
0.0
 40
0.0
 40
0.0740923587
 40
0.1657884267
 40
0.3992266328
 40
0.6862313315
 40
1.0
 40
1.0
 40
1.0
 40
1.0
 10
106.9345057268
 20
156.4148539115
 30
0.0
 10
106.9255240656
 20
156.4023189052
 30
0.0
 10
106.9006876531
 20
156.3777396001
 30
0.0
 10
106.8315834485
 20
156.331203741
 30
0.0
 10
106.7127894835
 20
156.2822425556
 30
0.0
 10
106.5442440433
 20
156.2396237324
 30
0.0
 10
106.4200297563
 20
156.2226197027
 30
0.0
 10
106.3549515085
 20
156.2171958132
 30
0.0
  0
SPLINE
  5
56D
100
AcDbEntity
  8
RUNDUNGEN
100
AcDbSpline
 62
7
  6
CONTINUOUS
 70
0
 71
3
 72
12
 73
8
 74
0
 42
0.0000001
 43
0.0000001
 44
0.0000000001
 40
0.0
 40
0.0
 40
0.0
 40
0.0
 40
0.0740899228
 40
0.1657840063
 40
0.3992207703
 40
0.6862274225
 40
1.0
 40
1.0
 40
1.0
 40
1.0
 10
106.9345034286
 20
152.0663970923
 30
0.0
 10
106.9255228928
 20
152.0789323076
 30
0.0
 10
106.9006881674
 20
152.1035122062
 30
0.0
 10
106.8315860888
 20
152.1500492983
 30
0.0
 10
106.7127926282
 20
152.1990117552
 30
0.0
 10
106.5442462993
 20
152.2416317437
 30
0.0
 10
106.4200306486
 20
152.2586362741
 30
0.0
 10
106.3549515086
 20
152.2640603427
 30
0.0
  0
SPLINE
  5
56E
100
AcDbEntity
  8
RUNDUNGEN
100
AcDbSpline
 62
7
  6
CONTINUOUS
 70
0
 71
3
 72
13
 73
9
 74
0
 42
0.0000001
 43
0.0000001
 44
0.0000000001
 40
0.0
 40
0.0
 40
0.0
 40
0.0
 40
0.0751853676
 40
0.1610365514
 40
0.2633714878
 40
0.3837738417
 40
0.6723125368
 40
1.0
 40
1.0
 40
1.0
 40
1.0
 10
106.9140625
 20
151.3248651684
 30
0.0
 10
106.9140624999
 20
151.3424935884
 30
0.0
 10
106.9047864846
 20
151.3805073104
 30
0.0
 10
106.8678442584
 20
151.4312824953
 30
0.0
 10
106.8106437086
 20
151.4765793948
 30
0.0
 10
106.7039422528
 20
151.5322816012
 30
0.0
 10
106.5355564624
 20
151.5779186901
 30
0.0
 10
106.3908941019
 20
151.5899344376
 30
0.0
 10
106.3140625
 20
151.5899342956
 30
0.0
  0
SPLINE
  5
56F
100
AcDbEntity
  8
RUNDUNGEN
100
AcDbSpline
 62
7
  6
CONTINUOUS
 70
0
 71
3
 72
11
 73
7
 74
0
 42
0.0000001
 43
0.0000001
 44
0.0000000001
 40
0.0
 40
0.0
 40
0.0
 40
0.0
 40
0.2218885349
 40
0.4620091213
 40
0.7242524488
 40
1.0
 40
1.0
 40
1.0
 40
1.0
 10
106.3140625
 20
148.2406255019
 30
0.0
 10
106.3822814259
 20
148.2406261727
 30
0.0
 10
106.5255410726
 20
148.2718272148
 30
0.0
 10
106.7131702692
 20
148.3996244416
 30
0.0
 10
106.8620183535
 20
148.5906389223
 30
0.0
 10
106.9140639712
 20
148.7558477924
 30
0.0
 10
106.9140625
 20
148.8406255019
 30
0.0
  0
SPLINE
  5
570
100
AcDbEntity
  8
RUNDUNGEN
100
AcDbSpline
 62
7
  6
CONTINUOUS
 70
0
 71
3
 72
11
 73
7
 74
0
 42
0.0000001
 43
0.0000001
 44
0.0000000001
 40
0.0
 40
0.0
 40
0.0
 40
0.0
 40
0.2757473548
 40
0.53798971
 40
0.7781100633
 40
1.0
 40
1.0
 40
1.0
 40
1.0
 10
126.9140625
 20
148.8406255019
 30
0.0
 10
126.9140609739
 20
148.7558478985
 30
0.0
 10
126.9661076069
 20
148.5906398202
 30
0.0
 10
127.1149543052
 20
148.3996252575
 30
0.0
 10
127.3025833249
 20
148.2718277216
 30
0.0
 10
127.4458431799
 20
148.2406263231
 30
0.0
 10
127.5140625
 20
148.2406255019
 30
0.0
  0
SPLINE
  5
571
100
AcDbEntity
  8
RUNDUNGEN
100
AcDbSpline
 62
7
  6
CONTINUOUS
 70
0
 71
3
 72
13
 73
9
 74
0
 42
0.0000001
 43
0.0000001
 44
0.0000000001
 40
0.0
 40
0.0
 40
0.0
 40
0.0
 40
0.0751852891
 40
0.1610364264
 40
0.2633713272
 40
0.3837736725
 40
0.6723124222
 40
1.0
 40
1.0
 40
1.0
 40
1.0
 10
126.9140625
 20
151.3248651683
 30
0.0
 10
126.9140625
 20
151.3424935649
 30
0.0
 10
126.9233385358
 20
151.3805072431
 30
0.0
 10
126.9602807666
 20
151.4312823542
 30
0.0
 10
127.0174813297
 20
151.476579171
 30
0.0
 10
127.124182802
 20
151.5322812704
 30
0.0
 10
127.2925685612
 20
151.5779183601
 30
0.0
 10
127.4372308931
 20
151.589934299
 30
0.0
 10
127.5140625
 20
151.5899342999
 30
0.0
  0
SPLINE
  5
572
100
AcDbEntity
  8
RUNDUNGEN
100
AcDbSpline
 62
7
  6
CONTINUOUS
 70
0
 71
3
 72
12
 73
8
 74
0
 42
0.0000001
 43
0.0000001
 44
0.0000000001
 40
0.0
 40
0.0
 40
0.0
 40
0.0
 40
0.0740919014
 40
0.1657880414
 40
0.3992268842
 40
0.6862317204
 40
1.0
 40
1.0
 40
1.0
 40
1.0
 10
126.8936204135
 20
152.0663970923
 30
0.0
 10
126.9026021763
 20
152.0789318419
 30
0.0
 10
126.9274388212
 20
152.1035106105
 30
0.0
 10
126.9965432895
 20
152.1500456019
 30
0.0
 10
127.1153371114
 20
152.1990062284
 30
0.0
 10
127.2838819191
 20
152.2416252831
 30
0.0
 10
127.4080955952
 20
152.258629978
 30
0.0
 10
127.4731734915
 20
152.2640543386
 30
0.0
  0
SPLINE
  5
573
100
AcDbEntity
  8
RUNDUNGEN
100
AcDbSpline
 62
7
  6
CONTINUOUS
 70
0
 71
3
 72
12
 73
8
 74
0
 42
0.0000001
 43
0.0000001
 44
0.0000000001
 40
0.0
 40
0.0
 40
0.0
 40
0.0
 40
0.0740901446
 40
0.1657844195
 40
0.3992213464
 40
0.6862278272
 40
1.0
 40
1.0
 40
1.0
 40
1.0
 10
126.8936212396
 20
156.4148539115
 30
0.0
 10
126.9026018831
 20
156.4023187167
 30
0.0
 10
126.9274367766
 20
156.3777388774
 30
0.0
 10
126.996539081
 20
156.3312019124
 30
0.0
 10
127.115332625
 20
156.282239597
 30
0.0
 10
127.2838788995
 20
156.2396197455
 30
0.0
 10
127.4080944343
 20
156.2226152779
 30
0.0
 10
127.4731734914
 20
156.2171912334
 30
0.0
  0
SPLINE
  5
574
100
AcDbEntity
  8
RUNDUNGEN
100
AcDbSpline
 62
7
  6
CONTINUOUS
 70
0
 71
3
 72
13
 73
9
 74
0
 42
0.0000001
 43
0.0000001
 44
0.0000000001
 40
0.0
 40
0.0
 40
0.0
 40
0.0
 40
0.0751852984
 40
0.1610364026
 40
0.2633712672
 40
0.383773579
 40
0.672312356
 40
1.0
 40
1.0
 40
1.0
 40
1.0
 10
126.9140625
 20
157.1563858354
 30
0.0
 10
126.9140625001
 20
157.1387574353
 30
0.0
 10
126.9233385028
 20
157.1007437533
 30
0.0
 10
126.960280725
 20
157.0499686421
 30
0.0
 10
127.0174812552
 20
157.0046718183
 30
0.0
 10
127.1241827073
 20
156.9489696765
 30
0.0
 10
127.2925685016
 20
156.9033325856
 30
0.0
 10
127.4372308714
 20
156.8913166784
 30
0.0
 10
127.5140625
 20
156.8913167082
 30
0.0
  0
SPLINE
  5
575
100
AcDbEntity
  8
RUNDUNGEN
100
AcDbSpline
 62
7
  6
CONTINUOUS
 70
0
 71
3
 72
11
 73
7
 74
0
 42
0.0000001
 43
0.0000001
 44
0.0000000001
 40
0.0
 40
0.0
 40
0.0
 40
0.0
 40
0.221888556
 40
0.462009086
 40
0.7242526164
 40
1.0
 40
1.0
 40
1.0
 40
1.0
 10
127.5140625
 20
160.2406255019
 30
0.0
 10
127.44584358
 20
160.2406248507
 30
0.0
 10
127.3025839579
 20
160.2094237427
 30
0.0
 10
127.114954894
 20
160.0816263431
 30
0.0
 10
126.9661067872
 20
159.8906119486
 30
0.0
 10
126.9140611447
 20
159.7254031445
 30
0.0
 10
126.9140625
 20
159.6406255019
 30
0.0
  0
SPLINE
  5
576
100
AcDbEntity
  8
RUNDUNGEN
100
AcDbSpline
 62
7
  6
CONTINUOUS
 70
0
 71
3
 72
11
 73
7
 74
0
 42
0.0000001
 43
0.0000001
 44
0.0000000001
 40
0.0
 40
0.0
 40
0.0
 40
0.0
 40
0.2757478755
 40
0.5379904257
 40
0.7781107633
 40
1.0
 40
1.0
 40
1.0
 40
1.0
 10
81.9140625
 20
159.6406255019
 30
0.0
 10
81.9140641708
 20
159.72540328
 30
0.0
 10
81.8620173981
 20
159.8906116741
 30
0.0
 10
81.7131703495
 20
160.0816262672
 30
0.0
 10
81.5255413064
 20
160.2094235874
 30
0.0
 10
81.3822816166
 20
160.2406247304
 30
0.0
 10
81.3140625
 20
160.2406255019
 30
0.0
  0
SPLINE
  5
577
100
AcDbEntity
  8
RUNDUNGEN
100
AcDbSpline
 62
7
  6
CONTINUOUS
 70
0
 71
3
 72
13
 73
9
 74
0
 42
0.0000001
 43
0.0000001
 44
0.0000000001
 40
0.0
 40
0.0
 40
0.0
 40
0.0
 40
0.0751852898
 40
0.1610364278
 40
0.2633713291
 40
0.3837736745
 40
0.6723124235
 40
1.0
 40
1.0
 40
1.0
 40
1.0
 10
81.9140625
 20
157.1563858355
 30
0.0
 10
81.9140625
 20
157.1387574387
 30
0.0
 10
81.9047864639
 20
157.1007437602
 30
0.0
 10
81.8678442331
 20
157.0499686486
 30
0.0
 10
81.8106436698
 20
157.0046718313
 30
0.0
 10
81.7039421973
 20
156.948969732
 30
0.0
 10
81.5355564384
 20
156.903332642
 30
0.0
 10
81.3908941067
 20
156.8913167036
 30
0.0
 10
81.3140625
 20
156.891316703
 30
0.0
  0
SPLINE
  5
578
100
AcDbEntity
  8
RUNDUNGEN
100
AcDbSpline
 62
7
  6
CONTINUOUS
 70
0
 71
3
 72
12
 73
8
 74
0
 42
0.0000001
 43
0.0000001
 44
0.0000000001
 40
0.0
 40
0.0
 40
0.0
 40
0.0
 40
0.0740923587
 40
0.1657884267
 40
0.3992266328
 40
0.6862313315
 40
1.0
 40
1.0
 40
1.0
 40
1.0
 10
81.9345057268
 20
156.4148539115
 30
0.0
 10
81.9255240656
 20
156.4023189052
 30
0.0
 10
81.9006876531
 20
156.3777396001
 30
0.0
 10
81.8315834485
 20
156.331203741
 30
0.0
 10
81.7127894835
 20
156.2822425556
 30
0.0
 10
81.5442440433
 20
156.2396237324
 30
0.0
 10
81.4200297563
 20
156.2226197027
 30
0.0
 10
81.3549515085
 20
156.2171958132
 30
0.0
  0
SPLINE
  5
579
100
AcDbEntity
  8
RUNDUNGEN
100
AcDbSpline
 62
7
  6
CONTINUOUS
 70
0
 71
3
 72
12
 73
8
 74
0
 42
0.0000001
 43
0.0000001
 44
0.0000000001
 40
0.0
 40
0.0
 40
0.0
 40
0.0
 40
0.0740899228
 40
0.1657840063
 40
0.3992207703
 40
0.6862274225
 40
1.0
 40
1.0
 40
1.0
 40
1.0
 10
81.9345034286
 20
152.0663970923
 30
0.0
 10
81.9255228928
 20
152.0789323076
 30
0.0
 10
81.9006881674
 20
152.1035122062
 30
0.0
 10
81.8315860888
 20
152.1500492983
 30
0.0
 10
81.7127926282
 20
152.1990117552
 30
0.0
 10
81.5442462993
 20
152.2416317437
 30
0.0
 10
81.4200306486
 20
152.2586362741
 30
0.0
 10
81.3549515086
 20
152.2640603427
 30
0.0
  0
SPLINE
  5
57A
100
AcDbEntity
  8
RUNDUNGEN
100
AcDbSpline
 62
7
  6
CONTINUOUS
 70
0
 71
3
 72
13
 73
9
 74
0
 42
0.0000001
 43
0.0000001
 44
0.0000000001
 40
0.0
 40
0.0
 40
0.0
 40
0.0
 40
0.3579511219
 40
0.5209401609
 40
0.6655976258
 40
0.7874191652
 40
0.8833090954
 40
1.0
 40
1.0
 40
1.0
 40
1.0
 10
211.2211312005
 20
148.8406255019
 30
0.0
 10
211.2211312005
 20
148.7639786781
 30
0.0
 10
211.2158856345
 20
148.6523202825
 30
0.0
 10
211.1966979735
 20
148.5108929113
 30
0.0
 10
211.1782992769
 20
148.4210238851
 30
0.0
 10
211.155028911
 20
148.3458231961
 30
0.0
 10
211.1274387124
 20
148.2828219236
 30
0.0
 10
211.0908263894
 20
148.2406255019
 30
0.0
 10
211.0658397734
 20
148.2406255019
 30
0.0
  0
SPLINE
  5
57B
100
AcDbEntity
  8
RUNDUNGEN
100
AcDbSpline
 62
7
  6
CONTINUOUS
 70
0
 71
3
 72
13
 73
9
 74
0
 42
0.0000001
 43
0.0000001
 44
0.0000000001
 40
0.0
 40
0.0
 40
0.0
 40
0.0
 40
0.3579516202
 40
0.5209405505
 40
0.6655978393
 40
0.7874192725
 40
0.8833091372
 40
1.0
 40
1.0
 40
1.0
 40
1.0
 10
224.13070917
 20
148.8406255019
 30
0.0
 10
224.13070917
 20
148.7639785711
 30
0.0
 10
224.125463603
 20
148.65232009
 30
0.0
 10
224.1062759023
 20
148.5108926775
 30
0.0
 10
224.0878772092
 20
148.4210237352
 30
0.0
 10
224.0646068512
 20
148.3458231233
 30
0.0
 10
224.0370166607
 20
148.282821893
 30
0.0
 10
224.0004043495
 20
148.2406255019
 30
0.0
 10
223.9754177424
 20
148.2406255019
 30
0.0
  0
SPLINE
  5
57C
100
AcDbEntity
  8
RUNDUNGEN
100
AcDbSpline
 62
7
  6
CONTINUOUS
 70
0
 71
3
 72
11
 73
7
 74
0
 42
0.0000001
 43
0.0000001
 44
0.0000000001
 40
0.0
 40
0.0
 40
0.0
 40
0.0
 40
0.2801165132
 40
0.5436324398
 40
0.7817036636
 40
1.0
 40
1.0
 40
1.0
 40
1.0
 10
234.602458393
 20
148.8406255019
 30
0.0
 10
234.6024583937
 20
148.7632130123
 30
0.0
 10
234.5803382071
 20
148.6119103727
 30
0.0
 10
234.4833283454
 20
148.4145241306
 30
0.0
 10
234.3329013195
 20
148.2757110192
 30
0.0
 10
234.2051592502
 20
148.2406255019
 30
0.0
 10
234.144831272
 20
148.2406255019
 30
0.0
  0
SPLINE
  5
57D
100
AcDbEntity
  8
RUNDUNGEN
100
AcDbSpline
 62
7
  6
CONTINUOUS
 70
0
 71
3
 72
11
 73
7
 74
0
 42
0.0000001
 43
0.0000001
 44
0.0000000001
 40
0.0
 40
0.0
 40
0.0
 40
0.0
 40
0.2801165932
 40
0.5436325745
 40
0.7817037483
 40
1.0
 40
1.0
 40
1.0
 40
1.0
 10
234.602458393
 20
159.6406255019
 30
0.0
 10
234.6024583909
 20
159.7180380135
 30
0.0
 10
234.5803381849
 20
159.869340689
 30
0.0
 10
234.4833282902
 20
160.0667269418
 30
0.0
 10
234.3329012592
 20
160.2055400151
 30
0.0
 10
234.2051592266
 20
160.2406255019
 30
0.0
 10
234.144831272
 20
160.2406255019
 30
0.0
  0
SPLINE
  5
57E
100
AcDbEntity
  8
RUNDUNGEN
100
AcDbSpline
 62
7
  6
CONTINUOUS
 70
0
 71
3
 72
13
 73
9
 74
0
 42
0.0000001
 43
0.0000001
 44
0.0000000001
 40
0.0
 40
0.0
 40
0.0
 40
0.0
 40
0.357951621
 40
0.5209405511
 40
0.6655978397
 40
0.7874192727
 40
0.8833091375
 40
1.0
 40
1.0
 40
1.0
 40
1.0
 10
224.13070917
 20
159.6406255019
 30
0.0
 10
224.13070917
 20
159.7172724329
 30
0.0
 10
224.125463603
 20
159.828930914
 30
0.0
 10
224.1062759022
 20
159.9703583264
 30
0.0
 10
224.0878772093
 20
160.0602272685
 30
0.0
 10
224.0646068512
 20
160.1354278804
 30
0.0
 10
224.0370166608
 20
160.1984291105
 30
0.0
 10
224.0004043499
 20
160.2406255019
 30
0.0
 10
223.9754177429
 20
160.2406255019
 30
0.0
  0
SPLINE
  5
57F
100
AcDbEntity
  8
RUNDUNGEN
100
AcDbSpline
 62
7
  6
CONTINUOUS
 70
0
 71
3
 72
13
 73
9
 74
0
 42
0.0000001
 43
0.0000001
 44
0.0000000001
 40
0.0
 40
0.0
 40
0.0
 40
0.0
 40
0.3579511218
 40
0.5209401609
 40
0.6655976258
 40
0.7874191652
 40
0.8833090954
 40
1.0
 40
1.0
 40
1.0
 40
1.0
 10
211.2211312005
 20
159.6406255019
 30
0.0
 10
211.2211312005
 20
159.7172723258
 30
0.0
 10
211.2158856345
 20
159.8289307213
 30
0.0
 10
211.1966979735
 20
159.9703580926
 30
0.0
 10
211.1782992769
 20
160.0602271188
 30
0.0
 10
211.1550289109
 20
160.1354278078
 30
0.0
 10
211.1274387123
 20
160.1984290803
 30
0.0
 10
211.0908263894
 20
160.2406255019
 30
0.0
 10
211.0658397734
 20
160.2406255019
 30
0.0
  0
SPLINE
  5
580
100
AcDbEntity
  8
RUNDUNGEN
100
AcDbSpline
 62
7
  6
CONTINUOUS
 70
0
 71
3
 72
10
 73
6
 74
0
 42
0.0000001
 43
0.0000001
 44
0.0000000001
 40
0.0
 40
0.0
 40
0.0
 40
0.0
 40
0.2480488711
 40
0.496900659
 40
1.0
 40
1.0
 40
1.0
 40
1.0
 10
205.144831272
 20
148.2406255019
 30
0.0
 10
205.4634295571
 20
148.2406261665
 30
0.0
 10
206.1019916524
 20
148.2688610942
 30
0.0
 10
207.3770799279
 20
148.4338020631
 30
0.0
 10
208.3175962442
 20
148.6653643761
 30
0.0
 10
208.9395644642
 20
148.8406255019
 30
0.0
  0
SPLINE
  5
581
100
AcDbEntity
  8
RUNDUNGEN
100
AcDbSpline
 62
7
  6
CONTINUOUS
 70
0
 71
3
 72
14
 73
10
 74
0
 42
0.0000001
 43
0.0000001
 44
0.0000000001
 40
0.0
 40
0.0
 40
0.0
 40
0.0
 40
0.393254748
 40
0.5642318388
 40
0.71088078
 40
0.8298051591
 40
0.9179920008
 40
0.9740049725
 40
1.0
 40
1.0
 40
1.0
 40
1.0
 10
211.2211321585
 20
152.0663970923
 30
0.0
 10
211.164599042
 20
152.0875376852
 30
0.0
 10
211.0838759264
 20
152.11903366
 30
0.0
 10
210.9835103943
 20
152.1616696372
 30
0.0
 10
210.9224436435
 20
152.1896396764
 30
0.0
 10
210.874162353
 20
152.2135518558
 30
0.0
 10
210.8383977283
 20
152.2345727145
 30
0.0
 10
210.8185196974
 20
152.2481601985
 30
0.0
 10
210.8085828185
 20
152.2602932108
 30
0.0
 10
210.809896774
 20
152.2640603427
 30
0.0
  0
SPLINE
  5
582
100
AcDbEntity
  8
RUNDUNGEN
100
AcDbSpline
 62
7
  6
CONTINUOUS
 70
0
 71
3
 72
14
 73
10
 74
0
 42
0.0000001
 43
0.0000001
 44
0.0000000001
 40
0.0
 40
0.0
 40
0.0
 40
0.0
 40
0.3932572844
 40
0.5642344295
 40
0.7108829723
 40
0.8298067056
 40
0.9179928532
 40
0.9740052277
 40
1.0
 40
1.0
 40
1.0
 40
1.0
 10
211.2211315428
 20
156.4148539115
 30
0.0
 10
211.1646001136
 20
156.3937137108
 30
0.0
 10
211.0838795593
 20
156.3622184003
 30
0.0
 10
210.9835173857
 20
156.3195833892
 30
0.0
 10
210.9224530318
 20
156.2916141208
 30
0.0
 10
210.8741737585
 20
156.2677026825
 30
0.0
 10
210.8384108207
 20
156.2466824426
 30
0.0
 10
210.8185336789
 20
156.233095491
 30
0.0
 10
210.8085975351
 20
156.2209627383
 30
0.0
 10
210.8099115417
 20
156.2171958132
 30
0.0
  0
SPLINE
  5
583
100
AcDbEntity
  8
RUNDUNGEN
100
AcDbSpline
 62
7
  6
CONTINUOUS
 70
0
 71
3
 72
10
 73
6
 74
0
 42
0.0000001
 43
0.0000001
 44
0.0000000001
 40
0.0
 40
0.0
 40
0.0
 40
0.0
 40
0.5030986401
 40
0.7519506034
 40
1.0
 40
1.0
 40
1.0
 40
1.0
 10
208.9395644642
 20
159.6406255019
 30
0.0
 10
208.3175975884
 20
159.8158880756
 30
0.0
 10
207.3770814059
 20
160.0474484383
 30
0.0
 10
206.1019932298
 20
160.212389628
 30
0.0
 10
205.4634302317
 20
160.2406247376
 30
0.0
 10
205.144831272
 20
160.2406255019
 30
0.0
  0
SPLINE
  5
584
100
AcDbEntity
  8
RUNDUNGEN
100
AcDbSpline
 62
7
  6
CONTINUOUS
 70
0
 71
3
 72
11
 73
7
 74
0
 42
0.0000001
 43
0.0000001
 44
0.0000000001
 40
0.0
 40
0.0
 40
0.0
 40
0.0
 40
0.304195738
 40
0.5603145699
 40
0.7871419133
 40
1.0
 40
1.0
 40
1.0
 40
1.0
 10
234.6024583906
 20
148.8406255019
 30
0.0
 10
234.8353985546
 20
148.8406244741
 30
0.0
 10
235.2705548712
 20
148.9307611209
 30
0.0
 10
235.7778391098
 20
149.282118741
 30
0.0
 10
236.0780408658
 20
149.7376206834
 30
0.0
 10
236.1448224008
 20
150.0776278286
 30
0.0
 10
236.144831272
 20
150.2406255019
 30
0.0
  0
SPLINE
  5
585
100
AcDbEntity
  8
RUNDUNGEN
100
AcDbSpline
 62
7
  6
CONTINUOUS
 70
0
 71
3
 72
11
 73
7
 74
0
 42
0.0000001
 43
0.0000001
 44
0.0000000001
 40
0.0
 40
0.0
 40
0.0
 40
0.0
 40
0.2127646458
 40
0.4395223405
 40
0.6956416869
 40
1.0
 40
1.0
 40
1.0
 40
1.0
 10
236.144831272
 20
158.2406255019
 30
0.0
 10
236.1448264347
 20
158.4035528775
 30
0.0
 10
236.078094109
 20
158.7434354591
 30
0.0
 10
235.7780692323
 20
159.1988873307
 30
0.0
 10
235.2708388243
 20
159.5504809523
 30
0.0
 10
234.835524843
 20
159.6406208169
 30
0.0
 10
234.6024583906
 20
159.6406255019
 30
0.0
  0
LINE
  5
586
100
AcDbEntity
  8
RUNDUNGEN
100
AcDbLine
 62
7
  6
CONTINUOUS
 10
126.5180084285
 20
90.306969096
 11
124.5524651347
 21
84.3066493463
  0
LINE
  5
587
100
AcDbEntity
  8
RUNDUNGEN
100
AcDbLine
 62
7
  6
CONTINUOUS
 10
134.2756598496
 20
84.3066493945
 11
132.3101165444
 21
90.306969116
  0
LINE
  5
588
100
AcDbEntity
  8
RUNDUNGEN
100
AcDbLine
 62
7
  6
CONTINUOUS
 10
127.4731734915
 20
78.6418860455
 11
127.3744586903
 21
78.3069690936
  0
SPLINE
  5
589
100
AcDbEntity
  8
RUNDUNGEN
100
AcDbSpline
 62
7
  6
CONTINUOUS
 70
0
 71
3
 72
11
 73
7
 74
0
 42
0.0000001
 43
0.0000001
 44
0.0000000001
 40
0.0
 40
0.0
 40
0.0
 40
0.0
 40
0.2298374037
 40
0.469250828
 40
0.725821009
 40
1.0
 40
1.0
 40
1.0
 40
1.0
 10
141.9140625
 20
53.306969096
 30
0.0
 10
141.5735950156
 20
53.30697402
 30
0.0
 10
140.8756441538
 20
53.3944871682
 30
0.0
 10
139.8637226117
 20
53.7851787252
 30
0.0
 10
138.9111010001
 20
54.4284470092
 30
0.0
 10
138.3568920116
 20
54.9937197347
 30
0.0
 10
138.098332352
 20
55.3069396874
 30
0.0
  0
SPLINE
  5
58A
100
AcDbEntity
  8
RUNDUNGEN
100
AcDbSpline
 62
7
  6
CONTINUOUS
 70
0
 71
3
 72
11
 73
7
 74
0
 42
0.0000001
 43
0.0000001
 44
0.0000000001
 40
0.0
 40
0.0
 40
0.0
 40
0.0
 40
0.2741745982
 40
0.5307468289
 40
0.7701619251
 40
1.0
 40
1.0
 40
1.0
 40
1.0
 10
145.7297983381
 20
55.3069459525
 30
0.0
 10
145.4712428612
 20
54.9937299901
 30
0.0
 10
144.9170361804
 20
54.4284580885
 30
0.0
 10
143.9644161606
 20
53.7851852338
 30
0.0
 10
142.9524873081
 20
53.394488252
 30
0.0
 10
142.2545316217
 20
53.3069739125
 30
0.0
 10
141.9140625
 20
53.306969096
 30
0.0
  0
SPLINE
  5
58B
100
AcDbEntity
  8
RUNDUNGEN
100
AcDbSpline
 62
7
  6
CONTINUOUS
 70
0
 71
3
 72
10
 73
6
 74
0
 42
0.0000001
 43
0.0000001
 44
0.0000000001
 40
0.0
 40
0.0
 40
0.0
 40
0.0
 40
0.5002028493
 40
0.7502476118
 40
1.0
 40
1.0
 40
1.0
 40
1.0
 10
152.5140625
 20
84.306969096
 30
0.0
 10
152.2290600165
 20
83.7023895367
 30
0.0
 10
151.7988188994
 20
82.7935889014
 30
0.0
 10
151.4046414645
 20
81.5140881821
 30
0.0
 10
151.3140580219
 20
80.8459636366
 30
0.0
 10
151.3140625
 20
80.5122359038
 30
0.0
  0
SPLINE
  5
58C
100
AcDbEntity
  8
RUNDUNGEN
100
AcDbSpline
 62
7
  6
CONTINUOUS
 70
0
 71
3
 72
11
 73
7
 74
0
 42
0.0000001
 43
0.0000001
 44
0.0000000001
 40
0.0
 40
0.0
 40
0.0
 40
0.0
 40
0.2298374037
 40
0.469250828
 40
0.725821009
 40
1.0
 40
1.0
 40
1.0
 40
1.0
 10
91.9140625
 20
53.306969096
 30
0.0
 10
91.5735950156
 20
53.30697402
 30
0.0
 10
90.8756441538
 20
53.3944871682
 30
0.0
 10
89.8637226117
 20
53.7851787252
 30
0.0
 10
88.9111010001
 20
54.4284470092
 30
0.0
 10
88.3568920116
 20
54.9937197347
 30
0.0
 10
88.098332352
 20
55.3069396874
 30
0.0
  0
SPLINE
  5
58D
100
AcDbEntity
  8
RUNDUNGEN
100
AcDbSpline
 62
7
  6
CONTINUOUS
 70
0
 71
3
 72
11
 73
7
 74
0
 42
0.0000001
 43
0.0000001
 44
0.0000000001
 40
0.0
 40
0.0
 40
0.0
 40
0.0
 40
0.2741745982
 40
0.5307468289
 40
0.7701619251
 40
1.0
 40
1.0
 40
1.0
 40
1.0
 10
95.7297983381
 20
55.3069459525
 30
0.0
 10
95.4712428612
 20
54.9937299901
 30
0.0
 10
94.9170361804
 20
54.4284580885
 30
0.0
 10
93.9644161606
 20
53.7851852338
 30
0.0
 10
92.9524873081
 20
53.394488252
 30
0.0
 10
92.2545316217
 20
53.3069739125
 30
0.0
 10
91.9140625
 20
53.306969096
 30
0.0
  0
SPLINE
  5
58E
100
AcDbEntity
  8
RUNDUNGEN
100
AcDbSpline
 62
7
  6
CONTINUOUS
 70
0
 71
3
 72
11
 73
7
 74
0
 42
0.0000001
 43
0.0000001
 44
0.0000000001
 40
0.0
 40
0.0
 40
0.0
 40
0.0
 40
0.2741745982
 40
0.5307468289
 40
0.7701619251
 40
1.0
 40
1.0
 40
1.0
 40
1.0
 10
120.7297983381
 20
55.3069459525
 30
0.0
 10
120.4712428612
 20
54.9937299901
 30
0.0
 10
119.9170361804
 20
54.4284580885
 30
0.0
 10
118.9644161606
 20
53.7851852338
 30
0.0
 10
117.9524873081
 20
53.394488252
 30
0.0
 10
117.2545316217
 20
53.3069739125
 30
0.0
 10
116.9140625
 20
53.306969096
 30
0.0
  0
LINE
  5
58F
100
AcDbEntity
  8
RUNDUNGEN
100
AcDbLine
 62
7
  6
CONTINUOUS
 10
56.4536663072
 20
78.306969096
 11
56.3549515085
 21
78.6418860455
  0
SPLINE
  5
590
100
AcDbEntity
  8
RUNDUNGEN
100
AcDbSpline
 62
7
  6
CONTINUOUS
 70
0
 71
3
 72
11
 73
7
 74
0
 42
0.0000001
 43
0.0000001
 44
0.0000000001
 40
0.0
 40
0.0
 40
0.0
 40
0.0
 40
0.2298374037
 40
0.469250828
 40
0.725821009
 40
1.0
 40
1.0
 40
1.0
 40
1.0
 10
66.9140625
 20
53.306969096
 30
0.0
 10
66.5735950156
 20
53.30697402
 30
0.0
 10
65.8756441538
 20
53.3944871682
 30
0.0
 10
64.8637226117
 20
53.7851787252
 30
0.0
 10
63.9111010001
 20
54.4284470092
 30
0.0
 10
63.3568920116
 20
54.9937197347
 30
0.0
 10
63.098332352
 20
55.3069396874
 30
0.0
  0
LINE
  5
591
100
AcDbEntity
  8
RUNDUNGEN
100
AcDbLine
 62
7
  6
CONTINUOUS
 10
76.5180084285
 20
90.306969096
 11
74.5524651347
 21
84.3066493463
  0
LINE
  5
592
100
AcDbEntity
  8
RUNDUNGEN
100
AcDbLine
 62
7
  6
CONTINUOUS
 10
84.2756598496
 20
84.3066493945
 11
82.3101165444
 21
90.306969116
  0
LINE
  5
593
100
AcDbEntity
  8
RUNDUNGEN
100
AcDbLine
 62
7
  6
CONTINUOUS
 10
77.4731734915
 20
78.6418860455
 11
77.3744586903
 21
78.3069690936
  0
SPLINE
  5
594
100
AcDbEntity
  8
RUNDUNGEN
100
AcDbSpline
 62
7
  6
CONTINUOUS
 70
0
 71
3
 72
11
 73
7
 74
0
 42
0.0000001
 43
0.0000001
 44
0.0000000001
 40
0.0
 40
0.0
 40
0.0
 40
0.0
 40
0.2536096325
 40
0.5054884651
 40
0.7544005539
 40
1.0
 40
1.0
 40
1.0
 40
1.0
 10
77.5140625
 20
84.306969096
 30
0.0
 10
77.4465730016
 20
83.9888186024
 30
0.0
 10
77.3120257832
 20
83.3547186943
 30
0.0
 10
77.1237267758
 20
82.4055970197
 30
0.0
 10
76.9697034991
 20
81.460938137
 30
0.0
 10
76.9140610812
 20
80.8271936328
 30
0.0
 10
76.9140625
 20
80.5122359038
 30
0.0
  0
SPLINE
  5
595
100
AcDbEntity
  8
RUNDUNGEN
100
AcDbSpline
 62
7
  6
CONTINUOUS
 70
0
 71
3
 72
11
 73
7
 74
0
 42
0.0000001
 43
0.0000001
 44
0.0000000001
 40
0.0
 40
0.0
 40
0.0
 40
0.0
 40
0.2373570441
 40
0.4823090668
 40
0.7376165915
 40
1.0
 40
1.0
 40
1.0
 40
1.0
 10
76.9140625
 20
78.3859605952
 30
0.0
 10
76.9140625001
 20
78.4562908874
 30
0.0
 10
76.946607564
 20
78.6009679035
 30
0.0
 10
77.0825106784
 20
78.7796632548
 30
0.0
 10
77.2814958088
 20
78.8971668922
 30
0.0
 10
77.4363167485
 20
78.9242340766
 30
0.0
 10
77.5140625
 20
78.9242340915
 30
0.0
  0
SPLINE
  5
596
100
AcDbEntity
  8
RUNDUNGEN
100
AcDbSpline
 62
7
  6
CONTINUOUS
 70
0
 71
3
 72
9
 73
5
 74
0
 42
0.0000001
 43
0.0000001
 44
0.0000000001
 40
0.0
 40
0.0
 40
0.0
 40
0.0
 40
0.7473025112
 40
1.0
 40
1.0
 40
1.0
 40
1.0
 10
76.8936212396
 20
78.2306682984
 30
0.0
 10
76.9096749878
 20
78.2905901783
 30
0.0
 10
76.9461313247
 20
78.3677169495
 30
0.0
 10
76.9976004791
 20
78.4329264313
 30
0.0
 10
77.0115246566
 20
78.4486155696
 30
0.0
  0
SPLINE
  5
597
100
AcDbEntity
  8
RUNDUNGEN
100
AcDbSpline
 62
7
  6
CONTINUOUS
 70
0
 71
3
 72
9
 73
5
 74
0
 42
0.0000001
 43
0.0000001
 44
0.0000000001
 40
0.0
 40
0.0
 40
0.0
 40
0.0
 40
0.4936504994
 40
1.0
 40
1.0
 40
1.0
 40
1.0
 10
77.0115246566
 20
78.4486155696
 30
0.0
 10
77.067512433
 20
78.5117000832
 30
0.0
 10
77.2127274246
 20
78.6137258973
 30
0.0
 10
77.3866940148
 20
78.644416025
 30
0.0
 10
77.4731734914
 20
78.6419019536
 30
0.0
  0
SPLINE
  5
598
100
AcDbEntity
  8
RUNDUNGEN
100
AcDbSpline
 62
7
  6
CONTINUOUS
 70
0
 71
3
 72
9
 73
5
 74
0
 42
0.0000001
 43
0.0000001
 44
0.0000000001
 40
0.0
 40
0.0
 40
0.0
 40
0.0
 40
0.7473024792
 40
1.0
 40
1.0
 40
1.0
 40
1.0
 10
56.9345057268
 20
78.2306688252
 30
0.0
 10
56.918450104
 20
78.2905893904
 30
0.0
 10
56.8819919193
 20
78.3677139766
 30
0.0
 10
56.8305217984
 20
78.4329213554
 30
0.0
 10
56.8165974296
 20
78.4486099738
 30
0.0
  0
SPLINE
  5
599
100
AcDbEntity
  8
RUNDUNGEN
100
AcDbSpline
 62
7
  6
CONTINUOUS
 70
0
 71
3
 72
9
 73
5
 74
0
 42
0.0000001
 43
0.0000001
 44
0.0000000001
 40
0.0
 40
0.0
 40
0.0
 40
0.0
 40
0.493650654
 40
1.0
 40
1.0
 40
1.0
 40
1.0
 10
56.8165974296
 20
78.4486099738
 30
0.0
 10
56.7606088614
 20
78.5116924224
 30
0.0
 10
56.6153942175
 20
78.6137142891
 30
0.0
 10
56.4414298834
 20
78.6444029872
 30
0.0
 10
56.3549515085
 20
78.6418888263
 30
0.0
  0
SPLINE
  5
59A
100
AcDbEntity
  8
RUNDUNGEN
100
AcDbSpline
 62
7
  6
CONTINUOUS
 70
0
 71
3
 72
11
 73
7
 74
0
 42
0.0000001
 43
0.0000001
 44
0.0000000001
 40
0.0
 40
0.0
 40
0.0
 40
0.0
 40
0.2373571675
 40
0.4823092428
 40
0.7376166891
 40
1.0
 40
1.0
 40
1.0
 40
1.0
 10
56.9140625
 20
78.3859605951
 30
0.0
 10
56.9140624999
 20
78.4562909258
 30
0.0
 10
56.8815174053
 20
78.6009679979
 30
0.0
 10
56.7456142466
 20
78.7796633606
 30
0.0
 10
56.5466291223
 20
78.8971669494
 30
0.0
 10
56.3918082247
 20
78.9242340892
 30
0.0
 10
56.3140625
 20
78.9242340889
 30
0.0
  0
SPLINE
  5
59B
100
AcDbEntity
  8
RUNDUNGEN
100
AcDbSpline
 62
7
  6
CONTINUOUS
 70
0
 71
3
 72
11
 73
7
 74
0
 42
0.0000001
 43
0.0000001
 44
0.0000000001
 40
0.0
 40
0.0
 40
0.0
 40
0.0
 40
0.2455996873
 40
0.4945108144
 40
0.746389869
 40
1.0
 40
1.0
 40
1.0
 40
1.0
 10
56.9140625
 20
80.5122359038
 30
0.0
 10
56.9140642491
 20
80.8271939386
 30
0.0
 10
56.8584206563
 20
81.4609374573
 30
0.0
 10
56.7043982918
 20
82.4055957598
 30
0.0
 10
56.5160998135
 20
83.354717238
 30
0.0
 10
56.3815522412
 20
83.9888180041
 30
0.0
 10
56.3140625
 20
84.306969096
 30
0.0
  0
LINE
  5
59C
100
AcDbEntity
  8
RUNDUNGEN
100
AcDbLine
 62
7
  6
CONTINUOUS
 10
81.4536663072
 20
78.306969096
 11
81.3549515085
 21
78.6418860455
  0
SPLINE
  5
59D
100
AcDbEntity
  8
RUNDUNGEN
100
AcDbSpline
 62
7
  6
CONTINUOUS
 70
0
 71
3
 72
11
 73
7
 74
0
 42
0.0000001
 43
0.0000001
 44
0.0000000001
 40
0.0
 40
0.0
 40
0.0
 40
0.0
 40
0.2536096325
 40
0.5054884651
 40
0.7544005539
 40
1.0
 40
1.0
 40
1.0
 40
1.0
 10
102.5140625
 20
84.306969096
 30
0.0
 10
102.4465730016
 20
83.9888186024
 30
0.0
 10
102.3120257832
 20
83.3547186943
 30
0.0
 10
102.1237267758
 20
82.4055970197
 30
0.0
 10
101.9697034991
 20
81.460938137
 30
0.0
 10
101.9140610812
 20
80.8271936328
 30
0.0
 10
101.9140625
 20
80.5122359038
 30
0.0
  0
SPLINE
  5
59E
100
AcDbEntity
  8
RUNDUNGEN
100
AcDbSpline
 62
7
  6
CONTINUOUS
 70
0
 71
3
 72
11
 73
7
 74
0
 42
0.0000001
 43
0.0000001
 44
0.0000000001
 40
0.0
 40
0.0
 40
0.0
 40
0.0
 40
0.2373570441
 40
0.4823090668
 40
0.7376165915
 40
1.0
 40
1.0
 40
1.0
 40
1.0
 10
101.9140625
 20
78.3859605952
 30
0.0
 10
101.9140625001
 20
78.4562908874
 30
0.0
 10
101.946607564
 20
78.6009679035
 30
0.0
 10
102.0825106784
 20
78.7796632548
 30
0.0
 10
102.2814958088
 20
78.8971668922
 30
0.0
 10
102.4363167485
 20
78.9242340766
 30
0.0
 10
102.5140625
 20
78.9242340915
 30
0.0
  0
SPLINE
  5
59F
100
AcDbEntity
  8
RUNDUNGEN
100
AcDbSpline
 62
7
  6
CONTINUOUS
 70
0
 71
3
 72
9
 73
5
 74
0
 42
0.0000001
 43
0.0000001
 44
0.0000000001
 40
0.0
 40
0.0
 40
0.0
 40
0.0
 40
0.7473025112
 40
1.0
 40
1.0
 40
1.0
 40
1.0
 10
101.8936212396
 20
78.2306682984
 30
0.0
 10
101.9096749878
 20
78.2905901783
 30
0.0
 10
101.9461313247
 20
78.3677169495
 30
0.0
 10
101.9976004791
 20
78.4329264313
 30
0.0
 10
102.0115246566
 20
78.4486155696
 30
0.0
  0
SPLINE
  5
5A0
100
AcDbEntity
  8
RUNDUNGEN
100
AcDbSpline
 62
7
  6
CONTINUOUS
 70
0
 71
3
 72
9
 73
5
 74
0
 42
0.0000001
 43
0.0000001
 44
0.0000000001
 40
0.0
 40
0.0
 40
0.0
 40
0.0
 40
0.4936504994
 40
1.0
 40
1.0
 40
1.0
 40
1.0
 10
102.0115246566
 20
78.4486155696
 30
0.0
 10
102.067512433
 20
78.5117000832
 30
0.0
 10
102.2127274246
 20
78.6137258973
 30
0.0
 10
102.3866940148
 20
78.644416025
 30
0.0
 10
102.4731734914
 20
78.6419019536
 30
0.0
  0
SPLINE
  5
5A1
100
AcDbEntity
  8
RUNDUNGEN
100
AcDbSpline
 62
7
  6
CONTINUOUS
 70
0
 71
3
 72
9
 73
5
 74
0
 42
0.0000001
 43
0.0000001
 44
0.0000000001
 40
0.0
 40
0.0
 40
0.0
 40
0.0
 40
0.7473024792
 40
1.0
 40
1.0
 40
1.0
 40
1.0
 10
81.9345057268
 20
78.2306688252
 30
0.0
 10
81.918450104
 20
78.2905893904
 30
0.0
 10
81.8819919193
 20
78.3677139766
 30
0.0
 10
81.8305217984
 20
78.4329213554
 30
0.0
 10
81.8165974296
 20
78.4486099738
 30
0.0
  0
SPLINE
  5
5A2
100
AcDbEntity
  8
RUNDUNGEN
100
AcDbSpline
 62
7
  6
CONTINUOUS
 70
0
 71
3
 72
9
 73
5
 74
0
 42
0.0000001
 43
0.0000001
 44
0.0000000001
 40
0.0
 40
0.0
 40
0.0
 40
0.0
 40
0.493650654
 40
1.0
 40
1.0
 40
1.0
 40
1.0
 10
81.8165974296
 20
78.4486099738
 30
0.0
 10
81.7606088614
 20
78.5116924224
 30
0.0
 10
81.6153942175
 20
78.6137142891
 30
0.0
 10
81.4414298834
 20
78.6444029872
 30
0.0
 10
81.3549515085
 20
78.6418888263
 30
0.0
  0
SPLINE
  5
5A3
100
AcDbEntity
  8
RUNDUNGEN
100
AcDbSpline
 62
7
  6
CONTINUOUS
 70
0
 71
3
 72
11
 73
7
 74
0
 42
0.0000001
 43
0.0000001
 44
0.0000000001
 40
0.0
 40
0.0
 40
0.0
 40
0.0
 40
0.2373571675
 40
0.4823092428
 40
0.7376166891
 40
1.0
 40
1.0
 40
1.0
 40
1.0
 10
81.9140625
 20
78.3859605951
 30
0.0
 10
81.9140624999
 20
78.4562909258
 30
0.0
 10
81.8815174053
 20
78.6009679979
 30
0.0
 10
81.7456142466
 20
78.7796633606
 30
0.0
 10
81.5466291223
 20
78.8971669494
 30
0.0
 10
81.3918082247
 20
78.9242340892
 30
0.0
 10
81.3140625
 20
78.9242340889
 30
0.0
  0
SPLINE
  5
5A4
100
AcDbEntity
  8
RUNDUNGEN
100
AcDbSpline
 62
7
  6
CONTINUOUS
 70
0
 71
3
 72
11
 73
7
 74
0
 42
0.0000001
 43
0.0000001
 44
0.0000000001
 40
0.0
 40
0.0
 40
0.0
 40
0.0
 40
0.2455996873
 40
0.4945108144
 40
0.746389869
 40
1.0
 40
1.0
 40
1.0
 40
1.0
 10
81.9140625
 20
80.5122359038
 30
0.0
 10
81.9140642491
 20
80.8271939386
 30
0.0
 10
81.8584206563
 20
81.4609374573
 30
0.0
 10
81.7043982918
 20
82.4055957598
 30
0.0
 10
81.5160998135
 20
83.354717238
 30
0.0
 10
81.3815522412
 20
83.9888180041
 30
0.0
 10
81.3140625
 20
84.306969096
 30
0.0
  0
SPLINE
  5
5A5
100
AcDbEntity
  8
RUNDUNGEN
100
AcDbSpline
 62
7
  6
CONTINUOUS
 70
0
 71
3
 72
11
 73
7
 74
0
 42
0.0000001
 43
0.0000001
 44
0.0000000001
 40
0.0
 40
0.0
 40
0.0
 40
0.0
 40
0.2536096325
 40
0.5054884651
 40
0.7544005539
 40
1.0
 40
1.0
 40
1.0
 40
1.0
 10
127.5140625
 20
84.306969096
 30
0.0
 10
127.4465730016
 20
83.9888186024
 30
0.0
 10
127.3120257832
 20
83.3547186943
 30
0.0
 10
127.1237267758
 20
82.4055970197
 30
0.0
 10
126.9697034991
 20
81.460938137
 30
0.0
 10
126.9140610812
 20
80.8271936328
 30
0.0
 10
126.9140625
 20
80.5122359038
 30
0.0
  0
SPLINE
  5
5A6
100
AcDbEntity
  8
RUNDUNGEN
100
AcDbSpline
 62
7
  6
CONTINUOUS
 70
0
 71
3
 72
11
 73
7
 74
0
 42
0.0000001
 43
0.0000001
 44
0.0000000001
 40
0.0
 40
0.0
 40
0.0
 40
0.0
 40
0.2373570441
 40
0.4823090668
 40
0.7376165915
 40
1.0
 40
1.0
 40
1.0
 40
1.0
 10
126.9140625
 20
78.3859605952
 30
0.0
 10
126.9140625001
 20
78.4562908874
 30
0.0
 10
126.946607564
 20
78.6009679035
 30
0.0
 10
127.0825106784
 20
78.7796632548
 30
0.0
 10
127.2814958088
 20
78.8971668922
 30
0.0
 10
127.4363167485
 20
78.9242340766
 30
0.0
 10
127.5140625
 20
78.9242340915
 30
0.0
  0
SPLINE
  5
5A7
100
AcDbEntity
  8
RUNDUNGEN
100
AcDbSpline
 62
7
  6
CONTINUOUS
 70
0
 71
3
 72
9
 73
5
 74
0
 42
0.0000001
 43
0.0000001
 44
0.0000000001
 40
0.0
 40
0.0
 40
0.0
 40
0.0
 40
0.7473025112
 40
1.0
 40
1.0
 40
1.0
 40
1.0
 10
126.8936212396
 20
78.2306682984
 30
0.0
 10
126.9096749878
 20
78.2905901783
 30
0.0
 10
126.9461313247
 20
78.3677169495
 30
0.0
 10
126.9976004791
 20
78.4329264313
 30
0.0
 10
127.0115246566
 20
78.4486155696
 30
0.0
  0
SPLINE
  5
5A8
100
AcDbEntity
  8
RUNDUNGEN
100
AcDbSpline
 62
7
  6
CONTINUOUS
 70
0
 71
3
 72
9
 73
5
 74
0
 42
0.0000001
 43
0.0000001
 44
0.0000000001
 40
0.0
 40
0.0
 40
0.0
 40
0.0
 40
0.4936504994
 40
1.0
 40
1.0
 40
1.0
 40
1.0
 10
127.0115246566
 20
78.4486155696
 30
0.0
 10
127.067512433
 20
78.5117000832
 30
0.0
 10
127.2127274246
 20
78.6137258973
 30
0.0
 10
127.3866940148
 20
78.644416025
 30
0.0
 10
127.4731734914
 20
78.6419019536
 30
0.0
  0
SPLINE
  5
5A9
100
AcDbEntity
  8
RUNDUNGEN
100
AcDbSpline
 62
7
  6
CONTINUOUS
 70
0
 71
3
 72
9
 73
5
 74
0
 42
0.0000001
 43
0.0000001
 44
0.0000000001
 40
0.0
 40
0.0
 40
0.0
 40
0.0
 40
0.7473024792
 40
1.0
 40
1.0
 40
1.0
 40
1.0
 10
106.9345057268
 20
78.2306688252
 30
0.0
 10
106.918450104
 20
78.2905893904
 30
0.0
 10
106.8819919193
 20
78.3677139766
 30
0.0
 10
106.8305217984
 20
78.4329213554
 30
0.0
 10
106.8165974296
 20
78.4486099738
 30
0.0
  0
SPLINE
  5
5AA
100
AcDbEntity
  8
RUNDUNGEN
100
AcDbSpline
 62
7
  6
CONTINUOUS
 70
0
 71
3
 72
9
 73
5
 74
0
 42
0.0000001
 43
0.0000001
 44
0.0000000001
 40
0.0
 40
0.0
 40
0.0
 40
0.0
 40
0.493650654
 40
1.0
 40
1.0
 40
1.0
 40
1.0
 10
106.8165974296
 20
78.4486099738
 30
0.0
 10
106.7606088614
 20
78.5116924224
 30
0.0
 10
106.6153942175
 20
78.6137142891
 30
0.0
 10
106.4414298834
 20
78.6444029872
 30
0.0
 10
106.3549515085
 20
78.6418888263
 30
0.0
  0
SPLINE
  5
5AB
100
AcDbEntity
  8
RUNDUNGEN
100
AcDbSpline
 62
7
  6
CONTINUOUS
 70
0
 71
3
 72
11
 73
7
 74
0
 42
0.0000001
 43
0.0000001
 44
0.0000000001
 40
0.0
 40
0.0
 40
0.0
 40
0.0
 40
0.2373571675
 40
0.4823092428
 40
0.7376166891
 40
1.0
 40
1.0
 40
1.0
 40
1.0
 10
106.9140625
 20
78.3859605951
 30
0.0
 10
106.9140624999
 20
78.4562909258
 30
0.0
 10
106.8815174053
 20
78.6009679979
 30
0.0
 10
106.7456142466
 20
78.7796633606
 30
0.0
 10
106.5466291223
 20
78.8971669494
 30
0.0
 10
106.3918082247
 20
78.9242340892
 30
0.0
 10
106.3140625
 20
78.9242340889
 30
0.0
  0
SPLINE
  5
5AC
100
AcDbEntity
  8
RUNDUNGEN
100
AcDbSpline
 62
7
  6
CONTINUOUS
 70
0
 71
3
 72
11
 73
7
 74
0
 42
0.0000001
 43
0.0000001
 44
0.0000000001
 40
0.0
 40
0.0
 40
0.0
 40
0.0
 40
0.2455996873
 40
0.4945108144
 40
0.746389869
 40
1.0
 40
1.0
 40
1.0
 40
1.0
 10
106.9140625
 20
80.5122359038
 30
0.0
 10
106.9140642491
 20
80.8271939386
 30
0.0
 10
106.8584206563
 20
81.4609374573
 30
0.0
 10
106.7043982918
 20
82.4055957598
 30
0.0
 10
106.5160998135
 20
83.354717238
 30
0.0
 10
106.3815522412
 20
83.9888180041
 30
0.0
 10
106.3140625
 20
84.306969096
 30
0.0
  0
SPLINE
  5
5AD
100
AcDbEntity
  8
RUNDUNGEN
100
AcDbSpline
 62
7
  6
CONTINUOUS
 70
0
 71
3
 72
11
 73
7
 74
0
 42
0.0000001
 43
0.0000001
 44
0.0000000001
 40
0.0
 40
0.0
 40
0.0
 40
0.0
 40
0.2536096325
 40
0.5054884651
 40
0.7544005539
 40
1.0
 40
1.0
 40
1.0
 40
1.0
 10
152.5140625
 20
84.306969096
 30
0.0
 10
152.4465730016
 20
83.9888186024
 30
0.0
 10
152.3120257832
 20
83.3547186943
 30
0.0
 10
152.1237267758
 20
82.4055970197
 30
0.0
 10
151.9697034991
 20
81.460938137
 30
0.0
 10
151.9140610812
 20
80.8271936328
 30
0.0
 10
151.9140625
 20
80.5122359038
 30
0.0
  0
SPLINE
  5
5AE
100
AcDbEntity
  8
RUNDUNGEN
100
AcDbSpline
 62
7
  6
CONTINUOUS
 70
0
 71
3
 72
11
 73
7
 74
0
 42
0.0000001
 43
0.0000001
 44
0.0000000001
 40
0.0
 40
0.0
 40
0.0
 40
0.0
 40
0.2373570442
 40
0.4823090669
 40
0.7376165916
 40
1.0
 40
1.0
 40
1.0
 40
1.0
 10
151.9140625
 20
78.3859605952
 30
0.0
 10
151.9140625001
 20
78.4562908874
 30
0.0
 10
151.9466075639
 20
78.6009679036
 30
0.0
 10
152.0825106783
 20
78.779663255
 30
0.0
 10
152.2814958087
 20
78.8971668925
 30
0.0
 10
152.4363167485
 20
78.9242340767
 30
0.0
 10
152.5140625
 20
78.9242340915
 30
0.0
  0
SPLINE
  5
5AF
100
AcDbEntity
  8
RUNDUNGEN
100
AcDbSpline
 62
7
  6
CONTINUOUS
 70
0
 71
3
 72
9
 73
5
 74
0
 42
0.0000001
 43
0.0000001
 44
0.0000000001
 40
0.0
 40
0.0
 40
0.0
 40
0.0
 40
0.7473025112
 40
1.0
 40
1.0
 40
1.0
 40
1.0
 10
151.8936212346
 20
78.2306682998
 30
0.0
 10
151.9096749856
 20
78.2905901775
 30
0.0
 10
151.9461313256
 20
78.367716945
 30
0.0
 10
151.9976004816
 20
78.4329264232
 30
0.0
 10
152.0115246595
 20
78.4486155605
 30
0.0
  0
SPLINE
  5
5B0
100
AcDbEntity
  8
RUNDUNGEN
100
AcDbSpline
 62
7
  6
CONTINUOUS
 70
0
 71
3
 72
9
 73
5
 74
0
 42
0.0000001
 43
0.0000001
 44
0.0000000001
 40
0.0
 40
0.0
 40
0.0
 40
0.0
 40
0.4936504997
 40
1.0
 40
1.0
 40
1.0
 40
1.0
 10
152.0115246595
 20
78.4486155605
 30
0.0
 10
152.0675124375
 20
78.5117000707
 30
0.0
 10
152.2127274295
 20
78.6137258777
 30
0.0
 10
152.3866940166
 20
78.6444160015
 30
0.0
 10
152.4731734914
 20
78.6419019292
 30
0.0
  0
LINE
  5
5B1
100
AcDbEntity
  8
RUNDUNGEN
100
AcDbLine
 62
7
  6
CONTINUOUS
 10
151.5180084285
 20
90.306969096
 11
149.5524651347
 21
84.3066493463
  0
SPLINE
  5
5B2
100
AcDbEntity
  8
RUNDUNGEN
100
AcDbSpline
 62
7
  6
CONTINUOUS
 70
0
 71
3
 72
9
 73
5
 74
0
 42
0.0000001
 43
0.0000001
 44
0.0000000001
 40
0.0
 40
0.0
 40
0.0
 40
0.0
 40
0.7473024791
 40
1.0
 40
1.0
 40
1.0
 40
1.0
 10
131.9345057288
 20
78.2306688257
 30
0.0
 10
131.9184501064
 20
78.2905893908
 30
0.0
 10
131.8819919218
 20
78.367713977
 30
0.0
 10
131.8305218009
 20
78.4329213555
 30
0.0
 10
131.816597432
 20
78.4486099739
 30
0.0
  0
SPLINE
  5
5B3
100
AcDbEntity
  8
RUNDUNGEN
100
AcDbSpline
 62
7
  6
CONTINUOUS
 70
0
 71
3
 72
9
 73
5
 74
0
 42
0.0000001
 43
0.0000001
 44
0.0000000001
 40
0.0
 40
0.0
 40
0.0
 40
0.0
 40
0.4936506539
 40
1.0
 40
1.0
 40
1.0
 40
1.0
 10
131.816597432
 20
78.4486099739
 30
0.0
 10
131.7606088636
 20
78.5116924225
 30
0.0
 10
131.6153942185
 20
78.6137142885
 30
0.0
 10
131.4414298836
 20
78.6444029849
 30
0.0
 10
131.3549515085
 20
78.6418888233
 30
0.0
  0
SPLINE
  5
5B4
100
AcDbEntity
  8
RUNDUNGEN
100
AcDbSpline
 62
7
  6
CONTINUOUS
 70
0
 71
3
 72
11
 73
7
 74
0
 42
0.0000001
 43
0.0000001
 44
0.0000000001
 40
0.0
 40
0.0
 40
0.0
 40
0.0
 40
0.2373571673
 40
0.4823092425
 40
0.7376166889
 40
1.0
 40
1.0
 40
1.0
 40
1.0
 10
131.9140625
 20
78.3859605951
 30
0.0
 10
131.9140624999
 20
78.4562909257
 30
0.0
 10
131.8815174054
 20
78.6009679978
 30
0.0
 10
131.7456142468
 20
78.7796633604
 30
0.0
 10
131.5466291225
 20
78.8971669493
 30
0.0
 10
131.3918082248
 20
78.9242340892
 30
0.0
 10
131.3140625
 20
78.9242340889
 30
0.0
  0
SPLINE
  5
5B5
100
AcDbEntity
  8
RUNDUNGEN
100
AcDbSpline
 62
7
  6
CONTINUOUS
 70
0
 71
3
 72
11
 73
7
 74
0
 42
0.0000001
 43
0.0000001
 44
0.0000000001
 40
0.0
 40
0.0
 40
0.0
 40
0.0
 40
0.2455996873
 40
0.4945108144
 40
0.746389869
 40
1.0
 40
1.0
 40
1.0
 40
1.0
 10
131.9140625
 20
80.5122359038
 30
0.0
 10
131.9140642491
 20
80.8271939386
 30
0.0
 10
131.8584206563
 20
81.4609374573
 30
0.0
 10
131.7043982918
 20
82.4055957598
 30
0.0
 10
131.5160998135
 20
83.354717238
 30
0.0
 10
131.3815522412
 20
83.9888180041
 30
0.0
 10
131.3140625
 20
84.306969096
 30
0.0
  0
LINE
  5
5B6
100
AcDbEntity
  8
RUNDUNGEN
100
AcDbLine
 62
7
  6
CONTINUOUS
 10
106.4536663072
 20
78.306969096
 11
106.3549515085
 21
78.6418860455
  0
SPLINE
  5
5B7
100
AcDbEntity
  8
RUNDUNGEN
100
AcDbSpline
 62
7
  6
CONTINUOUS
 70
0
 71
3
 72
11
 73
7
 74
0
 42
0.0000001
 43
0.0000001
 44
0.0000000001
 40
0.0
 40
0.0
 40
0.0
 40
0.0
 40
0.2298374037
 40
0.469250828
 40
0.725821009
 40
1.0
 40
1.0
 40
1.0
 40
1.0
 10
116.9140625
 20
53.306969096
 30
0.0
 10
116.5735950156
 20
53.30697402
 30
0.0
 10
115.8756441538
 20
53.3944871682
 30
0.0
 10
114.8637226117
 20
53.7851787252
 30
0.0
 10
113.9111010001
 20
54.4284470092
 30
0.0
 10
113.3568920116
 20
54.9937197347
 30
0.0
 10
113.098332352
 20
55.3069396874
 30
0.0
  0
SPLINE
  5
5B8
100
AcDbEntity
  8
RUNDUNGEN
100
AcDbSpline
 62
7
  6
CONTINUOUS
 70
0
 71
3
 72
10
 73
6
 74
0
 42
0.0000001
 43
0.0000001
 44
0.0000000001
 40
0.0
 40
0.0
 40
0.0
 40
0.0
 40
0.5002028493
 40
0.7502476118
 40
1.0
 40
1.0
 40
1.0
 40
1.0
 10
77.5140625
 20
84.306969096
 30
0.0
 10
77.2290600165
 20
83.7023895367
 30
0.0
 10
76.7988188994
 20
82.7935889014
 30
0.0
 10
76.4046414645
 20
81.5140881821
 30
0.0
 10
76.3140580219
 20
80.8459636366
 30
0.0
 10
76.3140625
 20
80.5122359038
 30
0.0
  0
SPLINE
  5
5B9
100
AcDbEntity
  8
RUNDUNGEN
100
AcDbSpline
 62
7
  6
CONTINUOUS
 70
0
 71
3
 72
10
 73
6
 74
0
 42
0.0000001
 43
0.0000001
 44
0.0000000001
 40
0.0
 40
0.0
 40
0.0
 40
0.0
 40
0.2497537256
 40
0.4997964359
 40
1.0
 40
1.0
 40
1.0
 40
1.0
 10
57.5140625
 20
80.5122359038
 30
0.0
 10
57.5140680739
 20
80.8459654181
 30
0.0
 10
57.423482521
 20
81.5140889827
 30
0.0
 10
57.0293057587
 20
82.7935895114
 30
0.0
 10
56.5990655459
 20
83.7023887583
 30
0.0
 10
56.3140625
 20
84.306969096
 30
0.0
  0
SPLINE
  5
5BA
100
AcDbEntity
  8
RUNDUNGEN
100
AcDbSpline
 62
7
  6
CONTINUOUS
 70
0
 71
3
 72
10
 73
6
 74
0
 42
0.0000001
 43
0.0000001
 44
0.0000000001
 40
0.0
 40
0.0
 40
0.0
 40
0.0
 40
0.5002028493
 40
0.7502476118
 40
1.0
 40
1.0
 40
1.0
 40
1.0
 10
127.5140625
 20
84.306969096
 30
0.0
 10
127.2290600165
 20
83.7023895367
 30
0.0
 10
126.7988188994
 20
82.7935889014
 30
0.0
 10
126.4046414645
 20
81.5140881821
 30
0.0
 10
126.3140580219
 20
80.8459636366
 30
0.0
 10
126.3140625
 20
80.5122359038
 30
0.0
  0
LINE
  5
5BB
100
AcDbEntity
  8
RUNDUNGEN
100
AcDbLine
 62
7
  6
CONTINUOUS
 10
131.4536663072
 20
78.306969096
 11
131.3549515085
 21
78.6418860455
  0
LINE
  5
5BC
100
AcDbEntity
  8
RUNDUNGEN
100
AcDbLine
 62
7
  6
CONTINUOUS
 10
101.5180084285
 20
90.306969096
 11
99.5524651347
 21
84.3066493463
  0
LINE
  5
5BD
100
AcDbEntity
  8
RUNDUNGEN
100
AcDbLine
 62
7
  6
CONTINUOUS
 10
109.2756598496
 20
84.3066493945
 11
107.3101165444
 21
90.306969116
  0
LINE
  5
5BE
100
AcDbEntity
  8
RUNDUNGEN
100
AcDbLine
 62
7
  6
CONTINUOUS
 10
102.4731734915
 20
78.6418860455
 11
102.3744586903
 21
78.3069690936
  0
SPLINE
  5
5BF
100
AcDbEntity
  8
RUNDUNGEN
100
AcDbSpline
 62
7
  6
CONTINUOUS
 70
0
 71
3
 72
10
 73
6
 74
0
 42
0.0000001
 43
0.0000001
 44
0.0000000001
 40
0.0
 40
0.0
 40
0.0
 40
0.0
 40
0.2497537256
 40
0.4997964359
 40
1.0
 40
1.0
 40
1.0
 40
1.0
 10
107.5140625
 20
80.5122359038
 30
0.0
 10
107.5140680739
 20
80.8459654181
 30
0.0
 10
107.423482521
 20
81.5140889827
 30
0.0
 10
107.0293057587
 20
82.7935895114
 30
0.0
 10
106.5990655459
 20
83.7023887583
 30
0.0
 10
106.3140625
 20
84.306969096
 30
0.0
  0
LINE
  5
5C0
100
AcDbEntity
  8
RUNDUNGEN
100
AcDbLine
 62
7
  6
CONTINUOUS
 10
152.4731734915
 20
78.6418860455
 11
152.3744586903
 21
78.3069690936
  0
SPLINE
  5
5C1
100
AcDbEntity
  8
RUNDUNGEN
100
AcDbSpline
 62
7
  6
CONTINUOUS
 70
0
 71
3
 72
10
 73
6
 74
0
 42
0.0000001
 43
0.0000001
 44
0.0000000001
 40
0.0
 40
0.0
 40
0.0
 40
0.0
 40
0.2497537256
 40
0.4997964359
 40
1.0
 40
1.0
 40
1.0
 40
1.0
 10
132.5140625
 20
80.5122359038
 30
0.0
 10
132.5140680739
 20
80.8459654181
 30
0.0
 10
132.423482521
 20
81.5140889827
 30
0.0
 10
132.0293057587
 20
82.7935895114
 30
0.0
 10
131.5990655459
 20
83.7023887583
 30
0.0
 10
131.3140625
 20
84.306969096
 30
0.0
  0
SPLINE
  5
5C2
100
AcDbEntity
  8
RUNDUNGEN
100
AcDbSpline
 62
7
  6
CONTINUOUS
 70
0
 71
3
 72
11
 73
7
 74
0
 42
0.0000001
 43
0.0000001
 44
0.0000000001
 40
0.0
 40
0.0
 40
0.0
 40
0.0
 40
0.2741745982
 40
0.5307468289
 40
0.7701619251
 40
1.0
 40
1.0
 40
1.0
 40
1.0
 10
70.7297983381
 20
55.3069459525
 30
0.0
 10
70.4712428612
 20
54.9937299901
 30
0.0
 10
69.9170361804
 20
54.4284580885
 30
0.0
 10
68.9644161606
 20
53.7851852338
 30
0.0
 10
67.9524873081
 20
53.394488252
 30
0.0
 10
67.2545316217
 20
53.3069739125
 30
0.0
 10
66.9140625
 20
53.306969096
 30
0.0
  0
SPLINE
  5
5C3
100
AcDbEntity
  8
RUNDUNGEN
100
AcDbSpline
 62
7
  6
CONTINUOUS
 70
0
 71
3
 72
10
 73
6
 74
0
 42
0.0000001
 43
0.0000001
 44
0.0000000001
 40
0.0
 40
0.0
 40
0.0
 40
0.0
 40
0.5002028493
 40
0.7502476118
 40
1.0
 40
1.0
 40
1.0
 40
1.0
 10
102.5140625
 20
84.306969096
 30
0.0
 10
102.2290600165
 20
83.7023895367
 30
0.0
 10
101.7988188994
 20
82.7935889014
 30
0.0
 10
101.4046414645
 20
81.5140881821
 30
0.0
 10
101.3140580219
 20
80.8459636366
 30
0.0
 10
101.3140625
 20
80.5122359038
 30
0.0
  0
LINE
  5
5C4
100
AcDbEntity
  8
RUNDUNGEN
100
AcDbLine
 62
7
  6
CONTINUOUS
 10
59.2756598496
 20
84.3066493945
 11
57.3101165444
 21
90.306969116
  0
SPLINE
  5
5C5
100
AcDbEntity
  8
RUNDUNGEN
100
AcDbSpline
 62
7
  6
CONTINUOUS
 70
0
 71
3
 72
10
 73
6
 74
0
 42
0.0000001
 43
0.0000001
 44
0.0000000001
 40
0.0
 40
0.0
 40
0.0
 40
0.0
 40
0.2497537256
 40
0.4997964359
 40
1.0
 40
1.0
 40
1.0
 40
1.0
 10
82.5140625
 20
80.5122359038
 30
0.0
 10
82.5140680739
 20
80.8459654181
 30
0.0
 10
82.423482521
 20
81.5140889827
 30
0.0
 10
82.0293057587
 20
82.7935895114
 30
0.0
 10
81.5990655459
 20
83.7023887583
 30
0.0
 10
81.3140625
 20
84.306969096
 30
0.0
  0
ELLIPSE
  5
5C6
100
AcDbEntity
  8
0
100
AcDbEllipse
 62
7
  6
CONTINUOUS
 10
59.9137537093
 20
154.2406255019
 30
0.0
 11
-0.0
 21
2.695
 31
0.0
 40
0.2679491924
 41
0.0
 42
3.1415926536
  0
ELLIPSE
  5
5C7
100
AcDbEntity
  8
0
100
AcDbEllipse
 62
7
  6
CONTINUOUS
 10
109.9137537093
 20
154.2406255019
 30
0.0
 11
-0.0
 21
2.695
 31
0.0
 40
0.2679491924
 41
-0.0
 42
3.1415926536
  0
ELLIPSE
  5
5C8
100
AcDbEntity
  8
0
100
AcDbEllipse
 62
7
  6
CONTINUOUS
 10
123.9143712907
 20
154.2406255019
 30
0.0
 11
-0.0
 21
2.695
 31
0.0
 40
0.2679491924
 41
-3.1415926536
 42
-0.0
  0
ELLIPSE
  5
5C9
100
AcDbEntity
  8
0
100
AcDbEllipse
 62
7
  6
CONTINUOUS
 10
73.9143712907
 20
154.2406255019
 30
0.0
 11
-0.0
 21
2.695
 31
0.0
 40
0.2679491924
 41
-3.1415926536
 42
0.0
  0
ELLIPSE
  5
5CA
100
AcDbEntity
  8
0
100
AcDbEllipse
 62
7
  6
CONTINUOUS
 10
84.9137537093
 20
154.2406255019
 30
0.0
 11
-0.0
 21
2.695
 31
0.0
 40
0.2679491924
 41
0.0
 42
3.1415926536
  0
ELLIPSE
  5
5CB
100
AcDbEntity
  8
0
100
AcDbEllipse
 62
7
  6
CONTINUOUS
 10
134.9137537093
 20
154.2406255019
 30
0.0
 11
-0.0
 21
2.695
 31
0.0
 40
0.2679491924
 41
-0.0
 42
3.1415926536
  0
ELLIPSE
  5
5CC
100
AcDbEntity
  8
0
100
AcDbEllipse
 62
7
  6
CONTINUOUS
 10
98.9143712907
 20
154.2406255019
 30
0.0
 11
-0.0
 21
2.695
 31
0.0
 40
0.2679491924
 41
-3.1415926536
 42
-0.0
  0
ELLIPSE
  5
5CD
100
AcDbEntity
  8
0
100
AcDbEllipse
 62
7
  6
CONTINUOUS
 10
148.9143712907
 20
154.2406255019
 30
0.0
 11
-0.0
 21
2.695
 31
0.0
 40
0.2679491924
 41
-3.1415926536
 42
-0.0
  0
ENDSEC
  0
SECTION
  2
OBJECTS
  0
DICTIONARY
  5
C
100
AcDbDictionary
280
0
281
1
  3
ACAD_GROUP
350
D
  3
ACAD_MLINESTYLE
350
17
  3
ACAD_LAYOUT
350
1A
  3
ACAD_PLOTSETTINGS
350
19
  3
ACAD_PLOTSTYLENAME
350
E
  0
DICTIONARY
  5
D
102
{ACAD_REACTORS
330
C
102
}
100
AcDbDictionary
280
0
281
1
  0
ACDBDICTIONARYWDFLT
  5
E
102
{ACAD_REACTORS
330
C
102
}
100
AcDbDictionary
281
1
  3
Normal
350
F
100
AcDbDictionaryWithDefault
340
F
  0
DICTIONARY
  5
17
102
{ACAD_REACTORS
330
C
102
}
100
AcDbDictionary
280
0
281
1
  3
Standard
350
18
  0
DICTIONARY
  5
19
102
{ACAD_REACTORS
330
C
102
}
100
AcDbDictionary
281
1
  0
DICTIONARY
  5
1A
102
{ACAD_REACTORS
330
C
102
}
100
AcDbDictionary
281
1
  3
Model
350
5CE
  3
Layout1
350
5CF
  0
ACDBPLACEHOLDER
  5
F
102
{ACAD_REACTORS
330
E
102
}
  0
MLINESTYLE
  5
18
102
{ACAD_REACTORS
330
17
102
}
100
AcDbMlineStyle
  2
STANDARD
 70
0
  3

 62
256
 51
90.0
 52
90.0
 71
2
 49
0.5
 62
256
  6
BYLAYER
 49
-0.5
 62
256
  6
BYLAYER
  0
LAYOUT
  5
5CE
102
{ACAD_REACTORS
330
1A
102
}
100
AcDbPlotSettings
  1

  2
none_device
  4
ISO_A4_(297.00_x_210.00_MM)
  6

 40
0.0
 41
0.0
 42
0.0
 43
0.0
 44
297.0
 45
210.0
 46
0.0
 47
0.0
 48
0.0
 49
0.0
140
0.0
141
0.0
142
1.0
143
1.0
 70
1024
 72
1
 73
0
 74
0
  7

 75
0
147
1.0
148
0.0
149
0.0
100
AcDbLayout
  1
Model
 70
0
 71
0
 10
0.0
 20
0.0
 11
297.0
 21
210.0
 12
0.0
 22
0.0
 32
0.0
 14
0.0
 24
0.0
 34
0.0
 15
0.0
 25
0.0
 35
0.0
146
0.0
 13
0.0
 23
0.0
 33
0.0
 16
1.0
 26
0.0
 36
0.0
 17
0.0
 27
1.0
 37
0.0
 76
0
330
20F
345
0
346
0
  0
LAYOUT
  5
5CF
102
{ACAD_REACTORS
330
1A
102
}
100
AcDbPlotSettings
  1

  2
none_device
  4
ISO_A4_(297.00_x_210.00_MM)
  6

 40
0.0
 41
0.0
 42
0.0
 43
0.0
 44
297.0
 45
210.0
 46
0.0
 47
0.0
 48
0.0
 49
0.0
140
0.0
141
0.0
142
1.0
143
1.0
 70
0
 72
1
 73
0
 74
0
  7

 75
0
147
1.0
148
0.0
149
0.0
100
AcDbLayout
  1
Layout1
 70
0
 71
1
 10
0.0
 20
0.0
 11
297.0
 21
210.0
 12
0.0
 22
0.0
 32
0.0
 14
0.0
 24
0.0
 34
0.0
 15
0.0
 25
0.0
 35
0.0
146
0.0
 13
0.0
 23
0.0
 33
0.0
 16
1.0
 26
0.0
 36
0.0
 17
0.0
 27
1.0
 37
0.0
 76
0
330
210
345
0
346
0
  0
ENDSEC
  0
EOF
