  0
SECTION
  2
HEADER
  9
$ACADVER
  1
AC1018
  9
$ACADMAINTVER
 70
     0
  9
$DWGCODEPAGE
  3
ANSI_1252
  9
$INSBASE
 10
0.0
 20
0.0
 30
0.0
  9
$EXTMIN
 10
44.35159137389746
 20
-4.82659232006823
 30
0.0
  9
$EXTMAX
 10
232.9489673738975
 20
128.5250876799318
 30
0.0
  9
$LIMMIN
 10
44.35159137389746
 20
-4.82659232006823
  9
$LIMMAX
 10
232.9489673738975
 20
128.5250876799318
  9
$ORTHOMODE
 70
     1
  9
$REGENMODE
 70
     1
  9
$FILLMODE
 70
     1
  9
$QTEXTMODE
 70
     0
  9
$MIRRTEXT
 70
     0
  9
$LTSCALE
 40
1.0
  9
$ATTMODE
 70
     1
  9
$TEXTSIZE
 40
2.5
  9
$TRACEWID
 40
1.0
  9
$TEXTSTYLE
  7
Standard
  9
$CLAYER
  8
0
  9
$CELTYPE
  6
ByLayer
  9
$CECOLOR
 62
     7
  9
$CELTSCALE
 40
1.0
  9
$DISPSILH
 70
     0
  9
$DIMSCALE
 40
1.0
  9
$DIMASZ
 40
0.18
  9
$DIMEXO
 40
0.0625
  9
$DIMDLI
 40
0.38
  9
$DIMRND
 40
0.0000001
  9
$DIMDLE
 40
0.0
  9
$DIMEXE
 40
0.18
  9
$DIMTP
 40
0.0
  9
$DIMTM
 40
0.0
  9
$DIMTXT
 40
0.18
  9
$DIMCEN
 40
0.09
  9
$DIMTSZ
 40
0.0
  9
$DIMTOL
 70
     0
  9
$DIMLIM
 70
     0
  9
$DIMTIH
 70
     1
  9
$DIMTOH
 70
     1
  9
$DIMSE1
 70
     0
  9
$DIMSE2
 70
     0
  9
$DIMTAD
 70
     0
  9
$DIMZIN
 70
     0
  9
$DIMBLK
  1

  9
$DIMASO
 70
     1
  9
$DIMSHO
 70
     1
  9
$DIMPOST
  1

  9
$DIMAPOST
  1

  9
$DIMALT
 70
     0
  9
$DIMALTD
 70
     2
  9
$DIMALTF
 40
25.4
  9
$DIMLFAC
 40
1.0
  9
$DIMTOFL
 70
     0
  9
$DIMTVP
 40
0.0
  9
$DIMTIX
 70
     0
  9
$DIMSOXD
 70
     0
  9
$DIMSAH
 70
     0
  9
$DIMBLK1
  1

  9
$DIMBLK2
  1

  9
$DIMSTYLE
  2
Standard
  9
$DIMCLRD
 70
     0
  9
$DIMCLRE
 70
     0
  9
$DIMCLRT
 70
     0
  9
$DIMTFAC
 40
1.0
  9
$DIMGAP
 40
0.09
  9
$DIMJUST
 70
     0
  9
$DIMSD1
 70
     0
  9
$DIMSD2
 70
     0
  9
$DIMTOLJ
 70
     1
  9
$DIMTZIN
 70
     0
  9
$DIMALTZ
 70
     0
  9
$DIMALTTZ
 70
     0
  9
$DIMUPT
 70
     0
  9
$DIMDEC
 70
     4
  9
$DIMTDEC
 70
     4
  9
$DIMALTU
 70
     2
  9
$DIMALTTD
 70
     2
  9
$DIMTXSTY
  7
_TCW_TXTSTY_1
  9
$DIMAUNIT
 70
     0
  9
$DIMADEC
 70
     4
  9
$DIMALTRND
 40
0.01
  9
$DIMAZIN
 70
     0
  9
$DIMDSEP
 70
    46
  9
$DIMATFIT
 70
     3
  9
$DIMFRAC
 70
     0
  9
$DIMLDRBLK
  1

  9
$DIMLUNIT
 70
     2
  9
$DIMLWD
 70
    -2
  9
$DIMLWE
 70
    -2
  9
$DIMTMOVE
 70
     0
  9
$LUNITS
 70
     2
  9
$LUPREC
 70
     4
  9
$SKETCHINC
 40
1.0
  9
$FILLETRAD
 40
0.0
  9
$AUNITS
 70
     0
  9
$AUPREC
 70
     0
  9
$MENU
  1
.
  9
$ELEVATION
 40
0.0
  9
$PELEVATION
 40
0.0
  9
$THICKNESS
 40
0.0
  9
$LIMCHECK
 70
     0
  9
$CHAMFERA
 40
0.5
  9
$CHAMFERB
 40
0.5
  9
$CHAMFERC
 40
1.0
  9
$CHAMFERD
 40
0.0
  9
$SKPOLY
 70
     0
  9
$TDCREATE
 40
2454839.559426724
  9
$TDUCREATE
 40
2454839.517760058
  9
$TDUPDATE
 40
2454839.559426736
  9
$TDUUPDATE
 40
2454839.51776007
  9
$TDINDWG
 40
0.0
  9
$TDUSRTIMER
 40
0.0
  9
$USRTIMER
 70
     1
  9
$ANGBASE
 50
0.0
  9
$ANGDIR
 70
     0
  9
$PDMODE
 70
     0
  9
$PDSIZE
 40
0.0
  9
$PLINEWID
 40
0.0
  9
$SPLFRAME
 70
     0
  9
$SPLINETYPE
 70
     6
  9
$SPLINESEGS
 70
     8
  9
$HANDSEED
  5
2D5
  9
$SURFTAB1
 70
     6
  9
$SURFTAB2
 70
     6
  9
$SURFTYPE
 70
     6
  9
$SURFU
 70
     6
  9
$SURFV
 70
     6
  9
$UCSBASE
  2

  9
$UCSNAME
  2

  9
$UCSORG
 10
0.0
 20
0.0
 30
0.0
  9
$UCSXDIR
 10
1.0
 20
0.0
 30
0.0
  9
$UCSYDIR
 10
0.0
 20
1.0
 30
0.0
  9
$UCSORTHOREF
  2

  9
$UCSORTHOVIEW
 70
     0
  9
$UCSORGTOP
 10
0.0
 20
0.0
 30
0.0
  9
$UCSORGBOTTOM
 10
0.0
 20
0.0
 30
0.0
  9
$UCSORGLEFT
 10
0.0
 20
0.0
 30
0.0
  9
$UCSORGRIGHT
 10
0.0
 20
0.0
 30
0.0
  9
$UCSORGFRONT
 10
0.0
 20
0.0
 30
0.0
  9
$UCSORGBACK
 10
0.0
 20
0.0
 30
0.0
  9
$PUCSBASE
  2

  9
$PUCSNAME
  2

  9
$PUCSORG
 10
0.0
 20
0.0
 30
0.0
  9
$PUCSXDIR
 10
1.0
 20
0.0
 30
0.0
  9
$PUCSYDIR
 10
0.0
 20
1.0
 30
0.0
  9
$PUCSORTHOREF
  2

  9
$PUCSORTHOVIEW
 70
     0
  9
$PUCSORGTOP
 10
0.0
 20
0.0
 30
0.0
  9
$PUCSORGBOTTOM
 10
0.0
 20
0.0
 30
0.0
  9
$PUCSORGLEFT
 10
0.0
 20
0.0
 30
0.0
  9
$PUCSORGRIGHT
 10
0.0
 20
0.0
 30
0.0
  9
$PUCSORGFRONT
 10
0.0
 20
0.0
 30
0.0
  9
$PUCSORGBACK
 10
0.0
 20
0.0
 30
0.0
  9
$USERI1
 70
     0
  9
$USERI2
 70
     0
  9
$USERI3
 70
     0
  9
$USERI4
 70
     0
  9
$USERI5
 70
     0
  9
$USERR1
 40
0.0
  9
$USERR2
 40
0.0
  9
$USERR3
 40
0.0
  9
$USERR4
 40
0.0
  9
$USERR5
 40
0.0
  9
$WORLDVIEW
 70
     1
  9
$SHADEDGE
 70
     3
  9
$SHADEDIF
 70
    70
  9
$TILEMODE
 70
     1
  9
$MAXACTVP
 70
    64
  9
$PINSBASE
 10
0.0
 20
0.0
 30
0.0
  9
$PLIMCHECK
 70
     0
  9
$PEXTMIN
 10
0.0
 20
0.0
 30
0.0
  9
$PEXTMAX
 10
162.0
 20
229.0
 30
0.0
  9
$PLIMMIN
 10
0.0
 20
0.0
  9
$PLIMMAX
 10
162.0
 20
229.0
  9
$UNITMODE
 70
     0
  9
$VISRETAIN
 70
     1
  9
$PLINEGEN
 70
     0
  9
$PSLTSCALE
 70
     1
  9
$TREEDEPTH
 70
  3020
  9
$CMLSTYLE
  2
Standard
  9
$CMLJUST
 70
     0
  9
$CMLSCALE
 40
1.0
  9
$PROXYGRAPHICS
 70
     1
  9
$MEASUREMENT
 70
     0
  9
$CELWEIGHT
370
    -1
  9
$ENDCAPS
280
     0
  9
$JOINSTYLE
280
     0
  9
$LWDISPLAY
290
     0
  9
$INSUNITS
 70
     1
  9
$HYPERLINKBASE
  1

  9
$STYLESHEET
  1

  9
$XEDIT
290
     1
  9
$CEPSNTYPE
380
     0
  9
$PSTYLEMODE
290
     1
  9
$FINGERPRINTGUID
  2
{35A3C86A-FA34-43CD-9470-85C1695A9E17}
  9
$VERSIONGUID
  2
{FAEB1C32-E019-11D5-929B-00C0DF256EC4}
  9
$EXTNAMES
290
     1
  9
$PSVPSCALE
 40
0.0
  9
$OLESTARTUP
290
     0
  9
$SORTENTS
280
   127
  9
$INDEXCTL
280
     0
  9
$HIDETEXT
280
     1
  9
$XCLIPFRAME
290
     0
  9
$HALOGAP
280
     0
  9
$OBSCOLOR
 70
   257
  9
$OBSLTYPE
280
     0
  9
$INTERSECTIONDISPLAY
280
     0
  9
$INTERSECTIONCOLOR
 70
   257
  9
$DIMASSOC
280
     2
  9
$PROJECTNAME
  1

  0
ENDSEC
  0
SECTION
  2
CLASSES
  0
CLASS
  1
ACDBDICTIONARYWDFLT
  2
AcDbDictionaryWithDefault
  3
ObjectDBX Classes
 90
        0
 91
        3
280
     0
281
     0
  0
CLASS
  1
VISUALSTYLE
  2
AcDbVisualStyle
  3
ObjectDBX Classes
 90
     4095
 91
        3
280
     0
281
     0
  0
CLASS
  1
TCOPTIONALDATA
  2
TcOptionalData
  3
ExTcadCustObjs|Description: TurboCAD extension data object
 90
        0
 91
        3
280
     0
281
     0
  0
ENDSEC
  0
SECTION
  2
TABLES
  0
TABLE
  2
VPORT
  5
8
330
0
100
AcDbSymbolTable
 70
     1
  0
VPORT
  5
29
330
8
100
AcDbSymbolTableRecord
100
AcDbViewportTableRecord
  2
*Active
 70
     0
 10
0.0
 20
0.0
 11
1.0
 21
1.0
 12
0.0
 22
0.0
 13
0.0
 23
0.0
 14
10.0
 24
10.0
 15
10.0
 25
10.0
 16
0.0
 26
0.0
 36
1.0
 17
265.6626016773364
 27
128.5535502132661
 37
0.0
 40
95.60349620408039
 41
1.972704714640199
 42
50.0
 43
0.0
 44
0.0
 50
0.0
 51
0.0
 71
     0
 72
   100
 73
     1
 74
     3
 75
     0
 76
     0
 77
     0
 78
     0
281
     0
 65
     1
110
0.0
120
0.0
130
0.0
111
1.0
121
0.0
131
0.0
112
0.0
122
1.0
132
0.0
 79
     0
146
0.0
  0
ENDTAB
  0
TABLE
  2
LTYPE
  5
5
330
0
100
AcDbSymbolTable
 70
    17
  0
LTYPE
  5
14
330
5
100
AcDbSymbolTableRecord
100
AcDbLinetypeTableRecord
  2
ByBlock
 70
     0
  3

 72
    65
 73
     0
 40
0.0
  0
LTYPE
  5
15
330
5
100
AcDbSymbolTableRecord
100
AcDbLinetypeTableRecord
  2
ByLayer
 70
     0
  3

 72
    65
 73
     0
 40
0.0
  0
LTYPE
  5
16
330
5
100
AcDbSymbolTableRecord
100
AcDbLinetypeTableRecord
  2
Continuous
 70
     0
  3
Solid line
 72
    65
 73
     0
 40
0.0
  0
LTYPE
  5
40
330
5
100
AcDbSymbolTableRecord
100
AcDbLinetypeTableRecord
  2
Durchgehend
 70
     0
  3
Durchgehend
 72
    65
 73
     0
 40
0.0
  0
LTYPE
  5
41
330
5
100
AcDbSymbolTableRecord
100
AcDbLinetypeTableRecord
  2
Rand
 70
     0
  3
Rand
 72
    65
 73
     6
 40
1.75
 49
0.5
 74
     0
 49
-0.25
 74
     0
 49
0.5
 74
     0
 49
-0.25
 74
     0
 49
0.0
 74
     0
 49
-0.25
 74
     0
  0
LTYPE
  5
42
330
5
100
AcDbSymbolTableRecord
100
AcDbLinetypeTableRecord
  2
Mitte
 70
     0
  3
Mitte
 72
    65
 73
     4
 40
2.0
 49
1.25
 74
     0
 49
-0.25
 74
     0
 49
0.25
 74
     0
 49
-0.25
 74
     0
  0
LTYPE
  5
43
330
5
100
AcDbSymbolTableRecord
100
AcDbLinetypeTableRecord
  2
Strichpunkt
 70
     0
  3
Strichpunkt
 72
    65
 73
     4
 40
1.0
 49
0.5
 74
     0
 49
-0.25
 74
     0
 49
0.0
 74
     0
 49
-0.25
 74
     0
  0
LTYPE
  5
44
330
5
100
AcDbSymbolTableRecord
100
AcDbLinetypeTableRecord
  2
Gestrichelt
 70
     0
  3
Gestrichelt
 72
    65
 73
     2
 40
0.75
 49
0.5
 74
     0
 49
-0.25
 74
     0
  0
LTYPE
  5
45
330
5
100
AcDbSymbolTableRecord
100
AcDbLinetypeTableRecord
  2
Teilen
 70
     0
  3
Teilen
 72
    65
 73
     6
 40
1.25
 49
0.5
 74
     0
 49
-0.25
 74
     0
 49
0.0
 74
     0
 49
-0.25
 74
     0
 49
0.0
 74
     0
 49
-0.25
 74
     0
  0
LTYPE
  5
46
330
5
100
AcDbSymbolTableRecord
100
AcDbLinetypeTableRecord
  2
Punkt
 70
     0
  3
Punkt
 72
    65
 73
     2
 40
0.25
 49
0.0
 74
     0
 49
-0.25
 74
     0
  0
LTYPE
  5
47
330
5
100
AcDbSymbolTableRecord
100
AcDbLinetypeTableRecord
  2
Verdeckt
 70
     0
  3
Verdeckt
 72
    65
 73
     2
 40
0.375
 49
0.25
 74
     0
 49
-0.125
 74
     0
  0
LTYPE
  5
48
330
5
100
AcDbSymbolTableRecord
100
AcDbLinetypeTableRecord
  2
$INVISIBLE
 70
     0
  3
$INVISIBLE
 72
    65
 73
     2
 40
200.0
 49
-100.0
 74
     0
 49
-100.0
 74
     0
  0
LTYPE
  5
49
330
5
100
AcDbSymbolTableRecord
100
AcDbLinetypeTableRecord
  2
HIDDEN
 70
     0
  3
HIDDEN
 72
    65
 73
     2
 40
9.524999999999999
 49
6.35
 74
     0
 49
-3.175
 74
     0
  0
LTYPE
  5
4A
330
5
100
AcDbSymbolTableRecord
100
AcDbLinetypeTableRecord
  2
DOT
 70
     0
  3
DOT
 72
    65
 73
     2
 40
0.25
 49
0.0
 74
     0
 49
-0.25
 74
     0
  0
LTYPE
  5
4B
330
5
100
AcDbSymbolTableRecord
100
AcDbLinetypeTableRecord
  2
CENTER
 70
     0
  3
CENTER
 72
    65
 73
     4
 40
50.8
 49
31.75
 74
     0
 49
-6.35
 74
     0
 49
6.35
 74
     0
 49
-6.35
 74
     0
  0
LTYPE
  5
4C
330
5
100
AcDbSymbolTableRecord
100
AcDbLinetypeTableRecord
  2
DASHDOT
 70
     0
  3
DASHDOT
 72
    65
 73
     4
 40
1.0
 49
0.5
 74
     0
 49
-0.25
 74
     0
 49
0.0
 74
     0
 49
-0.25
 74
     0
  0
LTYPE
  5
4D
330
5
100
AcDbSymbolTableRecord
100
AcDbLinetypeTableRecord
  2
DASHED
 70
     0
  3
DASHED
 72
    65
 73
     2
 40
0.75
 49
0.5
 74
     0
 49
-0.25
 74
     0
  0
LTYPE
  5
4E
330
5
100
AcDbSymbolTableRecord
100
AcDbLinetypeTableRecord
  2
$SNAPEXT
 70
     0
  3
$SNAPEXT
 72
    65
 73
     2
 40
0.04
 49
0.02
 74
     0
 49
-0.02
 74
     0
  0
LTYPE
  5
4F
330
5
100
AcDbSymbolTableRecord
100
AcDbLinetypeTableRecord
  2
$AUXILIARY
 70
     0
  3
$AUXILIARY
 72
    65
 73
     2
 40
0.1
 49
0.05
 74
     0
 49
-0.05
 74
     0
  0
ENDTAB
  0
TABLE
  2
LAYER
  5
2
330
0
100
AcDbSymbolTable
 70
     2
  0
LAYER
  5
10
330
2
100
AcDbSymbolTableRecord
100
AcDbLayerTableRecord
  2
0
 70
     0
 62
     7
  6
Continuous
370
     0
390
F
  0
LAYER
  5
50
330
2
100
AcDbSymbolTableRecord
100
AcDbLayerTableRecord
  2
Main lines
 70
     0
 62
     1
420
 16711680
  6
Continuous
370
    50
390
F
  0
ENDTAB
  0
TABLE
  2
STYLE
  5
3
330
0
100
AcDbSymbolTable
 70
     5
  0
STYLE
  5
11
330
3
100
AcDbSymbolTableRecord
100
AcDbTextStyleTableRecord
  2
Standard
 70
     0
 40
0.0
 41
1.0
 50
0.0
 71
     0
 42
0.2
  3
txt
  4

  0
STYLE
  5
55
330
3
100
AcDbSymbolTableRecord
100
AcDbTextStyleTableRecord
  2
ISO Proportional
 70
     0
 40
0.0
 41
1.0
 50
0.0
 71
     0
 42
2.5
  3
ISOCP.SHX
  4

  0
STYLE
  5
56
330
3
100
AcDbSymbolTableRecord
100
AcDbTextStyleTableRecord
  2

 70
     1
 40
0.0
 41
1.0
 50
0.0
 71
     0
 42
2.5
  3
LTYPESHP.SHX
  4

  0
STYLE
  5
57
330
3
100
AcDbSymbolTableRecord
100
AcDbTextStyleTableRecord
  2
YUSIMPLE
 70
     0
 40
0.0
 41
1.0
 50
0.0
 71
     0
 42
2.5
  3
YUSIMPLE.SHX
  4

  0
STYLE
  5
58
330
3
100
AcDbSymbolTableRecord
100
AcDbTextStyleTableRecord
  2
_TCW_TXTSTY_1
 70
     0
 40
0.0
 41
1.0
 50
0.0
 71
     0
 42
0.6000000238418579
  3
TXT.SHX
  4

  0
ENDTAB
  0
TABLE
  2
VIEW
  5
6
330
0
100
AcDbSymbolTable
 70
     4
  0
VIEW
  5
51
330
6
100
AcDbSymbolTableRecord
100
AcDbViewTableRecord
  2
Ansicht_0
 70
     0
 40
210.0
 10
148.5
 20
105.0
 41
297.0
 11
0.0
 21
0.0
 31
1.0
 12
0.0
 22
0.0
 32
0.0
 42
50.0
 43
0.0
 44
0.0
 50
0.0
 71
     0
281
     0
 72
     0
  0
VIEW
  5
52
330
6
100
AcDbSymbolTableRecord
100
AcDbViewTableRecord
  2
View_1
 70
     0
 40
201.3931070680139
 10
717.1860183610022
 20
392.4295019556221
 41
280.2283967588442
 11
0.0
 21
0.0
 31
1.0
 12
0.0
 22
0.0
 32
0.0
 42
50.0
 43
0.0
 44
0.0
 50
0.0
 71
     0
281
     0
 72
     0
  0
VIEW
  5
53
330
6
100
AcDbSymbolTableRecord
100
AcDbViewTableRecord
  2
View_2
 70
     0
 40
201.393107068014
 10
717.186022139866
 20
392.4295042396324
 41
280.2283967588442
 11
0.0
 21
0.0
 31
1.0
 12
0.0
 22
0.0
 32
0.0
 42
50.0
 43
0.0
 44
0.0
 50
0.0
 71
     0
281
     0
 72
     0
  0
VIEW
  5
54
330
6
100
AcDbSymbolTableRecord
100
AcDbViewTableRecord
  2
View_3
 70
     0
 40
201.393107068014
 10
717.1860259187298
 20
392.4295065236427
 41
280.2283967588444
 11
0.0
 21
0.0
 31
1.0
 12
0.0
 22
0.0
 32
0.0
 42
50.0
 43
0.0
 44
0.0
 50
0.0
 71
     0
281
     0
 72
     0
  0
ENDTAB
  0
TABLE
  2
UCS
  5
7
330
0
100
AcDbSymbolTable
 70
     0
  0
ENDTAB
  0
TABLE
  2
APPID
  5
9
330
0
100
AcDbSymbolTable
 70
     2
  0
APPID
  5
12
330
9
100
AcDbSymbolTableRecord
100
AcDbRegAppTableRecord
  2
ACAD
 70
     0
  0
APPID
  5
3F
330
9
100
AcDbSymbolTableRecord
100
AcDbRegAppTableRecord
  2
TCAD
 70
     0
  0
ENDTAB
  0
TABLE
  2
DIMSTYLE
  5
A
330
0
100
AcDbSymbolTable
 70
     2
100
AcDbDimStyleTable
  0
DIMSTYLE
105
27
330
A
100
AcDbSymbolTableRecord
100
AcDbDimStyleTableRecord
  2
Standard
 70
     0
 45
0.0000001
148
0.01
179
     4
340
58
  0
DIMSTYLE
105
59
330
A
100
AcDbSymbolTableRecord
100
AcDbDimStyleTableRecord
  2
ISO-25
 70
     0
 41
2.5
 42
0.625
 43
3.75
 44
1.25
 45
0.0000001
 73
     0
 74
     0
 77
     1
 78
     8
140
2.5
143
0.03937007874016
147
0.625
148
0.0000001
171
     3
172
     1
178
     1
179
     2
271
     2
272
     2
274
     3
283
     0
284
     8
340
58
  0
ENDTAB
  0
TABLE
  2
BLOCK_RECORD
  5
1
330
0
100
AcDbSymbolTable
 70
     2
  0
BLOCK_RECORD
  5
1F
330
1
100
AcDbSymbolTableRecord
100
AcDbBlockTableRecord
  2
*Model_Space
340
22
  0
BLOCK_RECORD
  5
1B
330
1
100
AcDbSymbolTableRecord
100
AcDbBlockTableRecord
  2
*Paper_Space
340
1E
  0
BLOCK_RECORD
  5
3B
330
1
100
AcDbSymbolTableRecord
100
AcDbBlockTableRecord
  2
*Paper_Space1
340
3C
  0
ENDTAB
  0
ENDSEC
  0
SECTION
  2
BLOCKS
  0
BLOCK
  5
20
330
1F
100
AcDbEntity
  8
0
100
AcDbBlockBegin
  2
*Model_Space
 70
     0
 71
     0
 10
0.0
 20
0.0
 30
0.0
  3
*Model_Space
  1

  0
ENDBLK
  5
21
330
1F
100
AcDbEntity
  8
0
100
AcDbBlockEnd
  0
BLOCK
  5
1C
330
1B
100
AcDbEntity
 67
     1
  8
0
100
AcDbBlockBegin
  2
*Paper_Space
 70
     0
 71
     0
 10
0.0
 20
0.0
 30
0.0
  3
*Paper_Space
  1

  0
ENDBLK
  5
1D
330
1B
100
AcDbEntity
 67
     1
  8
0
100
AcDbBlockEnd
  0
BLOCK
  5
3D
330
3B
100
AcDbEntity
  8
0
100
AcDbBlockBegin
  2
*Paper_Space1
 70
     0
 71
     0
 10
0.0
 20
0.0
 30
0.0
  3
*Paper_Space1
  1

  0
VIEWPORT
  5
2D1
330
3B
100
AcDbEntity
  8
0
100
AcDbViewport
 10
138.6502793738975
 20
61.84924767993177
 30
0.0
 40
188.597376
 41
133.35168
 68
     1
 69
     1
 12
138.6502793738975
 22
61.84924767993177
 13
0.0
 23
0.0
 14
10.0
 24
10.0
 15
10.0
 25
10.0
 16
0.0
 26
0.0
 36
1.0
 17
0.0
 27
0.0
 37
0.0
 42
50.0
 43
0.0
 44
0.0
 45
133.35168
 50
0.0
 51
0.0
 72
  1000
 90
    32800
  1

281
     0
 71
     1
 74
     0
110
0.0
120
0.0
130
0.0
111
1.0
121
0.0
131
0.0
112
0.0
122
1.0
132
0.0
 79
     0
146
0.0
170
     0
  0
VIEWPORT
  5
2D2
330
3B
100
AcDbEntity
  8
0
  6
Durchgehend
100
AcDbViewport
 10
140.0218848823794
 20
101.9028953504165
 30
0.0
 40
280.2283957583874
 41
201.3931063490108
 68
     2
 69
     2
 12
717.1860296975935
 22
392.429508807653
 13
0.0
 23
0.0
 14
0.5
 24
0.5
 15
0.0
 25
0.0
 16
0.0
 26
0.0
 36
1.0
 17
0.0
 27
0.0
 37
0.0
 42
50.0
 43
0.0
 44
0.0
 45
201.3931070680141
 50
0.0
 51
0.0
 72
   100
 90
   557152
  1

281
     0
 71
     1
 74
     0
110
0.0
120
0.0
130
0.0
111
1.0
121
0.0
131
0.0
112
0.0
122
1.0
132
0.0
 79
     0
146
0.0
170
     0
  0
ENDBLK
  5
3E
330
3B
100
AcDbEntity
  8
0
100
AcDbBlockEnd
  0
ENDSEC
  0
SECTION
  2
ENTITIES
  0
ARC
  5
5C
102
{ACAD_XDICTIONARY
360
5A
102
}
330
1F
100
AcDbEntity
  8
Main lines
 48
0.75
100
AcDbCircle
 10
231.4388689387736
 20
169.0525502108692
 30
0.0
 40
2.500000000000011
100
AcDbArc
 50
4.932223647218085
 51
90.0
  0
LINE
  5
5F
102
{ACAD_XDICTIONARY
360
5D
102
}
330
1F
100
AcDbEntity
  8
Main lines
 48
0.75
100
AcDbLine
 10
235.3396932943528
 20
163.8525502108693
 30
0.0
 11
236.6396932943526
 21
163.5525502108692
 31
0.0
  0
ARC
  5
62
102
{ACAD_XDICTIONARY
360
60
102
}
330
1F
100
AcDbEntity
  8
Main lines
 48
0.75
100
AcDbCircle
 10
250.5345626796548
 20
170.7004476925171
 30
0.0
 40
16.66666600000002
100
AcDbArc
 50
-175.0677763527816
 51
-155.7402585165937
  0
LINE
  5
65
102
{ACAD_XDICTIONARY
360
63
102
}
330
1F
100
AcDbEntity
  8
Main lines
 48
0.75
100
AcDbLine
 10
231.4388689387736
 20
171.5525502108692
 30
0.0
 11
225.9896932943528
 21
171.5525502108692
 31
0.0
  0
ARC
  5
68
102
{ACAD_XDICTIONARY
360
66
102
}
330
1F
100
AcDbEntity
  8
Main lines
 48
0.75
100
AcDbCircle
 10
225.3065400865282
 20
175.7729100224125
 30
0.0
 40
16.66666000000001
100
AcDbArc
 50
-47.15718023474976
 51
-36.06933346639656
  0
LINE
  5
6B
102
{ACAD_XDICTIONARY
360
69
102
}
330
1F
100
AcDbEntity
  8
Main lines
 48
0.75
100
AcDbLine
 10
246.9003309151755
 20
164.7718369893614
 30
0.0
 11
241.0129310177286
 21
166.6847691756415
 31
0.0
  0
ARC
  5
6E
102
{ACAD_XDICTIONARY
360
6C
102
}
330
1F
100
AcDbEntity
  8
Main lines
 48
0.75
100
AcDbCircle
 10
240.3948970289787
 20
164.7826561430512
 30
0.0
 40
1.999999999999989
100
AcDbArc
 50
72.00000000000102
 51
143.9306665336044
  0
ARC
  5
71
102
{ACAD_XDICTIONARY
360
6F
102
}
330
1F
100
AcDbEntity
  8
Main lines
 48
0.75
100
AcDbCircle
 10
201.444823908068
 20
170.7004476925171
 30
0.0
 40
16.66666599999999
100
AcDbArc
 50
-24.2597414834063
 51
-4.932223647218275
  0
LINE
  5
74
102
{ACAD_XDICTIONARY
360
72
102
}
330
1F
100
AcDbEntity
  8
Main lines
 48
0.75
100
AcDbLine
 10
205.0790556738511
 20
164.771836989785
 30
0.0
 11
210.9664555699943
 21
166.6847691756415
 31
0.0
  0
ARC
  5
77
102
{ACAD_XDICTIONARY
360
75
102
}
330
1F
100
AcDbEntity
  8
Main lines
 48
0.75
100
AcDbCircle
 10
226.6728465011946
 20
175.7729100224125
 30
0.0
 40
16.66666000000004
100
AcDbArc
 50
-143.9306665336035
 51
-132.8428197652503
  0
LINE
  5
7A
102
{ACAD_XDICTIONARY
360
78
102
}
330
1F
100
AcDbEntity
  8
Main lines
 48
0.75
100
AcDbLine
 10
216.63969329337
 20
163.8525502108693
 30
0.0
 11
215.3396932933703
 21
163.5525502108692
 31
0.0
  0
ARC
  5
7D
102
{ACAD_XDICTIONARY
360
7B
102
}
330
1F
100
AcDbEntity
  8
Main lines
 48
0.75
100
AcDbCircle
 10
211.5844895587441
 20
164.7826561430512
 30
0.0
 40
2.000000000000005
100
AcDbArc
 50
36.06933346639556
 51
107.9999999999987
  0
ARC
  5
80
102
{ACAD_XDICTIONARY
360
7E
102
}
330
1F
100
AcDbEntity
  8
Main lines
 48
0.75
100
AcDbCircle
 10
220.5405176489493
 20
169.0525502108692
 30
0.0
 40
2.5
100
AcDbArc
 50
90.0
 51
175.0677763527819
  0
LINE
  5
83
102
{ACAD_XDICTIONARY
360
81
102
}
330
1F
100
AcDbEntity
  8
Main lines
 48
0.75
100
AcDbLine
 10
220.5405176489493
 20
171.5525502108692
 30
0.0
 11
225.9896932933701
 21
171.5525502108692
 31
0.0
  0
LINE
  5
86
102
{ACAD_XDICTIONARY
360
84
102
}
330
1F
100
AcDbEntity
  8
Main lines
 48
0.75
100
AcDbLine
 10
207.3793220122975
 20
160.7876588206555
 30
0.0
 11
210.711946504672
 21
161.8704941583762
 31
0.0
  0
ARC
  5
89
102
{ACAD_XDICTIONARY
360
87
102
}
330
1F
100
AcDbEntity
  8
Main lines
 48
0.75
100
AcDbCircle
 10
226.6728465011946
 20
175.7729100224125
 30
0.0
 40
21.16666000000003
100
AcDbArc
 50
-138.9431718875415
 51
-129.164136711045
  0
ARC
  5
8C
102
{ACAD_XDICTIONARY
360
8A
102
}
330
1F
100
AcDbEntity
  8
Main lines
 48
0.75
100
AcDbCircle
 10
201.444823908068
 20
170.7004476925171
 30
0.0
 40
21.16666599999999
100
AcDbArc
 50
-28.09870306373424
 51
-9.923993713444712
  0
LINE
  5
8F
102
{ACAD_XDICTIONARY
360
8D
102
}
330
1F
100
AcDbEntity
  8
Main lines
 48
0.75
100
AcDbLine
 10
222.2947781890477
 20
167.0525502108692
 30
0.0
 11
225.9896932933701
 21
167.0525502108692
 31
0.0
  0
LINE
  5
92
102
{ACAD_XDICTIONARY
360
90
102
}
330
1F
100
AcDbEntity
  8
Main lines
 48
0.75
100
AcDbLine
 10
229.6846083986752
 20
167.0525502108692
 30
0.0
 11
225.9896932943528
 21
167.0525502108692
 31
0.0
  0
ARC
  5
95
102
{ACAD_XDICTIONARY
360
93
102
}
330
1F
100
AcDbEntity
  8
Main lines
 48
0.75
100
AcDbCircle
 10
250.5345626796548
 20
170.7004476925171
 30
0.0
 40
21.166666
100
AcDbArc
 50
-170.0760062865553
 51
-151.9012969362659
  0
LINE
  5
98
102
{ACAD_XDICTIONARY
360
96
102
}
330
1F
100
AcDbEntity
  8
Main lines
 48
0.75
100
AcDbLine
 10
244.6000645767292
 20
160.7876588202319
 30
0.0
 11
241.2674400830508
 21
161.8704941583762
 31
0.0
  0
ARC
  5
9B
102
{ACAD_XDICTIONARY
360
99
102
}
330
1F
100
AcDbEntity
  8
Main lines
 48
0.75
100
AcDbCircle
 10
225.3065400865282
 20
175.7729100224125
 30
0.0
 40
21.16666
100
AcDbArc
 50
-50.83586328895498
 51
-41.05682811245848
  0
ARC
  5
9E
102
{ACAD_XDICTIONARY
360
9C
102
}
330
1F
100
AcDbEntity
  8
Main lines
 48
0.75
100
AcDbCircle
 10
216.147115445413
 20
162.8505827824392
 30
0.0
 40
4.499999999999979
100
AcDbArc
 50
-129.164136711045
 51
-28.09870306373431
  0
ARC
  5
A1
102
{ACAD_XDICTIONARY
360
9F
102
}
330
1F
100
AcDbEntity
  8
Main lines
 48
0.75
100
AcDbCircle
 10
235.8322711423099
 20
162.8505827824392
 30
0.0
 40
4.5
100
AcDbArc
 50
-151.9012969362659
 51
-50.83586328895521
  0
ARC
  5
A4
102
{ACAD_XDICTIONARY
360
A2
102
}
330
1F
100
AcDbEntity
  8
Main lines
 48
0.75
100
AcDbCircle
 10
225.9896932946356
 20
128.5535502119251
 30
0.0
 40
40.55627335329923
100
AcDbArc
 50
70.10485207140898
 51
78.54903866173856
  0
ARC
  5
A7
102
{ACAD_XDICTIONARY
360
A5
102
}
330
1F
100
AcDbEntity
  8
Main lines
 48
0.75
100
AcDbCircle
 10
225.9896932946356
 20
128.5535502119251
 30
0.0
 40
40.5562733532992
100
AcDbArc
 50
101.4509613405611
 51
109.8951479296768
  0
LINE
  5
AA
102
{ACAD_XDICTIONARY
360
A8
102
}
330
1F
100
AcDbEntity
  8
Main lines
 48
0.75
100
AcDbLine
 10
194.4960388280469
 20
151.0029405576632
 30
0.0
 11
192.6485812758858
 21
147.8030502124932
 31
0.0
  0
LINE
  5
AD
102
{ACAD_XDICTIONARY
360
AB
102
}
330
1F
100
AcDbEntity
  8
Main lines
 48
0.75
100
AcDbLine
 10
191.4760547810661
 20
154.7721747502451
 30
0.0
 11
188.7514669588558
 21
150.0530502124932
 31
0.0
  0
ARC
  5
B0
102
{ACAD_XDICTIONARY
360
AE
102
}
330
1F
100
AcDbEntity
  8
Main lines
 48
0.75
100
AcDbCircle
 10
191.366302890311
 20
137.1781440423703
 30
0.0
 40
4.499999999999985
100
AcDbArc
 50
-69.16413671104478
 51
31.90129693626588
  0
ARC
  5
B3
102
{ACAD_XDICTIONARY
360
B1
102
}
330
1F
100
AcDbEntity
  8
Main lines
 48
0.75
100
AcDbCircle
 10
185.4381047523693
 20
152.7548581500667
 30
0.0
 40
21.16666000000002
100
AcDbArc
 50
-78.94317188754155
 51
-69.164136711045
  0
LINE
  5
B6
102
{ACAD_XDICTIONARY
360
B4
102
}
330
1F
100
AcDbEntity
  8
Main lines
 48
0.75
100
AcDbLine
 10
184.1684180538409
 20
128.5535502132661
 30
0.0
 11
185.4554701332439
 21
134.6086541784921
 31
0.0
  0
ARC
  5
B9
102
{ACAD_XDICTIONARY
360
B7
102
}
330
1F
100
AcDbEntity
  8
Main lines
 48
0.75
100
AcDbCircle
 10
177.216974693235
 20
128.3705185322236
 30
0.0
 40
16.666666
100
AcDbArc
 50
35.74025851659372
 51
55.06777635278182
  0
ARC
  5
BC
102
{ACAD_XDICTIONARY
360
BA
102
}
330
1F
100
AcDbEntity
  8
Main lines
 48
0.75
100
AcDbCircle
 10
225.9896932954098
 20
128.5535502132661
 30
0.0
 40
40.55627335329923
100
AcDbArc
 50
161.4509613405611
 51
169.8951479296768
  0
ARC
  5
BF
102
{ACAD_XDICTIONARY
360
BD
102
}
330
1F
100
AcDbEntity
  8
Main lines
 48
0.75
100
AcDbCircle
 10
185.4381047523693
 20
152.7548581500667
 30
0.0
 40
16.66666000000001
100
AcDbArc
 50
-83.9306665336036
 51
-72.84281976525027
  0
LINE
  5
C2
102
{ACAD_XDICTIONARY
360
C0
102
}
330
1F
100
AcDbEntity
  8
Main lines
 48
0.75
100
AcDbLine
 10
188.7689507307336
 20
128.5535502132661
 30
0.0
 11
189.4975000663392
 21
131.981105353797
 31
0.0
  0
LINE
  5
C5
102
{ACAD_XDICTIONARY
360
C3
102
}
330
1F
100
AcDbEntity
  8
Main lines
 48
0.75
100
AcDbLine
 10
190.7448625675045
 20
138.1057126862577
 30
0.0
 11
190.35467018864
 21
136.8298796613381
 31
0.0
  0
ARC
  5
C8
102
{ACAD_XDICTIONARY
360
C6
102
}
330
1F
100
AcDbEntity
  8
Main lines
 48
0.75
100
AcDbCircle
 10
187.4117653347115
 20
134.1928307968566
 30
0.0
 40
2.000000000000012
100
AcDbArc
 50
96.06933346639525
 51
167.9999999999996
  0
ARC
  5
CB
102
{ACAD_XDICTIONARY
360
C9
102
}
330
1F
100
AcDbEntity
  8
Main lines
 48
0.75
100
AcDbCircle
 10
177.216974693235
 20
128.3705185322236
 30
0.0
 40
21.166666
100
AcDbArc
 50
31.90129693626583
 51
50.07600628655518
  0
LINE
  5
CE
102
{ACAD_XDICTIONARY
360
CC
102
}
330
1F
100
AcDbEntity
  8
Main lines
 48
0.75
100
AcDbLine
 10
190.8011237232332
 20
144.6031598664722
 30
0.0
 11
192.6485812753944
 21
147.8030502116422
 31
0.0
  0
LINE
  5
D1
102
{ACAD_XDICTIONARY
360
CF
102
}
330
1F
100
AcDbEntity
  8
Main lines
 48
0.75
100
AcDbLine
 10
186.026879136154
 20
145.3339256738903
 30
0.0
 11
188.7514669583644
 21
150.0530502116422
 31
0.0
  0
ARC
  5
D4
102
{ACAD_XDICTIONARY
360
D2
102
}
330
1F
100
AcDbEntity
  8
Main lines
 48
0.75
100
AcDbCircle
 10
188.1919426456151
 20
144.0839256738903
 30
0.0
 40
2.500000000000008
100
AcDbArc
 50
150.0000000000001
 51
235.0677763527818
  0
ARC
  5
D7
102
{ACAD_XDICTIONARY
360
D5
102
}
330
1F
100
AcDbEntity
  8
Main lines
 48
0.75
100
AcDbCircle
 10
201.2088807387594
 20
154.225988953335
 30
0.0
 40
4.500000000000002
100
AcDbArc
 50
-8.593943859944561
 51
9.164136711044971
  0
ARC
  5
DA
102
{ACAD_XDICTIONARY
360
D8
102
}
330
1F
100
AcDbEntity
  8
Main lines
 48
0.75
100
AcDbCircle
 10
184.7549515450361
 20
151.5716020856119
 30
0.0
 40
21.16666000000002
100
AcDbArc
 50
9.164136711045067
 51
18.94317188754153
  0
ARC
  5
DD
102
{ACAD_XDICTIONARY
360
DB
102
}
330
1F
100
AcDbEntity
  8
Main lines
 48
0.75
100
AcDbCircle
 10
201.7618440790284
 20
170.8834793735597
 30
0.0
 40
16.66666600000001
100
AcDbArc
 50
-115.0677763527818
 51
-95.74025851659377
  0
ARC
  5
E0
102
{ACAD_XDICTIONARY
360
DE
102
}
330
1F
100
AcDbEntity
  8
Main lines
 48
0.75
100
AcDbCircle
 10
225.9896932954098
 20
128.5535502132661
 30
0.0
 40
40.55627335329919
100
AcDbArc
 50
130.104852071409
 51
138.5490386617385
  0
ARC
  5
E3
102
{ACAD_XDICTIONARY
360
E1
102
}
330
1F
100
AcDbEntity
  8
Main lines
 48
0.75
100
AcDbCircle
 10
184.7549515450361
 20
151.5716020856119
 30
0.0
 40
16.66666000000001
100
AcDbArc
 50
12.84281976525027
 51
23.93066653360354
  0
ARC
  5
E6
102
{ACAD_XDICTIONARY
360
E4
102
}
330
1F
100
AcDbEntity
  8
Main lines
 48
0.75
100
AcDbCircle
 10
201.7618440790284
 20
170.8834793735597
 30
0.0
 40
21.166666
100
AcDbArc
 50
-110.0760062865554
 51
-91.90129693626587
  0
LINE
  5
E9
102
{ACAD_XDICTIONARY
360
E7
102
}
330
1F
100
AcDbEntity
  8
Main lines
 48
0.75
100
AcDbLine
 10
200.0948625679959
 20
154.3003877378777
 30
0.0
 11
201.0046701891312
 21
155.2762207627973
 31
0.0
  0
LINE
  5
EC
102
{ACAD_XDICTIONARY
360
EA
102
}
330
1F
100
AcDbEntity
  8
Main lines
 48
0.75
100
AcDbLine
 10
207.3793220133163
 20
160.7876588215729
 30
0.0
 11
204.7752468555286
 21
158.4429390178454
 31
0.0
  0
LINE
  5
EF
102
{ACAD_XDICTIONARY
360
ED
102
}
330
1F
100
AcDbEntity
  8
Main lines
 48
0.75
100
AcDbLine
 10
205.0790556748699
 20
164.7718369907023
 30
0.0
 11
200.478707857111
 21
160.6296652104155
 31
0.0
  0
ARC
  5
F2
102
{ACAD_XDICTIONARY
360
F0
102
}
330
1F
100
AcDbEntity
  8
Main lines
 48
0.75
100
AcDbCircle
 10
201.8169690698288
 20
159.1433755594607
 30
0.0
 40
1.999999999999974
100
AcDbArc
 50
132.000000000001
 51
203.930666533604
  0
ARC
  5
F5
102
{ACAD_XDICTIONARY
360
F3
102
}
330
1F
100
AcDbEntity
  8
Main lines
 48
0.75
100
AcDbCircle
 10
193.6411182905273
 20
153.5221747502451
 30
0.0
 40
2.499999999999996
100
AcDbArc
 50
64.93222364721878
 51
150.0000000000007
  0
LINE
  5
F8
102
{ACAD_XDICTIONARY
360
F6
102
}
330
1F
100
AcDbEntity
  8
Main lines
 48
0.75
100
AcDbLine
 10
190.8011237232332
 20
112.5039405600601
 30
0.0
 11
192.6485812753944
 21
109.3040502148901
 31
0.0
  0
LINE
  5
FB
102
{ACAD_XDICTIONARY
360
F9
102
}
330
1F
100
AcDbEntity
  8
Main lines
 48
0.75
100
AcDbLine
 10
186.026879136154
 20
111.7731747526419
 30
0.0
 11
188.7514669583644
 21
107.0540502148901
 31
0.0
  0
ARC
  5
FE
102
{ACAD_XDICTIONARY
360
FC
102
}
330
1F
100
AcDbEntity
  8
Main lines
 48
0.75
100
AcDbCircle
 10
201.2088807387594
 20
102.8811114731973
 30
0.0
 40
4.499999999999999
100
AcDbArc
 50
-9.164136711044971
 51
8.593943820069315
  0
ARC
  5
101
102
{ACAD_XDICTIONARY
360
FF
102
}
330
1F
100
AcDbEntity
  8
Main lines
 48
0.75
100
AcDbCircle
 10
184.7549515450361
 20
105.5354983409204
 30
0.0
 40
21.16666000000001
100
AcDbArc
 50
-18.9431718875415
 51
-9.164136711045034
  0
LINE
  5
104
102
{ACAD_XDICTIONARY
360
102
102
}
330
1F
100
AcDbEntity
  8
Main lines
 48
0.75
100
AcDbLine
 10
205.0790556738512
 20
92.3352634367472
 30
0.0
 11
200.478707857111
 21
96.47743521611673
 31
0.0
  0
ARC
  5
107
102
{ACAD_XDICTIONARY
360
105
102
}
330
1F
100
AcDbEntity
  8
Main lines
 48
0.75
100
AcDbCircle
 10
201.7618440790284
 20
86.22362105297266
 30
0.0
 40
16.666666
100
AcDbArc
 50
95.74025851659377
 51
115.0677763527818
  0
ARC
  5
10A
102
{ACAD_XDICTIONARY
360
108
102
}
330
1F
100
AcDbEntity
  8
Main lines
 48
0.75
100
AcDbCircle
 10
225.9896932946356
 20
128.5535502146072
 30
0.0
 40
40.55627335329922
100
AcDbArc
 50
-138.549038659439
 51
-130.1048520703232
  0
ARC
  5
10D
102
{ACAD_XDICTIONARY
360
10B
102
}
330
1F
100
AcDbEntity
  8
Main lines
 48
0.75
100
AcDbCircle
 10
184.7549515450361
 20
105.5354983409204
 30
0.0
 40
16.66666000000001
100
AcDbArc
 50
-23.93066653360361
 51
-12.84281976525033
  0
LINE
  5
110
102
{ACAD_XDICTIONARY
360
10E
102
}
330
1F
100
AcDbEntity
  8
Main lines
 48
0.75
100
AcDbLine
 10
207.3793220122975
 20
96.31944160587668
 30
0.0
 11
204.7752468555286
 21
98.66416140868691
 31
0.0
  0
LINE
  5
113
102
{ACAD_XDICTIONARY
360
111
102
}
330
1F
100
AcDbEntity
  8
Main lines
 48
0.75
100
AcDbLine
 10
200.0948625679959
 20
102.8067126886545
 30
0.0
 11
201.0046701891312
 21
101.8308796637349
 31
0.0
  0
ARC
  5
116
102
{ACAD_XDICTIONARY
360
114
102
}
330
1F
100
AcDbEntity
  8
Main lines
 48
0.75
100
AcDbCircle
 10
201.8169690698288
 20
97.9637248670716
 30
0.0
 40
1.99999999999999
100
AcDbArc
 50
156.0693334663957
 51
227.9999999999983
  0
ARC
  5
119
102
{ACAD_XDICTIONARY
360
117
102
}
330
1F
100
AcDbEntity
  8
Main lines
 48
0.75
100
AcDbCircle
 10
201.7618440790284
 20
86.22362105297266
 30
0.0
 40
21.166666
100
AcDbArc
 50
91.90129693626587
 51
110.0760062865552
  0
LINE
  5
11C
102
{ACAD_XDICTIONARY
360
11A
102
}
330
1F
100
AcDbEntity
  8
Main lines
 48
0.75
100
AcDbLine
 10
194.4960388280469
 20
106.104159868869
 30
0.0
 11
192.6485812758858
 21
109.3040502140391
 31
0.0
  0
LINE
  5
11F
102
{ACAD_XDICTIONARY
360
11D
102
}
330
1F
100
AcDbEntity
  8
Main lines
 48
0.75
100
AcDbLine
 10
191.4760547810661
 20
102.3349256762872
 30
0.0
 11
188.7514669588558
 21
107.0540502140391
 31
0.0
  0
ARC
  5
122
102
{ACAD_XDICTIONARY
360
120
102
}
330
1F
100
AcDbEntity
  8
Main lines
 48
0.75
100
AcDbCircle
 10
193.6411182905273
 20
103.5849256762873
 30
0.0
 40
2.500000000000002
100
AcDbArc
 50
-150.0
 51
-64.93222364721902
  0
ARC
  5
125
102
{ACAD_XDICTIONARY
360
123
102
}
330
1F
100
AcDbEntity
  8
Main lines
 48
0.75
100
AcDbCircle
 10
191.366302890311
 20
119.928956384162
 30
0.0
 40
4.500000000000014
100
AcDbArc
 50
-31.90129693626589
 51
69.16413671104493
  0
ARC
  5
128
102
{ACAD_XDICTIONARY
360
126
102
}
330
1F
100
AcDbEntity
  8
Main lines
 48
0.75
100
AcDbCircle
 10
185.4381047523693
 20
104.3522422764656
 30
0.0
 40
21.16666000000002
100
AcDbArc
 50
69.16413671104502
 51
78.94317188754141
  0
ARC
  5
12B
102
{ACAD_XDICTIONARY
360
129
102
}
330
1F
100
AcDbEntity
  8
Main lines
 48
0.75
100
AcDbCircle
 10
177.216974693235
 20
128.7365818943087
 30
0.0
 40
16.666666
100
AcDbArc
 50
-55.06777635278174
 51
-35.74025851659372
  0
ARC
  5
12E
102
{ACAD_XDICTIONARY
360
12C
102
}
330
1F
100
AcDbEntity
  8
Main lines
 48
0.75
100
AcDbCircle
 10
225.9896932946356
 20
128.5535502146072
 30
0.0
 40
40.55627335329923
100
AcDbArc
 50
-169.895147928591
 51
-161.4509613382614
  0
ARC
  5
131
102
{ACAD_XDICTIONARY
360
12F
102
}
330
1F
100
AcDbEntity
  8
Main lines
 48
0.75
100
AcDbCircle
 10
185.4381047523693
 20
104.3522422764656
 30
0.0
 40
16.66666000000001
100
AcDbArc
 50
72.84281976525025
 51
83.9306665336034
  0
ARC
  5
134
102
{ACAD_XDICTIONARY
360
132
102
}
330
1F
100
AcDbEntity
  8
Main lines
 48
0.75
100
AcDbCircle
 10
177.216974693235
 20
128.7365818943087
 30
0.0
 40
21.16666599999999
100
AcDbArc
 50
-50.07600628655528
 51
-31.90129693626579
  0
LINE
  5
137
102
{ACAD_XDICTIONARY
360
135
102
}
330
1F
100
AcDbEntity
  8
Main lines
 48
0.75
100
AcDbLine
 10
190.7448625675045
 20
119.0013877402746
 30
0.0
 11
190.35467018864
 21
120.2772207651942
 31
0.0
  0
LINE
  5
13A
102
{ACAD_XDICTIONARY
360
138
102
}
330
1F
100
AcDbEntity
  8
Main lines
 48
0.75
100
AcDbLine
 10
188.7689507304485
 20
128.5535502146071
 30
0.0
 11
189.4975000663392
 21
125.1259950727352
 31
0.0
  0
LINE
  5
13D
102
{ACAD_XDICTIONARY
360
13B
102
}
330
1F
100
AcDbEntity
  8
Main lines
 48
0.75
100
AcDbLine
 10
184.1684180535559
 20
128.553550214607
 30
0.0
 11
185.4554701332439
 21
122.4984462480401
 31
0.0
  0
ARC
  5
140
102
{ACAD_XDICTIONARY
360
13E
102
}
330
1F
100
AcDbEntity
  8
Main lines
 48
0.75
100
AcDbCircle
 10
187.4117653347114
 20
122.9142696296757
 30
0.0
 40
2.000000000000004
100
AcDbArc
 50
-167.9999999999992
 51
-96.06933346639526
  0
ARC
  5
143
102
{ACAD_XDICTIONARY
360
141
102
}
330
1F
100
AcDbEntity
  8
Main lines
 48
0.75
100
AcDbCircle
 10
188.1919426456151
 20
113.023174752642
 30
0.0
 40
2.499999999999997
100
AcDbArc
 50
124.9322236472177
 51
209.9999999999996
  0
LINE
  5
146
102
{ACAD_XDICTIONARY
360
144
102
}
330
1F
100
AcDbEntity
  8
Main lines
 48
0.75
100
AcDbLine
 10
222.2947781890477
 20
90.05455021566291
 30
0.0
 11
225.9896932933701
 21
90.05455021566294
 31
0.0
  0
LINE
  5
149
102
{ACAD_XDICTIONARY
360
147
102
}
330
1F
100
AcDbEntity
  8
Main lines
 48
0.75
100
AcDbLine
 10
220.5405176489493
 20
85.55455021566291
 30
0.0
 11
225.9896932933701
 21
85.55455021566294
 31
0.0
  0
ARC
  5
14C
102
{ACAD_XDICTIONARY
360
14A
102
}
330
1F
100
AcDbEntity
  8
Main lines
 48
0.75
100
AcDbCircle
 10
235.8322711423099
 20
94.25651764409292
 30
0.0
 40
4.499999999999979
100
AcDbArc
 50
50.83586328895498
 51
151.9012969362659
  0
ARC
  5
14F
102
{ACAD_XDICTIONARY
360
14D
102
}
330
1F
100
AcDbEntity
  8
Main lines
 48
0.75
100
AcDbCircle
 10
225.3065400865282
 20
81.3341904041197
 30
0.0
 40
21.16666000000003
100
AcDbArc
 50
41.05682811245853
 51
50.83586328895505
  0
LINE
  5
152
102
{ACAD_XDICTIONARY
360
150
102
}
330
1F
100
AcDbEntity
  8
Main lines
 48
0.75
100
AcDbLine
 10
246.9003309138717
 20
92.33526343674717
 30
0.0
 11
241.0129310177286
 21
90.42233125089072
 31
0.0
  0
ARC
  5
155
102
{ACAD_XDICTIONARY
360
153
102
}
330
1F
100
AcDbEntity
  8
Main lines
 48
0.75
100
AcDbCircle
 10
250.5345626796548
 20
86.40665273401505
 30
0.0
 40
16.666666
100
AcDbArc
 50
155.7402585165938
 51
175.0677763527819
  0
ARC
  5
158
102
{ACAD_XDICTIONARY
360
156
102
}
330
1F
100
AcDbEntity
  8
Main lines
 48
0.75
100
AcDbCircle
 10
225.9896932930872
 20
128.553550214607
 30
0.0
 40
40.55627335329923
100
AcDbArc
 50
-78.54903865943893
 51
-70.10485207032319
  0
ARC
  5
15B
102
{ACAD_XDICTIONARY
360
159
102
}
330
1F
100
AcDbEntity
  8
Main lines
 48
0.75
100
AcDbCircle
 10
225.3065400865282
 20
81.3341904041197
 30
0.0
 40
16.66666000000002
100
AcDbArc
 50
36.06933346639655
 51
47.15718023474977
  0
LINE
  5
15E
102
{ACAD_XDICTIONARY
360
15C
102
}
330
1F
100
AcDbEntity
  8
Main lines
 48
0.75
100
AcDbLine
 10
244.6000645754253
 20
96.31944160587663
 30
0.0
 11
241.2674400830508
 21
95.23660626815594
 31
0.0
  0
LINE
  5
161
102
{ACAD_XDICTIONARY
360
15F
102
}
330
1F
100
AcDbEntity
  8
Main lines
 48
0.75
100
AcDbLine
 10
235.3396932943528
 20
93.2545502156629
 30
0.0
 11
236.6396932943526
 21
93.55455021566294
 31
0.0
  0
ARC
  5
164
102
{ACAD_XDICTIONARY
360
162
102
}
330
1F
100
AcDbEntity
  8
Main lines
 48
0.75
100
AcDbCircle
 10
240.3948970289787
 20
92.32444428348101
 30
0.0
 40
2.00000000000001
100
AcDbArc
 50
-143.9306665336042
 51
-72.0000000000012
  0
ARC
  5
167
102
{ACAD_XDICTIONARY
360
165
102
}
330
1F
100
AcDbEntity
  8
Main lines
 48
0.75
100
AcDbCircle
 10
250.5345626796548
 20
86.40665273401505
 30
0.0
 40
21.16666600000001
100
AcDbArc
 50
151.9012969362658
 51
170.0760062865553
  0
LINE
  5
16A
102
{ACAD_XDICTIONARY
360
168
102
}
330
1F
100
AcDbEntity
  8
Main lines
 48
0.75
100
AcDbLine
 10
229.6846083986752
 20
90.05455021566293
 30
0.0
 11
225.9896932943528
 21
90.05455021566294
 31
0.0
  0
LINE
  5
16D
102
{ACAD_XDICTIONARY
360
16B
102
}
330
1F
100
AcDbEntity
  8
Main lines
 48
0.75
100
AcDbLine
 10
231.4388689387736
 20
85.55455021566291
 30
0.0
 11
225.9896932943528
 21
85.55455021566294
 31
0.0
  0
ARC
  5
170
102
{ACAD_XDICTIONARY
360
16E
102
}
330
1F
100
AcDbEntity
  8
Main lines
 48
0.75
100
AcDbCircle
 10
231.4388689387736
 20
88.05455021566293
 30
0.0
 40
2.5
100
AcDbArc
 50
-90.0
 51
-4.93222364721841
  0
ARC
  5
173
102
{ACAD_XDICTIONARY
360
171
102
}
330
1F
100
AcDbEntity
  8
Main lines
 48
0.75
100
AcDbCircle
 10
216.147115445413
 20
94.25651764409294
 30
0.0
 40
4.5
100
AcDbArc
 50
28.09870306373413
 51
129.1641367110448
  0
ARC
  5
176
102
{ACAD_XDICTIONARY
360
174
102
}
330
1F
100
AcDbEntity
  8
Main lines
 48
0.75
100
AcDbCircle
 10
226.6728465011946
 20
81.3341904041197
 30
0.0
 40
21.16666000000001
100
AcDbArc
 50
129.164136711045
 51
138.9431718875415
  0
ARC
  5
179
102
{ACAD_XDICTIONARY
360
177
102
}
330
1F
100
AcDbEntity
  8
Main lines
 48
0.75
100
AcDbCircle
 10
201.444823908068
 20
86.40665273401507
 30
0.0
 40
16.66666600000002
100
AcDbArc
 50
4.932223647218265
 51
24.25974148340626
  0
ARC
  5
17C
102
{ACAD_XDICTIONARY
360
17A
102
}
330
1F
100
AcDbEntity
  8
Main lines
 48
0.75
100
AcDbCircle
 10
225.9896932930872
 20
128.553550214607
 30
0.0
 40
40.5562733532992
100
AcDbArc
 50
-109.895147928591
 51
-101.4509613382615
  0
ARC
  5
17F
102
{ACAD_XDICTIONARY
360
17D
102
}
330
1F
100
AcDbEntity
  8
Main lines
 48
0.75
100
AcDbCircle
 10
226.6728465011946
 20
81.3341904041197
 30
0.0
 40
16.66666000000002
100
AcDbArc
 50
132.8428197652503
 51
143.9306665336034
  0
ARC
  5
182
102
{ACAD_XDICTIONARY
360
180
102
}
330
1F
100
AcDbEntity
  8
Main lines
 48
0.75
100
AcDbCircle
 10
201.444823908068
 20
86.40665273401507
 30
0.0
 40
21.16666599999999
100
AcDbArc
 50
9.923993713444679
 51
28.09870306373414
  0
LINE
  5
185
102
{ACAD_XDICTIONARY
360
183
102
}
330
1F
100
AcDbEntity
  8
Main lines
 48
0.75
100
AcDbLine
 10
216.63969329337
 20
93.2545502156629
 30
0.0
 11
215.3396932933703
 21
93.55455021566294
 31
0.0
  0
LINE
  5
188
102
{ACAD_XDICTIONARY
360
186
102
}
330
1F
100
AcDbEntity
  8
Main lines
 48
0.75
100
AcDbLine
 10
207.3793220109936
 20
96.31944160630024
 30
0.0
 11
210.711946504672
 21
95.23660626815592
 31
0.0
  0
LINE
  5
18B
102
{ACAD_XDICTIONARY
360
189
102
}
330
1F
100
AcDbEntity
  8
Main lines
 48
0.75
100
AcDbLine
 10
205.0790556725474
 20
92.3352634371708
 30
0.0
 11
210.9664555699943
 21
90.42233125089072
 31
0.0
  0
ARC
  5
18E
102
{ACAD_XDICTIONARY
360
18C
102
}
330
1F
100
AcDbEntity
  8
Main lines
 48
0.75
100
AcDbCircle
 10
211.5844895587441
 20
92.32444428348103
 30
0.0
 40
1.999999999999989
100
AcDbArc
 50
-107.999999999999
 51
-36.06933346639524
  0
ARC
  5
191
102
{ACAD_XDICTIONARY
360
18F
102
}
330
1F
100
AcDbEntity
  8
Main lines
 48
0.75
100
AcDbCircle
 10
220.5405176489493
 20
88.05455021566293
 30
0.0
 40
2.500000000000012
100
AcDbArc
 50
-175.0677763527816
 51
-90.0
  0
LINE
  5
194
102
{ACAD_XDICTIONARY
360
192
102
}
330
1F
100
AcDbEntity
  8
Main lines
 48
0.75
100
AcDbLine
 10
257.4833477596759
 20
106.104159868869
 30
0.0
 11
259.3308053118371
 21
109.304050214039
 31
0.0
  0
LINE
  5
197
102
{ACAD_XDICTIONARY
360
195
102
}
330
1F
100
AcDbEntity
  8
Main lines
 48
0.75
100
AcDbLine
 10
260.5033318066567
 20
102.3349256762871
 30
0.0
 11
263.227919628867
 21
107.054050214039
 31
0.0
  0
ARC
  5
19A
102
{ACAD_XDICTIONARY
360
198
102
}
330
1F
100
AcDbEntity
  8
Main lines
 48
0.75
100
AcDbCircle
 10
260.6130836974119
 20
119.9289563841618
 30
0.0
 40
4.499999999999985
100
AcDbArc
 50
110.8358632889552
 51
211.9012969362655
  0
ARC
  5
19D
102
{ACAD_XDICTIONARY
360
19B
102
}
330
1F
100
AcDbEntity
  8
Main lines
 48
0.75
100
AcDbCircle
 10
266.5412818353535
 20
104.3522422764655
 30
0.0
 40
21.16666
100
AcDbArc
 50
101.0568281124585
 51
110.835863288955
  0
LINE
  5
1A0
102
{ACAD_XDICTIONARY
360
19E
102
}
330
1F
100
AcDbEntity
  8
Main lines
 48
0.75
100
AcDbLine
 10
267.810968533882
 20
128.5535502132661
 30
0.0
 11
266.523916454479
 21
122.4984462480401
 31
0.0
  0
ARC
  5
1A3
102
{ACAD_XDICTIONARY
360
1A1
102
}
330
1F
100
AcDbEntity
  8
Main lines
 48
0.75
100
AcDbCircle
 10
274.7624118944878
 20
128.7365818943086
 30
0.0
 40
16.666666
100
AcDbArc
 50
-144.2597414834063
 51
-124.9322236472183
  0
ARC
  5
1A6
102
{ACAD_XDICTIONARY
360
1A4
102
}
330
1F
100
AcDbEntity
  8
Main lines
 48
0.75
100
AcDbCircle
 10
225.989693292313
 20
128.553550213266
 30
0.0
 40
40.55627335329923
100
AcDbArc
 50
-18.54903865943892
 51
-10.10485207032322
  0
ARC
  5
1A9
102
{ACAD_XDICTIONARY
360
1A7
102
}
330
1F
100
AcDbEntity
  8
Main lines
 48
0.75
100
AcDbCircle
 10
266.5412818353535
 20
104.3522422764655
 30
0.0
 40
16.66666000000001
100
AcDbArc
 50
96.06933346639642
 51
107.1571802347497
  0
LINE
  5
1AC
102
{ACAD_XDICTIONARY
360
1AA
102
}
330
1F
100
AcDbEntity
  8
Main lines
 48
0.75
100
AcDbLine
 10
263.2104358569892
 20
128.5535502132661
 30
0.0
 11
262.4818865213836
 21
125.1259950727352
 31
0.0
  0
LINE
  5
1AF
102
{ACAD_XDICTIONARY
360
1AD
102
}
330
1F
100
AcDbEntity
  8
Main lines
 48
0.75
100
AcDbLine
 10
261.2345240202183
 20
119.0013877402745
 30
0.0
 11
261.6247163990828
 21
120.2772207651941
 31
0.0
  0
ARC
  5
1B2
102
{ACAD_XDICTIONARY
360
1B0
102
}
330
1F
100
AcDbEntity
  8
Main lines
 48
0.75
100
AcDbCircle
 10
264.5676212530114
 20
122.9142696296756
 30
0.0
 40
2.000000000000012
100
AcDbArc
 50
-83.93066653360476
 51
-12.00000000000104
  0
ARC
  5
1B5
102
{ACAD_XDICTIONARY
360
1B3
102
}
330
1F
100
AcDbEntity
  8
Main lines
 48
0.75
100
AcDbCircle
 10
274.7624118944878
 20
128.7365818943086
 30
0.0
 40
21.16666599999999
100
AcDbArc
 50
-148.0987030637342
 51
-129.9239937134448
  0
LINE
  5
1B8
102
{ACAD_XDICTIONARY
360
1B6
102
}
330
1F
100
AcDbEntity
  8
Main lines
 48
0.75
100
AcDbLine
 10
261.1782628644896
 20
112.50394056006
 30
0.0
 11
259.3308053123284
 21
109.30405021489
 31
0.0
  0
LINE
  5
1BB
102
{ACAD_XDICTIONARY
360
1B9
102
}
330
1F
100
AcDbEntity
  8
Main lines
 48
0.75
100
AcDbLine
 10
265.9525074515688
 20
111.7731747526419
 30
0.0
 11
263.2279196293584
 21
107.05405021489
 31
0.0
  0
ARC
  5
1BE
102
{ACAD_XDICTIONARY
360
1BC
102
}
330
1F
100
AcDbEntity
  8
Main lines
 48
0.75
100
AcDbCircle
 10
263.7874439421077
 20
113.0231747526418
 30
0.0
 40
2.500000000000002
100
AcDbArc
 50
-30.00000000000001
 51
55.06777635278266
  0
ARC
  5
1C1
102
{ACAD_XDICTIONARY
360
1BF
102
}
330
1F
100
AcDbEntity
  8
Main lines
 48
0.75
100
AcDbCircle
 10
250.7705058489634
 20
102.8811114731971
 30
0.0
 40
4.499999999999988
100
AcDbArc
 50
171.4060561799281
 51
189.1641367110448
  0
ARC
  5
1C4
102
{ACAD_XDICTIONARY
360
1C2
102
}
330
1F
100
AcDbEntity
  8
Main lines
 48
0.75
100
AcDbCircle
 10
267.2244350426867
 20
105.5354983409202
 30
0.0
 40
21.16666000000001
100
AcDbArc
 50
-170.835863288955
 51
-161.0568281124584
  0
ARC
  5
1C7
102
{ACAD_XDICTIONARY
360
1C5
102
}
330
1F
100
AcDbEntity
  8
Main lines
 48
0.75
100
AcDbCircle
 10
250.2175425086944
 20
86.2236210529725
 30
0.0
 40
16.66666599999999
100
AcDbArc
 50
64.93222364721818
 51
84.25974148340623
  0
ARC
  5
1CA
102
{ACAD_XDICTIONARY
360
1C8
102
}
330
1F
100
AcDbEntity
  8
Main lines
 48
0.75
100
AcDbCircle
 10
225.989693292313
 20
128.553550213266
 30
0.0
 40
40.55627335329919
100
AcDbArc
 50
-49.89514792859109
 51
-41.45096133826144
  0
ARC
  5
1CD
102
{ACAD_XDICTIONARY
360
1CB
102
}
330
1F
100
AcDbEntity
  8
Main lines
 48
0.75
100
AcDbCircle
 10
267.2244350426867
 20
105.5354983409202
 30
0.0
 40
16.66666000000001
100
AcDbArc
 50
-167.1571802347497
 51
-156.0693334663965
  0
ARC
  5
1D0
102
{ACAD_XDICTIONARY
360
1CE
102
}
330
1F
100
AcDbEntity
  8
Main lines
 48
0.75
100
AcDbCircle
 10
250.2175425086944
 20
86.2236210529725
 30
0.0
 40
21.166666
100
AcDbArc
 50
69.92399371344462
 51
88.09870306373415
  0
LINE
  5
1D3
102
{ACAD_XDICTIONARY
360
1D1
102
}
330
1F
100
AcDbEntity
  8
Main lines
 48
0.75
100
AcDbLine
 10
251.8845240197269
 20
102.8067126886545
 30
0.0
 11
250.9747163985916
 21
101.8308796637349
 31
0.0
  0
LINE
  5
1D6
102
{ACAD_XDICTIONARY
360
1D4
102
}
330
1F
100
AcDbEntity
  8
Main lines
 48
0.75
100
AcDbLine
 10
244.6000645744065
 20
96.31944160495925
 30
0.0
 11
247.2041397321942
 21
98.66416140868685
 31
0.0
  0
LINE
  5
1D9
102
{ACAD_XDICTIONARY
360
1D7
102
}
330
1F
100
AcDbEntity
  8
Main lines
 48
0.75
100
AcDbLine
 10
246.9003309128529
 20
92.33526343582992
 30
0.0
 11
251.5006787306118
 21
96.47743521611676
 31
0.0
  0
ARC
  5
1DC
102
{ACAD_XDICTIONARY
360
1DA
102
}
330
1F
100
AcDbEntity
  8
Main lines
 48
0.75
100
AcDbCircle
 10
250.1624175178941
 20
97.96372486707145
 30
0.0
 40
1.999999999999974
100
AcDbArc
 50
-47.99999999999898
 51
23.930666533604
  0
ARC
  5
1DF
102
{ACAD_XDICTIONARY
360
1DD
102
}
330
1F
100
AcDbEntity
  8
Main lines
 48
0.75
100
AcDbCircle
 10
258.3382682971956
 20
103.5849256762871
 30
0.0
 40
2.499999999999971
100
AcDbArc
 50
-115.0677763527815
 51
-29.99999999999904
  0
LINE
  5
1E2
102
{ACAD_XDICTIONARY
360
1E0
102
}
330
1F
100
AcDbEntity
  8
Main lines
 48
0.75
100
AcDbLine
 10
261.1782628644897
 20
144.6031598664721
 30
0.0
 11
259.3308053123284
 21
147.8030502116421
 31
0.0
  0
LINE
  5
1E5
102
{ACAD_XDICTIONARY
360
1E3
102
}
330
1F
100
AcDbEntity
  8
Main lines
 48
0.75
100
AcDbLine
 10
265.9525074515689
 20
145.3339256738903
 30
0.0
 11
263.2279196293584
 21
150.0530502116421
 31
0.0
  0
ARC
  5
1E8
102
{ACAD_XDICTIONARY
360
1E6
102
}
330
1F
100
AcDbEntity
  8
Main lines
 48
0.75
100
AcDbCircle
 10
250.7705058489635
 20
154.225988953335
 30
0.0
 40
4.499999999999999
100
AcDbArc
 50
170.835863288955
 51
188.5939438599442
  0
ARC
  5
1EB
102
{ACAD_XDICTIONARY
360
1E9
102
}
330
1F
100
AcDbEntity
  8
Main lines
 48
0.75
100
AcDbCircle
 10
267.2244350426867
 20
151.5716020856119
 30
0.0
 40
21.16666000000001
100
AcDbArc
 50
161.0568281124585
 51
170.835863288955
  0
LINE
  5
1EE
102
{ACAD_XDICTIONARY
360
1EC
102
}
330
1F
100
AcDbEntity
  8
Main lines
 48
0.75
100
AcDbLine
 10
246.9003309138717
 20
164.771836989785
 30
0.0
 11
251.5006787306118
 21
160.6296652104154
 31
0.0
  0
ARC
  5
1F1
102
{ACAD_XDICTIONARY
360
1EF
102
}
330
1F
100
AcDbEntity
  8
Main lines
 48
0.75
100
AcDbCircle
 10
250.2175425086945
 20
170.8834793735596
 30
0.0
 40
16.666666
100
AcDbArc
 50
-84.25974148340623
 51
-64.93222364721831
  0
ARC
  5
1F4
102
{ACAD_XDICTIONARY
360
1F2
102
}
330
1F
100
AcDbEntity
  8
Main lines
 48
0.75
100
AcDbCircle
 10
225.9896932930872
 20
128.5535502119251
 30
0.0
 40
40.5562733532992
100
AcDbArc
 50
41.45096134056104
 51
49.89514792967677
  0
ARC
  5
1F7
102
{ACAD_XDICTIONARY
360
1F5
102
}
330
1F
100
AcDbEntity
  8
Main lines
 48
0.75
100
AcDbCircle
 10
267.2244350426867
 20
151.5716020856119
 30
0.0
 40
16.66666
100
AcDbArc
 50
156.0693334663963
 51
167.1571802347497
  0
LINE
  5
1FA
102
{ACAD_XDICTIONARY
360
1F8
102
}
330
1F
100
AcDbEntity
  8
Main lines
 48
0.75
100
AcDbLine
 10
244.6000645754254
 20
160.7876588206555
 30
0.0
 11
247.2041397321943
 21
158.4429390178453
 31
0.0
  0
LINE
  5
1FD
102
{ACAD_XDICTIONARY
360
1FB
102
}
330
1F
100
AcDbEntity
  8
Main lines
 48
0.75
100
AcDbLine
 10
251.8845240197269
 20
154.3003877378777
 30
0.0
 11
250.9747163985917
 21
155.2762207627972
 31
0.0
  0
ARC
  5
200
102
{ACAD_XDICTIONARY
360
1FE
102
}
330
1F
100
AcDbEntity
  8
Main lines
 48
0.75
100
AcDbCircle
 10
250.1624175178941
 20
159.1433755594607
 30
0.0
 40
1.999999999999999
100
AcDbArc
 50
-23.93066653360475
 51
47.99999999999953
  0
ARC
  5
203
102
{ACAD_XDICTIONARY
360
201
102
}
330
1F
100
AcDbEntity
  8
Main lines
 48
0.75
100
AcDbCircle
 10
250.2175425086945
 20
170.8834793735596
 30
0.0
 40
21.166666
100
AcDbArc
 50
-88.09870306373415
 51
-69.92399371344472
  0
LINE
  5
206
102
{ACAD_XDICTIONARY
360
204
102
}
330
1F
100
AcDbEntity
  8
Main lines
 48
0.75
100
AcDbLine
 10
257.483347759676
 20
151.0029405576632
 30
0.0
 11
259.3308053118371
 21
147.8030502124931
 31
0.0
  0
LINE
  5
209
102
{ACAD_XDICTIONARY
360
207
102
}
330
1F
100
AcDbEntity
  8
Main lines
 48
0.75
100
AcDbLine
 10
260.5033318066567
 20
154.772174750245
 30
0.0
 11
263.2279196288671
 21
150.0530502124931
 31
0.0
  0
ARC
  5
20C
102
{ACAD_XDICTIONARY
360
20A
102
}
330
1F
100
AcDbEntity
  8
Main lines
 48
0.75
100
AcDbCircle
 10
258.3382682971956
 20
153.522174750245
 30
0.0
 40
2.500000000000008
100
AcDbArc
 50
29.99999999999989
 51
115.0677763527812
  0
ARC
  5
20F
102
{ACAD_XDICTIONARY
360
20D
102
}
330
1F
100
AcDbEntity
  8
Main lines
 48
0.75
100
AcDbCircle
 10
260.6130836974119
 20
137.1781440423703
 30
0.0
 40
4.500000000000018
100
AcDbArc
 50
148.098703063734
 51
249.1641367110449
  0
ARC
  5
212
102
{ACAD_XDICTIONARY
360
210
102
}
330
1F
100
AcDbEntity
  8
Main lines
 48
0.75
100
AcDbCircle
 10
266.5412818353535
 20
152.7548581500666
 30
0.0
 40
21.16666000000001
100
AcDbArc
 50
-110.835863288955
 51
-101.0568281124585
  0
ARC
  5
215
102
{ACAD_XDICTIONARY
360
213
102
}
330
1F
100
AcDbEntity
  8
Main lines
 48
0.75
100
AcDbCircle
 10
274.7624118944878
 20
128.3705185322235
 30
0.0
 40
16.66666600000001
100
AcDbArc
 50
124.9322236472182
 51
144.2597414834062
  0
ARC
  5
218
102
{ACAD_XDICTIONARY
360
216
102
}
330
1F
100
AcDbEntity
  8
Main lines
 48
0.75
100
AcDbCircle
 10
225.9896932930872
 20
128.5535502119251
 30
0.0
 40
40.55627335329922
100
AcDbArc
 50
10.10485207140894
 51
18.54903866173846
  0
ARC
  5
21B
102
{ACAD_XDICTIONARY
360
219
102
}
330
1F
100
AcDbEntity
  8
Main lines
 48
0.75
100
AcDbCircle
 10
266.5412818353535
 20
152.7548581500666
 30
0.0
 40
16.66665999999999
100
AcDbArc
 50
-107.1571802347498
 51
-96.06933346639661
  0
ARC
  5
21E
102
{ACAD_XDICTIONARY
360
21C
102
}
330
1F
100
AcDbEntity
  8
Main lines
 48
0.75
100
AcDbCircle
 10
274.7624118944878
 20
128.3705185322235
 30
0.0
 40
21.16666600000003
100
AcDbArc
 50
129.9239937134446
 51
148.0987030637341
  0
LINE
  5
221
102
{ACAD_XDICTIONARY
360
21F
102
}
330
1F
100
AcDbEntity
  8
Main lines
 48
0.75
100
AcDbLine
 10
261.2345240202183
 20
138.1057126862576
 30
0.0
 11
261.6247163990828
 21
136.8298796613379
 31
0.0
  0
LINE
  5
224
102
{ACAD_XDICTIONARY
360
222
102
}
330
1F
100
AcDbEntity
  8
Main lines
 48
0.75
100
AcDbLine
 10
263.2104358572744
 20
128.5535502119251
 30
0.0
 11
262.4818865213837
 21
131.9811053537969
 31
0.0
  0
LINE
  5
227
102
{ACAD_XDICTIONARY
360
225
102
}
330
1F
100
AcDbEntity
  8
Main lines
 48
0.75
100
AcDbLine
 10
267.810968534167
 20
128.5535502119251
 30
0.0
 11
266.523916454479
 21
134.608654178492
 31
0.0
  0
ARC
  5
22A
102
{ACAD_XDICTIONARY
360
228
102
}
330
1F
100
AcDbEntity
  8
Main lines
 48
0.75
100
AcDbCircle
 10
264.5676212530114
 20
134.1928307968565
 30
0.0
 40
1.999999999999995
100
AcDbArc
 50
12.00000000000122
 51
83.93066653360458
  0
ARC
  5
22D
102
{ACAD_XDICTIONARY
360
22B
102
}
330
1F
100
AcDbEntity
  8
Main lines
 48
0.75
100
AcDbCircle
 10
263.7874439421078
 20
144.0839256738903
 30
0.0
 40
2.499999999999997
100
AcDbArc
 50
-55.06777635278235
 51
29.99999999999989
  0
LINE
  5
230
102
{ACAD_XDICTIONARY
360
22E
102
}
330
1F
100
AcDbEntity
  8
Main lines
 48
0.75
100
AcDbLine
 10
347.1567853011167
 20
103.5535502117179
 30
0.0
 11
347.1567853011168
 21
153.5535502117179
 31
0.0
  0
LINE
  5
233
102
{ACAD_XDICTIONARY
360
231
102
}
330
1F
100
AcDbEntity
  8
Main lines
 48
0.75
100
AcDbLine
 10
202.9896932927279
 20
103.5535502117179
 30
0.0
 11
248.9896932927279
 21
103.5535502117179
 31
0.0
  0
LINE
  5
236
102
{ACAD_XDICTIONARY
360
234
102
}
330
1F
100
AcDbEntity
  8
Main lines
 48
0.75
100
AcDbLine
 10
250.9896932927279
 20
105.5535502117179
 30
0.0
 11
250.9896932927278
 21
151.5535502117179
 31
0.0
  0
LINE
  5
239
102
{ACAD_XDICTIONARY
360
237
102
}
330
1F
100
AcDbEntity
  8
Main lines
 48
0.75
100
AcDbLine
 10
248.9896932927278
 20
153.5535502117179
 30
0.0
 11
202.9896932927278
 21
153.5535502117179
 31
0.0
  0
LINE
  5
23C
102
{ACAD_XDICTIONARY
360
23A
102
}
330
1F
100
AcDbEntity
  8
Main lines
 48
0.75
100
AcDbLine
 10
200.9896932927278
 20
151.5535502117179
 30
0.0
 11
200.9896932927279
 21
105.5535502117179
 31
0.0
  0
ARC
  5
23F
102
{ACAD_XDICTIONARY
360
23D
102
}
330
1F
100
AcDbEntity
  8
Main lines
 48
0.75
100
AcDbCircle
 10
248.9896932927278
 20
151.5535502117179
 30
0.0
 40
2.0
100
AcDbArc
 50
0.0
 51
90.0
  0
ARC
  5
242
102
{ACAD_XDICTIONARY
360
240
102
}
330
1F
100
AcDbEntity
  8
Main lines
 48
0.75
100
AcDbCircle
 10
248.9896932927279
 20
105.5535502117179
 30
0.0
 40
2.0
100
AcDbArc
 50
-90.0
 51
0.0
  0
ARC
  5
245
102
{ACAD_XDICTIONARY
360
243
102
}
330
1F
100
AcDbEntity
  8
Main lines
 48
0.75
100
AcDbCircle
 10
202.9896932927279
 20
105.5535502117179
 30
0.0
 40
2.0
100
AcDbArc
 50
180.0
 51
270.0
  0
ARC
  5
248
102
{ACAD_XDICTIONARY
360
246
102
}
330
1F
100
AcDbEntity
  8
Main lines
 48
0.75
100
AcDbCircle
 10
202.9896932927278
 20
151.5535502117179
 30
0.0
 40
2.0
100
AcDbArc
 50
90.0
 51
180.0
  0
LINE
  5
24B
102
{ACAD_XDICTIONARY
360
249
102
}
330
1F
100
AcDbEntity
  8
Main lines
 48
0.75
100
AcDbLine
 10
317.1567853011168
 20
171.5525502108692
 30
0.0
 11
317.1567853011167
 21
153.5535502117179
 31
0.0
  0
LINE
  5
24E
102
{ACAD_XDICTIONARY
360
24C
102
}
330
1F
100
AcDbEntity
  8
Main lines
 48
0.75
100
AcDbLine
 10
337.1567853011168
 20
171.5525502108692
 30
0.0
 11
337.1567853011169
 21
153.5535502117179
 31
0.0
  0
LINE
  5
251
102
{ACAD_XDICTIONARY
360
24F
102
}
330
1F
100
AcDbEntity
  8
Main lines
 48
0.75
100
AcDbLine
 10
307.1567853011168
 20
153.5535502117179
 30
0.0
 11
324.6567853011167
 21
153.5535502117179
 31
0.0
  0
LINE
  5
254
102
{ACAD_XDICTIONARY
360
252
102
}
330
1F
100
AcDbEntity
  8
Main lines
 48
0.75
100
AcDbLine
 10
307.1567853011168
 20
103.5535502117179
 30
0.0
 11
317.1567853011167
 21
103.5535502117179
 31
0.0
  0
LINE
  5
257
102
{ACAD_XDICTIONARY
360
255
102
}
330
1F
100
AcDbEntity
  8
Main lines
 48
0.75
100
AcDbLine
 10
317.1567853011168
 20
85.55455021566293
 30
0.0
 11
337.1567853011167
 21
85.55455021566294
 31
0.0
  0
LINE
  5
25A
102
{ACAD_XDICTIONARY
360
258
102
}
330
1F
100
AcDbEntity
  8
Main lines
 48
0.75
100
AcDbLine
 10
317.1567853011168
 20
171.5525502108692
 30
0.0
 11
337.1567853011167
 21
171.5525502108692
 31
0.0
  0
LINE
  5
25D
102
{ACAD_XDICTIONARY
360
25B
102
}
330
1F
100
AcDbEntity
  8
Main lines
 48
0.75
100
AcDbLine
 10
317.1567853011167
 20
167.0525502108692
 30
0.0
 11
324.6567853011167
 21
167.0525502108692
 31
0.0
  0
LINE
  5
260
102
{ACAD_XDICTIONARY
360
25E
102
}
330
1F
100
AcDbEntity
  8
Main lines
 48
0.75
100
AcDbLine
 10
307.1567853011168
 20
153.5535502117179
 30
0.0
 11
307.1567853011168
 21
103.5535502117179
 31
0.0
  0
LINE
  5
263
102
{ACAD_XDICTIONARY
360
261
102
}
330
1F
100
AcDbEntity
  8
Main lines
 48
0.75
100
AcDbLine
 10
317.1567853011167
 20
128.5535502132661
 30
0.0
 11
317.1567853011167
 21
85.55455021566294
 31
0.0
  0
LINE
  5
266
102
{ACAD_XDICTIONARY
360
264
102
}
330
1F
100
AcDbEntity
  8
Main lines
 48
0.75
100
AcDbLine
 10
337.1567853011168
 20
128.5535502132661
 30
0.0
 11
337.1567853011167
 21
85.55455021566294
 31
0.0
  0
LINE
  5
269
102
{ACAD_XDICTIONARY
360
267
102
}
330
1F
100
AcDbEntity
  8
Main lines
 48
0.75
100
AcDbLine
 10
329.6567853011167
 20
167.0525502108692
 30
0.0
 11
329.6567853011167
 21
153.5535502117179
 31
0.0
  0
LINE
  5
26C
102
{ACAD_XDICTIONARY
360
26A
102
}
330
1F
100
AcDbEntity
  8
Main lines
 48
0.75
100
AcDbLine
 10
329.6567853011168
 20
167.0525502108692
 30
0.0
 11
337.1567853011168
 21
167.0525502108692
 31
0.0
  0
LINE
  5
26F
102
{ACAD_XDICTIONARY
360
26D
102
}
330
1F
100
AcDbEntity
  8
Main lines
 48
0.75
100
AcDbLine
 10
329.6567853011167
 20
153.5535502117179
 30
0.0
 11
347.1567853011167
 21
153.5535502117179
 31
0.0
  0
LINE
  5
272
102
{ACAD_XDICTIONARY
360
270
102
}
330
1F
100
AcDbEntity
  8
Main lines
 48
0.75
100
AcDbLine
 10
324.6567853011167
 20
153.5535502117179
 30
0.0
 11
324.6567853011168
 21
167.0525502108692
 31
0.0
  0
LINE
  5
275
102
{ACAD_XDICTIONARY
360
273
102
}
330
1F
100
AcDbEntity
  8
Main lines
 48
0.75
100
AcDbLine
 10
337.1567853011167
 20
103.5535502117179
 30
0.0
 11
347.1567853011167
 21
103.5535502117179
 31
0.0
  0
LINE
  5
278
102
{ACAD_XDICTIONARY
360
276
102
}
330
1F
100
AcDbEntity
  8
Main lines
 48
0.75
100
AcDbLine
 10
327.9067853011167
 20
97.53340113294595
 30
0.0
 11
327.9067853011167
 21
101.0849256762871
 31
0.0
  0
LINE
  5
27B
102
{ACAD_XDICTIONARY
360
279
102
}
330
1F
100
AcDbEntity
  8
Main lines
 48
0.75
100
AcDbLine
 10
326.4067853011166
 20
97.53340113294595
 30
0.0
 11
326.4067853011167
 21
101.0849256762871
 31
0.0
  0
LINE
  5
27E
102
{ACAD_XDICTIONARY
360
27C
102
}
330
1F
100
AcDbEntity
  8
Main lines
 48
0.75
100
AcDbLine
 10
317.1567853011167
 20
121.4379480901206
 30
0.0
 11
337.1567853011168
 21
121.4379480901206
 31
0.0
  0
LINE
  5
281
102
{ACAD_XDICTIONARY
360
27F
102
}
330
1F
100
AcDbEntity
  8
Main lines
 48
0.75
100
AcDbLine
 10
317.1567853011167
 20
120.2772207651941
 30
0.0
 11
325.6567853011168
 21
120.2772207651941
 31
0.0
  0
LINE
  5
284
102
{ACAD_XDICTIONARY
360
282
102
}
330
1F
100
AcDbEntity
  8
Main lines
 48
0.75
100
AcDbLine
 10
317.1567853011167
 20
119.0013877402741
 30
0.0
 11
325.6567853011167
 21
119.0013877402741
 31
0.0
  0
LINE
  5
287
102
{ACAD_XDICTIONARY
360
285
102
}
330
1F
100
AcDbEntity
  8
Main lines
 48
0.75
100
AcDbLine
 10
317.1567853011167
 20
115.6519427659276
 30
0.0
 11
337.1567853011168
 21
115.6519427659276
 31
0.0
  0
LINE
  5
28A
102
{ACAD_XDICTIONARY
360
288
102
}
330
1F
100
AcDbEntity
  8
Main lines
 48
0.75
100
AcDbLine
 10
326.4067853011168
 20
115.6519427659276
 30
0.0
 11
325.6567853011167
 21
119.0013877402741
 31
0.0
  0
LINE
  5
28D
102
{ACAD_XDICTIONARY
360
28B
102
}
330
1F
100
AcDbEntity
  8
Main lines
 48
0.75
100
AcDbLine
 10
327.9067853011167
 20
115.6519427659276
 30
0.0
 11
328.6567853011167
 21
119.0013877402741
 31
0.0
  0
LINE
  5
290
102
{ACAD_XDICTIONARY
360
28E
102
}
330
1F
100
AcDbEntity
  8
Main lines
 48
0.75
100
AcDbLine
 10
326.4067853011168
 20
121.4379480901206
 30
0.0
 11
325.6567853011167
 21
120.2772207651941
 31
0.0
  0
LINE
  5
293
102
{ACAD_XDICTIONARY
360
291
102
}
330
1F
100
AcDbEntity
  8
Main lines
 48
0.75
100
AcDbLine
 10
327.9067853011167
 20
121.4379480901206
 30
0.0
 11
328.6567853011167
 21
120.2772207651941
 31
0.0
  0
LINE
  5
296
102
{ACAD_XDICTIONARY
360
294
102
}
330
1F
100
AcDbEntity
  8
Main lines
 48
0.75
100
AcDbLine
 10
328.6567853011167
 20
119.0013877402742
 30
0.0
 11
328.6567853011167
 21
120.2772207651941
 31
0.0
  0
LINE
  5
299
102
{ACAD_XDICTIONARY
360
297
102
}
330
1F
100
AcDbEntity
  8
Main lines
 48
0.75
100
AcDbLine
 10
325.6567853011167
 20
119.0013877402741
 30
0.0
 11
325.6567853011167
 21
120.2772207651941
 31
0.0
  0
LINE
  5
29C
102
{ACAD_XDICTIONARY
360
29A
102
}
330
1F
100
AcDbEntity
  8
Main lines
 48
0.75
100
AcDbLine
 10
328.6567853011167
 20
120.2772207651941
 30
0.0
 11
337.1567853011167
 21
120.2772207651941
 31
0.0
  0
LINE
  5
29F
102
{ACAD_XDICTIONARY
360
29D
102
}
330
1F
100
AcDbEntity
  8
Main lines
 48
0.75
100
AcDbLine
 10
328.6567853011167
 20
119.0013877402742
 30
0.0
 11
337.1567853011167
 21
119.0013877402742
 31
0.0
  0
LINE
  5
2A2
102
{ACAD_XDICTIONARY
360
2A0
102
}
330
1F
100
AcDbEntity
  8
Main lines
 48
0.75
100
AcDbLine
 10
317.1567853011167
 20
101.0849256762871
 30
0.0
 11
337.1567853011167
 21
101.0849256762871
 31
0.0
  0
LINE
  5
2A5
102
{ACAD_XDICTIONARY
360
2A3
102
}
330
1F
100
AcDbEntity
  8
Main lines
 48
0.75
100
AcDbLine
 10
317.1567853011167
 20
97.53340113294594
 30
0.0
 11
337.1567853011167
 21
97.53340113294595
 31
0.0
  0
LINE
  5
2A8
102
{ACAD_XDICTIONARY
360
2A6
102
}
330
1F
100
AcDbEntity
  8
Main lines
 48
0.75
100
AcDbLine
 10
326.4067853011167
 20
97.53340113294595
 30
0.0
 11
325.7869698934486
 21
101.0849256762871
 31
0.0
  0
LINE
  5
2AB
102
{ACAD_XDICTIONARY
360
2A9
102
}
330
1F
100
AcDbEntity
  8
Main lines
 48
0.75
100
AcDbLine
 10
327.9067853011167
 20
97.53340113294595
 30
0.0
 11
328.5266007087849
 21
101.0849256762871
 31
0.0
  0
LINE
  5
2AE
102
{ACAD_XDICTIONARY
360
2AC
102
}
330
1F
100
AcDbEntity
  8
Main lines
 48
0.75
100
AcDbLine
 10
327.9067853011167
 20
115.6519427659276
 30
0.0
 11
327.9067853011167
 21
121.4379480901206
 31
0.0
  0
LINE
  5
2B1
102
{ACAD_XDICTIONARY
360
2AF
102
}
330
1F
100
AcDbEntity
  8
Main lines
 48
0.75
100
AcDbLine
 10
326.4067853011168
 20
115.6519427659276
 30
0.0
 11
326.4067853011168
 21
121.4379480901206
 31
0.0
  0
LINE
  5
2B4
102
{ACAD_XDICTIONARY
360
2B2
102
}
330
1F
100
AcDbEntity
  8
Main lines
 48
0.75
100
AcDbLine
 10
317.1567853011167
 20
92.33526343674713
 30
0.0
 11
337.1567853011168
 21
92.33526343674713
 31
0.0
  0
LINE
  5
2B7
102
{ACAD_XDICTIONARY
360
2B5
102
}
330
1F
100
AcDbEntity
  8
Main lines
 48
0.75
100
AcDbLine
 10
317.1567853011167
 20
88.8045502156629
 30
0.0
 11
337.1567853011167
 21
88.80455021566291
 31
0.0
  0
LINE
  5
2BA
102
{ACAD_XDICTIONARY
360
2B8
102
}
330
1F
100
AcDbEntity
  8
Main lines
 48
0.75
100
AcDbLine
 10
317.1567853011167
 20
90.32444428348101
 30
0.0
 11
337.1567853011167
 21
90.32444428348103
 31
0.0
  0
LINE
  5
2BD
102
{ACAD_XDICTIONARY
360
2BB
102
}
330
1F
100
AcDbEntity
  8
Main lines
 48
0.75
100
AcDbLine
 10
327.9067853011167
 20
90.32444428348103
 30
0.0
 11
327.9067853011167
 21
88.80455021566293
 31
0.0
  0
LINE
  5
2C0
102
{ACAD_XDICTIONARY
360
2BE
102
}
330
1F
100
AcDbEntity
  8
Main lines
 48
0.75
100
AcDbLine
 10
326.4067853011166
 20
90.32444428348101
 30
0.0
 11
326.4067853011167
 21
88.80455021566291
 31
0.0
  0
ARC
  5
2C3
102
{ACAD_XDICTIONARY
360
2C1
102
}
330
1F
100
AcDbEntity
  8
Main lines
 48
0.75
100
AcDbCircle
 10
225.9896932954098
 20
128.5535502132661
 30
0.0
 40
12.69999999999999
100
AcDbArc
 50
-165.5224878140702
 51
165.52248781407
  0
LINE
  5
2C6
102
{ACAD_XDICTIONARY
360
2C4
102
}
330
1F
100
AcDbEntity
  8
Main lines
 48
0.75
100
AcDbLine
 10
210.0896932954099
 20
125.3785502132661
 30
0.0
 11
210.0896932954099
 21
131.7285502132661
 31
0.0
  0
LINE
  5
2C9
102
{ACAD_XDICTIONARY
360
2C7
102
}
330
1F
100
AcDbEntity
  8
Main lines
 48
0.75
100
AcDbLine
 10
210.0896932954099
 20
131.7285502132661
 30
0.0
 11
213.6929711712013
 21
131.7285502132661
 31
0.0
  0
LINE
  5
2CC
102
{ACAD_XDICTIONARY
360
2CA
102
}
330
1F
100
AcDbEntity
  8
Main lines
 48
0.75
100
AcDbLine
 10
210.0896932954099
 20
125.3785502132661
 30
0.0
 11
213.6929711712013
 21
125.3785502132661
 31
0.0
  0
LINE
  5
2CF
102
{ACAD_XDICTIONARY
360
2CD
102
}
330
1F
100
AcDbEntity
  8
Main lines
 48
0.75
100
AcDbLine
 10
307.1567853011168
 20
141.2535502132661
 30
0.0
 11
347.1567853011167
 21
141.2535502132661
 31
0.0
  0
HATCH
  5
2D0
330
1F
100
AcDbEntity
  8
Main lines
  6
Durchgehend
 48
0.75
100
AcDbHatch
 10
0.0
 20
0.0
 30
0.0
210
0.0
220
0.0
230
1.0
  2
ANSI31
 70
     0
 71
     0
 91
        1
 92
        3
 72
     0
 73
     1
 93
       12
 10
347.1567853011168
 20
153.5535502117179
 10
329.6567853011167
 20
153.5535502117179
 10
329.6567853011166
 20
167.0525502108692
 10
337.1567853011168
 20
167.0525502108692
 10
337.1567853011168
 20
171.5525502108692
 10
317.1567853011167
 20
171.5525502108692
 10
317.1567853011167
 20
167.0525502108692
 10
324.6567853011167
 20
167.0525502108692
 10
324.6567853011167
 20
153.5535502117179
 10
307.1567853011168
 20
153.5535502117179
 10
307.1567853011168
 20
141.2535502132661
 10
347.1567853011167
 20
141.2535502132661
 97
        0
 75
     0
 76
     1
 52
0.0
 41
7.0
 77
     0
 78
     1
 53
45.0
 43
0.0
 44
0.0
 45
-0.618718433538229
 46
0.6187184335382291
 79
     1
 49
7.0
 98
        0
  0
VIEWPORT
  5
2D3
330
1B
100
AcDbEntity
 67
     1
  8
0
100
AcDbViewport
 10
138.6502793738975
 20
61.84924767993177
 30
0.0
 40
188.597376
 41
133.35168
 68
     1
 69
     1
 12
138.6502793738975
 22
61.84924767993177
 13
0.0
 23
0.0
 14
5.0
 24
5.0
 15
5.0
 25
5.0
 16
0.0
 26
0.0
 36
1.0
 17
0.0
 27
0.0
 37
0.0
 42
50.0
 43
0.0
 44
0.0
 45
133.35168
 50
0.0
 51
0.0
 72
  1000
 90
    32800
  1

281
     0
 71
     1
 74
     0
110
0.0
120
0.0
130
0.0
111
1.0
121
0.0
131
0.0
112
0.0
122
1.0
132
0.0
 79
     0
146
0.0
170
     0
  0
ENDSEC
  0
SECTION
  2
OBJECTS
  0
DICTIONARY
  5
C
330
0
100
AcDbDictionary
281
     1
  3
ACAD_GROUP
350
D
  3
ACAD_LAYOUT
350
1A
  3
ACAD_MLINESTYLE
350
17
  3
ACAD_PLOTSETTINGS
350
19
  3
ACAD_PLOTSTYLENAME
350
E
  3
ACAD_TABLESTYLE
350
2D4
  3
ACAD_VISUALSTYLE
350
2A
  0
DICTIONARY
  5
5A
330
5C
100
AcDbDictionary
280
     1
281
     1
  3
TC_OPTIONAL_DATA
360
5B
  0
DICTIONARY
  5
5D
330
5F
100
AcDbDictionary
280
     1
281
     1
  3
TC_OPTIONAL_DATA
360
5E
  0
DICTIONARY
  5
60
330
62
100
AcDbDictionary
280
     1
281
     1
  3
TC_OPTIONAL_DATA
360
61
  0
DICTIONARY
  5
63
330
65
100
AcDbDictionary
280
     1
281
     1
  3
TC_OPTIONAL_DATA
360
64
  0
DICTIONARY
  5
66
330
68
100
AcDbDictionary
280
     1
281
     1
  3
TC_OPTIONAL_DATA
360
67
  0
DICTIONARY
  5
69
330
6B
100
AcDbDictionary
280
     1
281
     1
  3
TC_OPTIONAL_DATA
360
6A
  0
DICTIONARY
  5
6C
330
6E
100
AcDbDictionary
280
     1
281
     1
  3
TC_OPTIONAL_DATA
360
6D
  0
DICTIONARY
  5
6F
330
71
100
AcDbDictionary
280
     1
281
     1
  3
TC_OPTIONAL_DATA
360
70
  0
DICTIONARY
  5
72
330
74
100
AcDbDictionary
280
     1
281
     1
  3
TC_OPTIONAL_DATA
360
73
  0
DICTIONARY
  5
75
330
77
100
AcDbDictionary
280
     1
281
     1
  3
TC_OPTIONAL_DATA
360
76
  0
DICTIONARY
  5
78
330
7A
100
AcDbDictionary
280
     1
281
     1
  3
TC_OPTIONAL_DATA
360
79
  0
DICTIONARY
  5
7B
330
7D
100
AcDbDictionary
280
     1
281
     1
  3
TC_OPTIONAL_DATA
360
7C
  0
DICTIONARY
  5
7E
330
80
100
AcDbDictionary
280
     1
281
     1
  3
TC_OPTIONAL_DATA
360
7F
  0
DICTIONARY
  5
81
330
83
100
AcDbDictionary
280
     1
281
     1
  3
TC_OPTIONAL_DATA
360
82
  0
DICTIONARY
  5
84
330
86
100
AcDbDictionary
280
     1
281
     1
  3
TC_OPTIONAL_DATA
360
85
  0
DICTIONARY
  5
87
330
89
100
AcDbDictionary
280
     1
281
     1
  3
TC_OPTIONAL_DATA
360
88
  0
DICTIONARY
  5
8A
330
8C
100
AcDbDictionary
280
     1
281
     1
  3
TC_OPTIONAL_DATA
360
8B
  0
DICTIONARY
  5
8D
330
8F
100
AcDbDictionary
280
     1
281
     1
  3
TC_OPTIONAL_DATA
360
8E
  0
DICTIONARY
  5
90
330
92
100
AcDbDictionary
280
     1
281
     1
  3
TC_OPTIONAL_DATA
360
91
  0
DICTIONARY
  5
93
330
95
100
AcDbDictionary
280
     1
281
     1
  3
TC_OPTIONAL_DATA
360
94
  0
DICTIONARY
  5
96
330
98
100
AcDbDictionary
280
     1
281
     1
  3
TC_OPTIONAL_DATA
360
97
  0
DICTIONARY
  5
99
330
9B
100
AcDbDictionary
280
     1
281
     1
  3
TC_OPTIONAL_DATA
360
9A
  0
DICTIONARY
  5
9C
330
9E
100
AcDbDictionary
280
     1
281
     1
  3
TC_OPTIONAL_DATA
360
9D
  0
DICTIONARY
  5
9F
330
A1
100
AcDbDictionary
280
     1
281
     1
  3
TC_OPTIONAL_DATA
360
A0
  0
DICTIONARY
  5
A2
330
A4
100
AcDbDictionary
280
     1
281
     1
  3
TC_OPTIONAL_DATA
360
A3
  0
DICTIONARY
  5
A5
330
A7
100
AcDbDictionary
280
     1
281
     1
  3
TC_OPTIONAL_DATA
360
A6
  0
DICTIONARY
  5
A8
330
AA
100
AcDbDictionary
280
     1
281
     1
  3
TC_OPTIONAL_DATA
360
A9
  0
DICTIONARY
  5
AB
330
AD
100
AcDbDictionary
280
     1
281
     1
  3
TC_OPTIONAL_DATA
360
AC
  0
DICTIONARY
  5
AE
330
B0
100
AcDbDictionary
280
     1
281
     1
  3
TC_OPTIONAL_DATA
360
AF
  0
DICTIONARY
  5
B1
330
B3
100
AcDbDictionary
280
     1
281
     1
  3
TC_OPTIONAL_DATA
360
B2
  0
DICTIONARY
  5
B4
330
B6
100
AcDbDictionary
280
     1
281
     1
  3
TC_OPTIONAL_DATA
360
B5
  0
DICTIONARY
  5
B7
330
B9
100
AcDbDictionary
280
     1
281
     1
  3
TC_OPTIONAL_DATA
360
B8
  0
DICTIONARY
  5
BA
330
BC
100
AcDbDictionary
280
     1
281
     1
  3
TC_OPTIONAL_DATA
360
BB
  0
DICTIONARY
  5
BD
330
BF
100
AcDbDictionary
280
     1
281
     1
  3
TC_OPTIONAL_DATA
360
BE
  0
DICTIONARY
  5
C0
330
C2
100
AcDbDictionary
280
     1
281
     1
  3
TC_OPTIONAL_DATA
360
C1
  0
DICTIONARY
  5
C3
330
C5
100
AcDbDictionary
280
     1
281
     1
  3
TC_OPTIONAL_DATA
360
C4
  0
DICTIONARY
  5
C6
330
C8
100
AcDbDictionary
280
     1
281
     1
  3
TC_OPTIONAL_DATA
360
C7
  0
DICTIONARY
  5
C9
330
CB
100
AcDbDictionary
280
     1
281
     1
  3
TC_OPTIONAL_DATA
360
CA
  0
DICTIONARY
  5
CC
330
CE
100
AcDbDictionary
280
     1
281
     1
  3
TC_OPTIONAL_DATA
360
CD
  0
DICTIONARY
  5
CF
330
D1
100
AcDbDictionary
280
     1
281
     1
  3
TC_OPTIONAL_DATA
360
D0
  0
DICTIONARY
  5
D2
330
D4
100
AcDbDictionary
280
     1
281
     1
  3
TC_OPTIONAL_DATA
360
D3
  0
DICTIONARY
  5
D5
330
D7
100
AcDbDictionary
280
     1
281
     1
  3
TC_OPTIONAL_DATA
360
D6
  0
DICTIONARY
  5
D8
330
DA
100
AcDbDictionary
280
     1
281
     1
  3
TC_OPTIONAL_DATA
360
D9
  0
DICTIONARY
  5
DB
330
DD
100
AcDbDictionary
280
     1
281
     1
  3
TC_OPTIONAL_DATA
360
DC
  0
DICTIONARY
  5
DE
330
E0
100
AcDbDictionary
280
     1
281
     1
  3
TC_OPTIONAL_DATA
360
DF
  0
DICTIONARY
  5
E1
330
E3
100
AcDbDictionary
280
     1
281
     1
  3
TC_OPTIONAL_DATA
360
E2
  0
DICTIONARY
  5
E4
330
E6
100
AcDbDictionary
280
     1
281
     1
  3
TC_OPTIONAL_DATA
360
E5
  0
DICTIONARY
  5
E7
330
E9
100
AcDbDictionary
280
     1
281
     1
  3
TC_OPTIONAL_DATA
360
E8
  0
DICTIONARY
  5
EA
330
EC
100
AcDbDictionary
280
     1
281
     1
  3
TC_OPTIONAL_DATA
360
EB
  0
DICTIONARY
  5
ED
330
EF
100
AcDbDictionary
280
     1
281
     1
  3
TC_OPTIONAL_DATA
360
EE
  0
DICTIONARY
  5
F0
330
F2
100
AcDbDictionary
280
     1
281
     1
  3
TC_OPTIONAL_DATA
360
F1
  0
DICTIONARY
  5
F3
330
F5
100
AcDbDictionary
280
     1
281
     1
  3
TC_OPTIONAL_DATA
360
F4
  0
DICTIONARY
  5
F6
330
F8
100
AcDbDictionary
280
     1
281
     1
  3
TC_OPTIONAL_DATA
360
F7
  0
DICTIONARY
  5
F9
330
FB
100
AcDbDictionary
280
     1
281
     1
  3
TC_OPTIONAL_DATA
360
FA
  0
DICTIONARY
  5
FC
330
FE
100
AcDbDictionary
280
     1
281
     1
  3
TC_OPTIONAL_DATA
360
FD
  0
DICTIONARY
  5
FF
330
101
100
AcDbDictionary
280
     1
281
     1
  3
TC_OPTIONAL_DATA
360
100
  0
DICTIONARY
  5
102
330
104
100
AcDbDictionary
280
     1
281
     1
  3
TC_OPTIONAL_DATA
360
103
  0
DICTIONARY
  5
105
330
107
100
AcDbDictionary
280
     1
281
     1
  3
TC_OPTIONAL_DATA
360
106
  0
DICTIONARY
  5
108
330
10A
100
AcDbDictionary
280
     1
281
     1
  3
TC_OPTIONAL_DATA
360
109
  0
DICTIONARY
  5
10B
330
10D
100
AcDbDictionary
280
     1
281
     1
  3
TC_OPTIONAL_DATA
360
10C
  0
DICTIONARY
  5
10E
330
110
100
AcDbDictionary
280
     1
281
     1
  3
TC_OPTIONAL_DATA
360
10F
  0
DICTIONARY
  5
111
330
113
100
AcDbDictionary
280
     1
281
     1
  3
TC_OPTIONAL_DATA
360
112
  0
DICTIONARY
  5
114
330
116
100
AcDbDictionary
280
     1
281
     1
  3
TC_OPTIONAL_DATA
360
115
  0
DICTIONARY
  5
117
330
119
100
AcDbDictionary
280
     1
281
     1
  3
TC_OPTIONAL_DATA
360
118
  0
DICTIONARY
  5
11A
330
11C
100
AcDbDictionary
280
     1
281
     1
  3
TC_OPTIONAL_DATA
360
11B
  0
DICTIONARY
  5
11D
330
11F
100
AcDbDictionary
280
     1
281
     1
  3
TC_OPTIONAL_DATA
360
11E
  0
DICTIONARY
  5
120
330
122
100
AcDbDictionary
280
     1
281
     1
  3
TC_OPTIONAL_DATA
360
121
  0
DICTIONARY
  5
123
330
125
100
AcDbDictionary
280
     1
281
     1
  3
TC_OPTIONAL_DATA
360
124
  0
DICTIONARY
  5
126
330
128
100
AcDbDictionary
280
     1
281
     1
  3
TC_OPTIONAL_DATA
360
127
  0
DICTIONARY
  5
129
330
12B
100
AcDbDictionary
280
     1
281
     1
  3
TC_OPTIONAL_DATA
360
12A
  0
DICTIONARY
  5
12C
330
12E
100
AcDbDictionary
280
     1
281
     1
  3
TC_OPTIONAL_DATA
360
12D
  0
DICTIONARY
  5
12F
330
131
100
AcDbDictionary
280
     1
281
     1
  3
TC_OPTIONAL_DATA
360
130
  0
DICTIONARY
  5
132
330
134
100
AcDbDictionary
280
     1
281
     1
  3
TC_OPTIONAL_DATA
360
133
  0
DICTIONARY
  5
135
330
137
100
AcDbDictionary
280
     1
281
     1
  3
TC_OPTIONAL_DATA
360
136
  0
DICTIONARY
  5
138
330
13A
100
AcDbDictionary
280
     1
281
     1
  3
TC_OPTIONAL_DATA
360
139
  0
DICTIONARY
  5
13B
330
13D
100
AcDbDictionary
280
     1
281
     1
  3
TC_OPTIONAL_DATA
360
13C
  0
DICTIONARY
  5
13E
330
140
100
AcDbDictionary
280
     1
281
     1
  3
TC_OPTIONAL_DATA
360
13F
  0
DICTIONARY
  5
141
330
143
100
AcDbDictionary
280
     1
281
     1
  3
TC_OPTIONAL_DATA
360
142
  0
DICTIONARY
  5
144
330
146
100
AcDbDictionary
280
     1
281
     1
  3
TC_OPTIONAL_DATA
360
145
  0
DICTIONARY
  5
147
330
149
100
AcDbDictionary
280
     1
281
     1
  3
TC_OPTIONAL_DATA
360
148
  0
DICTIONARY
  5
14A
330
14C
100
AcDbDictionary
280
     1
281
     1
  3
TC_OPTIONAL_DATA
360
14B
  0
DICTIONARY
  5
14D
330
14F
100
AcDbDictionary
280
     1
281
     1
  3
TC_OPTIONAL_DATA
360
14E
  0
DICTIONARY
  5
150
330
152
100
AcDbDictionary
280
     1
281
     1
  3
TC_OPTIONAL_DATA
360
151
  0
DICTIONARY
  5
153
330
155
100
AcDbDictionary
280
     1
281
     1
  3
TC_OPTIONAL_DATA
360
154
  0
DICTIONARY
  5
156
330
158
100
AcDbDictionary
280
     1
281
     1
  3
TC_OPTIONAL_DATA
360
157
  0
DICTIONARY
  5
159
330
15B
100
AcDbDictionary
280
     1
281
     1
  3
TC_OPTIONAL_DATA
360
15A
  0
DICTIONARY
  5
15C
330
15E
100
AcDbDictionary
280
     1
281
     1
  3
TC_OPTIONAL_DATA
360
15D
  0
DICTIONARY
  5
15F
330
161
100
AcDbDictionary
280
     1
281
     1
  3
TC_OPTIONAL_DATA
360
160
  0
DICTIONARY
  5
162
330
164
100
AcDbDictionary
280
     1
281
     1
  3
TC_OPTIONAL_DATA
360
163
  0
DICTIONARY
  5
165
330
167
100
AcDbDictionary
280
     1
281
     1
  3
TC_OPTIONAL_DATA
360
166
  0
DICTIONARY
  5
168
330
16A
100
AcDbDictionary
280
     1
281
     1
  3
TC_OPTIONAL_DATA
360
169
  0
DICTIONARY
  5
16B
330
16D
100
AcDbDictionary
280
     1
281
     1
  3
TC_OPTIONAL_DATA
360
16C
  0
DICTIONARY
  5
16E
330
170
100
AcDbDictionary
280
     1
281
     1
  3
TC_OPTIONAL_DATA
360
16F
  0
DICTIONARY
  5
171
330
173
100
AcDbDictionary
280
     1
281
     1
  3
TC_OPTIONAL_DATA
360
172
  0
DICTIONARY
  5
174
330
176
100
AcDbDictionary
280
     1
281
     1
  3
TC_OPTIONAL_DATA
360
175
  0
DICTIONARY
  5
177
330
179
100
AcDbDictionary
280
     1
281
     1
  3
TC_OPTIONAL_DATA
360
178
  0
DICTIONARY
  5
17A
330
17C
100
AcDbDictionary
280
     1
281
     1
  3
TC_OPTIONAL_DATA
360
17B
  0
DICTIONARY
  5
17D
330
17F
100
AcDbDictionary
280
     1
281
     1
  3
TC_OPTIONAL_DATA
360
17E
  0
DICTIONARY
  5
180
330
182
100
AcDbDictionary
280
     1
281
     1
  3
TC_OPTIONAL_DATA
360
181
  0
DICTIONARY
  5
183
330
185
100
AcDbDictionary
280
     1
281
     1
  3
TC_OPTIONAL_DATA
360
184
  0
DICTIONARY
  5
186
330
188
100
AcDbDictionary
280
     1
281
     1
  3
TC_OPTIONAL_DATA
360
187
  0
DICTIONARY
  5
189
330
18B
100
AcDbDictionary
280
     1
281
     1
  3
TC_OPTIONAL_DATA
360
18A
  0
DICTIONARY
  5
18C
330
18E
100
AcDbDictionary
280
     1
281
     1
  3
TC_OPTIONAL_DATA
360
18D
  0
DICTIONARY
  5
18F
330
191
100
AcDbDictionary
280
     1
281
     1
  3
TC_OPTIONAL_DATA
360
190
  0
DICTIONARY
  5
192
330
194
100
AcDbDictionary
280
     1
281
     1
  3
TC_OPTIONAL_DATA
360
193
  0
DICTIONARY
  5
195
330
197
100
AcDbDictionary
280
     1
281
     1
  3
TC_OPTIONAL_DATA
360
196
  0
DICTIONARY
  5
198
330
19A
100
AcDbDictionary
280
     1
281
     1
  3
TC_OPTIONAL_DATA
360
199
  0
DICTIONARY
  5
19B
330
19D
100
AcDbDictionary
280
     1
281
     1
  3
TC_OPTIONAL_DATA
360
19C
  0
DICTIONARY
  5
19E
330
1A0
100
AcDbDictionary
280
     1
281
     1
  3
TC_OPTIONAL_DATA
360
19F
  0
DICTIONARY
  5
1A1
330
1A3
100
AcDbDictionary
280
     1
281
     1
  3
TC_OPTIONAL_DATA
360
1A2
  0
DICTIONARY
  5
1A4
330
1A6
100
AcDbDictionary
280
     1
281
     1
  3
TC_OPTIONAL_DATA
360
1A5
  0
DICTIONARY
  5
1A7
330
1A9
100
AcDbDictionary
280
     1
281
     1
  3
TC_OPTIONAL_DATA
360
1A8
  0
DICTIONARY
  5
1AA
330
1AC
100
AcDbDictionary
280
     1
281
     1
  3
TC_OPTIONAL_DATA
360
1AB
  0
DICTIONARY
  5
1AD
330
1AF
100
AcDbDictionary
280
     1
281
     1
  3
TC_OPTIONAL_DATA
360
1AE
  0
DICTIONARY
  5
1B0
330
1B2
100
AcDbDictionary
280
     1
281
     1
  3
TC_OPTIONAL_DATA
360
1B1
  0
DICTIONARY
  5
1B3
330
1B5
100
AcDbDictionary
280
     1
281
     1
  3
TC_OPTIONAL_DATA
360
1B4
  0
DICTIONARY
  5
1B6
330
1B8
100
AcDbDictionary
280
     1
281
     1
  3
TC_OPTIONAL_DATA
360
1B7
  0
DICTIONARY
  5
1B9
330
1BB
100
AcDbDictionary
280
     1
281
     1
  3
TC_OPTIONAL_DATA
360
1BA
  0
DICTIONARY
  5
1BC
330
1BE
100
AcDbDictionary
280
     1
281
     1
  3
TC_OPTIONAL_DATA
360
1BD
  0
DICTIONARY
  5
1BF
330
1C1
100
AcDbDictionary
280
     1
281
     1
  3
TC_OPTIONAL_DATA
360
1C0
  0
DICTIONARY
  5
1C2
330
1C4
100
AcDbDictionary
280
     1
281
     1
  3
TC_OPTIONAL_DATA
360
1C3
  0
DICTIONARY
  5
1C5
330
1C7
100
AcDbDictionary
280
     1
281
     1
  3
TC_OPTIONAL_DATA
360
1C6
  0
DICTIONARY
  5
1C8
330
1CA
100
AcDbDictionary
280
     1
281
     1
  3
TC_OPTIONAL_DATA
360
1C9
  0
DICTIONARY
  5
1CB
330
1CD
100
AcDbDictionary
280
     1
281
     1
  3
TC_OPTIONAL_DATA
360
1CC
  0
DICTIONARY
  5
1CE
330
1D0
100
AcDbDictionary
280
     1
281
     1
  3
TC_OPTIONAL_DATA
360
1CF
  0
DICTIONARY
  5
1D1
330
1D3
100
AcDbDictionary
280
     1
281
     1
  3
TC_OPTIONAL_DATA
360
1D2
  0
DICTIONARY
  5
1D4
330
1D6
100
AcDbDictionary
280
     1
281
     1
  3
TC_OPTIONAL_DATA
360
1D5
  0
DICTIONARY
  5
1D7
330
1D9
100
AcDbDictionary
280
     1
281
     1
  3
TC_OPTIONAL_DATA
360
1D8
  0
DICTIONARY
  5
1DA
330
1DC
100
AcDbDictionary
280
     1
281
     1
  3
TC_OPTIONAL_DATA
360
1DB
  0
DICTIONARY
  5
1DD
330
1DF
100
AcDbDictionary
280
     1
281
     1
  3
TC_OPTIONAL_DATA
360
1DE
  0
DICTIONARY
  5
1E0
330
1E2
100
AcDbDictionary
280
     1
281
     1
  3
TC_OPTIONAL_DATA
360
1E1
  0
DICTIONARY
  5
1E3
330
1E5
100
AcDbDictionary
280
     1
281
     1
  3
TC_OPTIONAL_DATA
360
1E4
  0
DICTIONARY
  5
1E6
330
1E8
100
AcDbDictionary
280
     1
281
     1
  3
TC_OPTIONAL_DATA
360
1E7
  0
DICTIONARY
  5
1E9
330
1EB
100
AcDbDictionary
280
     1
281
     1
  3
TC_OPTIONAL_DATA
360
1EA
  0
DICTIONARY
  5
1EC
330
1EE
100
AcDbDictionary
280
     1
281
     1
  3
TC_OPTIONAL_DATA
360
1ED
  0
DICTIONARY
  5
1EF
330
1F1
100
AcDbDictionary
280
     1
281
     1
  3
TC_OPTIONAL_DATA
360
1F0
  0
DICTIONARY
  5
1F2
330
1F4
100
AcDbDictionary
280
     1
281
     1
  3
TC_OPTIONAL_DATA
360
1F3
  0
DICTIONARY
  5
1F5
330
1F7
100
AcDbDictionary
280
     1
281
     1
  3
TC_OPTIONAL_DATA
360
1F6
  0
DICTIONARY
  5
1F8
330
1FA
100
AcDbDictionary
280
     1
281
     1
  3
TC_OPTIONAL_DATA
360
1F9
  0
DICTIONARY
  5
1FB
330
1FD
100
AcDbDictionary
280
     1
281
     1
  3
TC_OPTIONAL_DATA
360
1FC
  0
DICTIONARY
  5
1FE
330
200
100
AcDbDictionary
280
     1
281
     1
  3
TC_OPTIONAL_DATA
360
1FF
  0
DICTIONARY
  5
201
330
203
100
AcDbDictionary
280
     1
281
     1
  3
TC_OPTIONAL_DATA
360
202
  0
DICTIONARY
  5
204
330
206
100
AcDbDictionary
280
     1
281
     1
  3
TC_OPTIONAL_DATA
360
205
  0
DICTIONARY
  5
207
330
209
100
AcDbDictionary
280
     1
281
     1
  3
TC_OPTIONAL_DATA
360
208
  0
DICTIONARY
  5
20A
330
20C
100
AcDbDictionary
280
     1
281
     1
  3
TC_OPTIONAL_DATA
360
20B
  0
DICTIONARY
  5
20D
330
20F
100
AcDbDictionary
280
     1
281
     1
  3
TC_OPTIONAL_DATA
360
20E
  0
DICTIONARY
  5
210
330
212
100
AcDbDictionary
280
     1
281
     1
  3
TC_OPTIONAL_DATA
360
211
  0
DICTIONARY
  5
213
330
215
100
AcDbDictionary
280
     1
281
     1
  3
TC_OPTIONAL_DATA
360
214
  0
DICTIONARY
  5
216
330
218
100
AcDbDictionary
280
     1
281
     1
  3
TC_OPTIONAL_DATA
360
217
  0
DICTIONARY
  5
219
330
21B
100
AcDbDictionary
280
     1
281
     1
  3
TC_OPTIONAL_DATA
360
21A
  0
DICTIONARY
  5
21C
330
21E
100
AcDbDictionary
280
     1
281
     1
  3
TC_OPTIONAL_DATA
360
21D
  0
DICTIONARY
  5
21F
330
221
100
AcDbDictionary
280
     1
281
     1
  3
TC_OPTIONAL_DATA
360
220
  0
DICTIONARY
  5
222
330
224
100
AcDbDictionary
280
     1
281
     1
  3
TC_OPTIONAL_DATA
360
223
  0
DICTIONARY
  5
225
330
227
100
AcDbDictionary
280
     1
281
     1
  3
TC_OPTIONAL_DATA
360
226
  0
DICTIONARY
  5
228
330
22A
100
AcDbDictionary
280
     1
281
     1
  3
TC_OPTIONAL_DATA
360
229
  0
DICTIONARY
  5
22B
330
22D
100
AcDbDictionary
280
     1
281
     1
  3
TC_OPTIONAL_DATA
360
22C
  0
DICTIONARY
  5
22E
330
230
100
AcDbDictionary
280
     1
281
     1
  3
TC_OPTIONAL_DATA
360
22F
  0
DICTIONARY
  5
231
330
233
100
AcDbDictionary
280
     1
281
     1
  3
TC_OPTIONAL_DATA
360
232
  0
DICTIONARY
  5
234
330
236
100
AcDbDictionary
280
     1
281
     1
  3
TC_OPTIONAL_DATA
360
235
  0
DICTIONARY
  5
237
330
239
100
AcDbDictionary
280
     1
281
     1
  3
TC_OPTIONAL_DATA
360
238
  0
DICTIONARY
  5
23A
330
23C
100
AcDbDictionary
280
     1
281
     1
  3
TC_OPTIONAL_DATA
360
23B
  0
DICTIONARY
  5
23D
330
23F
100
AcDbDictionary
280
     1
281
     1
  3
TC_OPTIONAL_DATA
360
23E
  0
DICTIONARY
  5
240
330
242
100
AcDbDictionary
280
     1
281
     1
  3
TC_OPTIONAL_DATA
360
241
  0
DICTIONARY
  5
243
330
245
100
AcDbDictionary
280
     1
281
     1
  3
TC_OPTIONAL_DATA
360
244
  0
DICTIONARY
  5
246
330
248
100
AcDbDictionary
280
     1
281
     1
  3
TC_OPTIONAL_DATA
360
247
  0
DICTIONARY
  5
249
330
24B
100
AcDbDictionary
280
     1
281
     1
  3
TC_OPTIONAL_DATA
360
24A
  0
DICTIONARY
  5
24C
330
24E
100
AcDbDictionary
280
     1
281
     1
  3
TC_OPTIONAL_DATA
360
24D
  0
DICTIONARY
  5
24F
330
251
100
AcDbDictionary
280
     1
281
     1
  3
TC_OPTIONAL_DATA
360
250
  0
DICTIONARY
  5
252
330
254
100
AcDbDictionary
280
     1
281
     1
  3
TC_OPTIONAL_DATA
360
253
  0
DICTIONARY
  5
255
330
257
100
AcDbDictionary
280
     1
281
     1
  3
TC_OPTIONAL_DATA
360
256
  0
DICTIONARY
  5
258
330
25A
100
AcDbDictionary
280
     1
281
     1
  3
TC_OPTIONAL_DATA
360
259
  0
DICTIONARY
  5
25B
330
25D
100
AcDbDictionary
280
     1
281
     1
  3
TC_OPTIONAL_DATA
360
25C
  0
DICTIONARY
  5
25E
330
260
100
AcDbDictionary
280
     1
281
     1
  3
TC_OPTIONAL_DATA
360
25F
  0
DICTIONARY
  5
261
330
263
100
AcDbDictionary
280
     1
281
     1
  3
TC_OPTIONAL_DATA
360
262
  0
DICTIONARY
  5
264
330
266
100
AcDbDictionary
280
     1
281
     1
  3
TC_OPTIONAL_DATA
360
265
  0
DICTIONARY
  5
267
330
269
100
AcDbDictionary
280
     1
281
     1
  3
TC_OPTIONAL_DATA
360
268
  0
DICTIONARY
  5
26A
330
26C
100
AcDbDictionary
280
     1
281
     1
  3
TC_OPTIONAL_DATA
360
26B
  0
DICTIONARY
  5
26D
330
26F
100
AcDbDictionary
280
     1
281
     1
  3
TC_OPTIONAL_DATA
360
26E
  0
DICTIONARY
  5
270
330
272
100
AcDbDictionary
280
     1
281
     1
  3
TC_OPTIONAL_DATA
360
271
  0
DICTIONARY
  5
273
330
275
100
AcDbDictionary
280
     1
281
     1
  3
TC_OPTIONAL_DATA
360
274
  0
DICTIONARY
  5
276
330
278
100
AcDbDictionary
280
     1
281
     1
  3
TC_OPTIONAL_DATA
360
277
  0
DICTIONARY
  5
279
330
27B
100
AcDbDictionary
280
     1
281
     1
  3
TC_OPTIONAL_DATA
360
27A
  0
DICTIONARY
  5
27C
330
27E
100
AcDbDictionary
280
     1
281
     1
  3
TC_OPTIONAL_DATA
360
27D
  0
DICTIONARY
  5
27F
330
281
100
AcDbDictionary
280
     1
281
     1
  3
TC_OPTIONAL_DATA
360
280
  0
DICTIONARY
  5
282
330
284
100
AcDbDictionary
280
     1
281
     1
  3
TC_OPTIONAL_DATA
360
283
  0
DICTIONARY
  5
285
330
287
100
AcDbDictionary
280
     1
281
     1
  3
TC_OPTIONAL_DATA
360
286
  0
DICTIONARY
  5
288
330
28A
100
AcDbDictionary
280
     1
281
     1
  3
TC_OPTIONAL_DATA
360
289
  0
DICTIONARY
  5
28B
330
28D
100
AcDbDictionary
280
     1
281
     1
  3
TC_OPTIONAL_DATA
360
28C
  0
DICTIONARY
  5
28E
330
290
100
AcDbDictionary
280
     1
281
     1
  3
TC_OPTIONAL_DATA
360
28F
  0
DICTIONARY
  5
291
330
293
100
AcDbDictionary
280
     1
281
     1
  3
TC_OPTIONAL_DATA
360
292
  0
DICTIONARY
  5
294
330
296
100
AcDbDictionary
280
     1
281
     1
  3
TC_OPTIONAL_DATA
360
295
  0
DICTIONARY
  5
297
330
299
100
AcDbDictionary
280
     1
281
     1
  3
TC_OPTIONAL_DATA
360
298
  0
DICTIONARY
  5
29A
330
29C
100
AcDbDictionary
280
     1
281
     1
  3
TC_OPTIONAL_DATA
360
29B
  0
DICTIONARY
  5
29D
330
29F
100
AcDbDictionary
280
     1
281
     1
  3
TC_OPTIONAL_DATA
360
29E
  0
DICTIONARY
  5
2A0
330
2A2
100
AcDbDictionary
280
     1
281
     1
  3
TC_OPTIONAL_DATA
360
2A1
  0
DICTIONARY
  5
2A3
330
2A5
100
AcDbDictionary
280
     1
281
     1
  3
TC_OPTIONAL_DATA
360
2A4
  0
DICTIONARY
  5
2A6
330
2A8
100
AcDbDictionary
280
     1
281
     1
  3
TC_OPTIONAL_DATA
360
2A7
  0
DICTIONARY
  5
2A9
330
2AB
100
AcDbDictionary
280
     1
281
     1
  3
TC_OPTIONAL_DATA
360
2AA
  0
DICTIONARY
  5
2AC
330
2AE
100
AcDbDictionary
280
     1
281
     1
  3
TC_OPTIONAL_DATA
360
2AD
  0
DICTIONARY
  5
2AF
330
2B1
100
AcDbDictionary
280
     1
281
     1
  3
TC_OPTIONAL_DATA
360
2B0
  0
DICTIONARY
  5
2B2
330
2B4
100
AcDbDictionary
280
     1
281
     1
  3
TC_OPTIONAL_DATA
360
2B3
  0
DICTIONARY
  5
2B5
330
2B7
100
AcDbDictionary
280
     1
281
     1
  3
TC_OPTIONAL_DATA
360
2B6
  0
DICTIONARY
  5
2B8
330
2BA
100
AcDbDictionary
280
     1
281
     1
  3
TC_OPTIONAL_DATA
360
2B9
  0
DICTIONARY
  5
2BB
330
2BD
100
AcDbDictionary
280
     1
281
     1
  3
TC_OPTIONAL_DATA
360
2BC
  0
DICTIONARY
  5
2BE
330
2C0
100
AcDbDictionary
280
     1
281
     1
  3
TC_OPTIONAL_DATA
360
2BF
  0
DICTIONARY
  5
2C1
330
2C3
100
AcDbDictionary
280
     1
281
     1
  3
TC_OPTIONAL_DATA
360
2C2
  0
DICTIONARY
  5
2C4
330
2C6
100
AcDbDictionary
280
     1
281
     1
  3
TC_OPTIONAL_DATA
360
2C5
  0
DICTIONARY
  5
2C7
330
2C9
100
AcDbDictionary
280
     1
281
     1
  3
TC_OPTIONAL_DATA
360
2C8
  0
DICTIONARY
  5
2CA
330
2CC
100
AcDbDictionary
280
     1
281
     1
  3
TC_OPTIONAL_DATA
360
2CB
  0
DICTIONARY
  5
2CD
330
2CF
100
AcDbDictionary
280
     1
281
     1
  3
TC_OPTIONAL_DATA
360
2CE
  0
DICTIONARY
  5
D
102
{ACAD_REACTORS
330
C
102
}
330
C
100
AcDbDictionary
281
     1
  0
DICTIONARY
  5
1A
102
{ACAD_REACTORS
330
C
102
}
330
C
100
AcDbDictionary
281
     1
  3
Layout1
350
3C
  3
Layout2
350
1E
  3
Model
350
22
  0
DICTIONARY
  5
17
102
{ACAD_REACTORS
330
C
102
}
330
C
100
AcDbDictionary
281
     1
  3
Standard
350
18
  0
DICTIONARY
  5
19
102
{ACAD_REACTORS
330
C
102
}
330
C
100
AcDbDictionary
281
     1
  0
ACDBDICTIONARYWDFLT
  5
E
102
{ACAD_REACTORS
330
C
102
}
330
C
100
AcDbDictionary
281
     1
  3
Normal
350
F
100
AcDbDictionaryWithDefault
340
F
  0
DICTIONARY
  5
2D4
102
{ACAD_REACTORS
330
C
102
}
330
C
100
AcDbDictionary
281
     1
  0
DICTIONARY
  5
2A
102
{ACAD_REACTORS
330
C
102
}
330
C
100
AcDbDictionary
281
     1
  3
2dWireframe
350
2F
  3
3D Hidden
350
31
  3
3dWireframe
350
30
  3
Basic
350
32
  3
Brighten
350
36
  3
ColorChange
350
3A
  3
Conceptual
350
34
  3
Dim
350
35
  3
Facepattern
350
39
  3
Flat
350
2B
  3
FlatWithEdges
350
2C
  3
Gouraud
350
2D
  3
GouraudWithEdges
350
2E
  3
Linepattern
350
38
  3
Realistic
350
33
  3
Thicken
350
37
  0
TCOPTIONALDATA
  5
5B
102
{ACAD_REACTORS
330
5A
102
}
330
5A
100
TcOptionalData
 70
     1
 70
    32
 40
-3.0
  0
TCOPTIONALDATA
  5
5E
102
{ACAD_REACTORS
330
5D
102
}
330
5D
100
TcOptionalData
 70
     1
 70
    32
 40
-3.0
  0
TCOPTIONALDATA
  5
61
102
{ACAD_REACTORS
330
60
102
}
330
60
100
TcOptionalData
 70
     1
 70
    32
 40
-3.0
  0
TCOPTIONALDATA
  5
64
102
{ACAD_REACTORS
330
63
102
}
330
63
100
TcOptionalData
 70
     1
 70
    32
 40
-3.0
  0
TCOPTIONALDATA
  5
67
102
{ACAD_REACTORS
330
66
102
}
330
66
100
TcOptionalData
 70
     1
 70
    32
 40
-3.0
  0
TCOPTIONALDATA
  5
6A
102
{ACAD_REACTORS
330
69
102
}
330
69
100
TcOptionalData
 70
     1
 70
    32
 40
-3.0
  0
TCOPTIONALDATA
  5
6D
102
{ACAD_REACTORS
330
6C
102
}
330
6C
100
TcOptionalData
 70
     1
 70
    32
 40
-3.0
  0
TCOPTIONALDATA
  5
70
102
{ACAD_REACTORS
330
6F
102
}
330
6F
100
TcOptionalData
 70
     1
 70
    32
 40
-3.0
  0
TCOPTIONALDATA
  5
73
102
{ACAD_REACTORS
330
72
102
}
330
72
100
TcOptionalData
 70
     1
 70
    32
 40
-3.0
  0
TCOPTIONALDATA
  5
76
102
{ACAD_REACTORS
330
75
102
}
330
75
100
TcOptionalData
 70
     1
 70
    32
 40
-3.0
  0
TCOPTIONALDATA
  5
79
102
{ACAD_REACTORS
330
78
102
}
330
78
100
TcOptionalData
 70
     1
 70
    32
 40
-3.0
  0
TCOPTIONALDATA
  5
7C
102
{ACAD_REACTORS
330
7B
102
}
330
7B
100
TcOptionalData
 70
     1
 70
    32
 40
-3.0
  0
TCOPTIONALDATA
  5
7F
102
{ACAD_REACTORS
330
7E
102
}
330
7E
100
TcOptionalData
 70
     1
 70
    32
 40
-3.0
  0
TCOPTIONALDATA
  5
82
102
{ACAD_REACTORS
330
81
102
}
330
81
100
TcOptionalData
 70
     1
 70
    32
 40
-3.0
  0
TCOPTIONALDATA
  5
85
102
{ACAD_REACTORS
330
84
102
}
330
84
100
TcOptionalData
 70
     1
 70
    32
 40
-3.0
  0
TCOPTIONALDATA
  5
88
102
{ACAD_REACTORS
330
87
102
}
330
87
100
TcOptionalData
 70
     1
 70
    32
 40
-3.0
  0
TCOPTIONALDATA
  5
8B
102
{ACAD_REACTORS
330
8A
102
}
330
8A
100
TcOptionalData
 70
     1
 70
    32
 40
-3.0
  0
TCOPTIONALDATA
  5
8E
102
{ACAD_REACTORS
330
8D
102
}
330
8D
100
TcOptionalData
 70
     1
 70
    32
 40
-3.0
  0
TCOPTIONALDATA
  5
91
102
{ACAD_REACTORS
330
90
102
}
330
90
100
TcOptionalData
 70
     1
 70
    32
 40
-3.0
  0
TCOPTIONALDATA
  5
94
102
{ACAD_REACTORS
330
93
102
}
330
93
100
TcOptionalData
 70
     1
 70
    32
 40
-3.0
  0
TCOPTIONALDATA
  5
97
102
{ACAD_REACTORS
330
96
102
}
330
96
100
TcOptionalData
 70
     1
 70
    32
 40
-3.0
  0
TCOPTIONALDATA
  5
9A
102
{ACAD_REACTORS
330
99
102
}
330
99
100
TcOptionalData
 70
     1
 70
    32
 40
-3.0
  0
TCOPTIONALDATA
  5
9D
102
{ACAD_REACTORS
330
9C
102
}
330
9C
100
TcOptionalData
 70
     1
 70
    32
 40
-3.0
  0
TCOPTIONALDATA
  5
A0
102
{ACAD_REACTORS
330
9F
102
}
330
9F
100
TcOptionalData
 70
     1
 70
    32
 40
-3.0
  0
TCOPTIONALDATA
  5
A3
102
{ACAD_REACTORS
330
A2
102
}
330
A2
100
TcOptionalData
 70
     1
 70
    32
 40
-3.0
  0
TCOPTIONALDATA
  5
A6
102
{ACAD_REACTORS
330
A5
102
}
330
A5
100
TcOptionalData
 70
     1
 70
    32
 40
-3.0
  0
TCOPTIONALDATA
  5
A9
102
{ACAD_REACTORS
330
A8
102
}
330
A8
100
TcOptionalData
 70
     1
 70
    32
 40
-3.0
  0
TCOPTIONALDATA
  5
AC
102
{ACAD_REACTORS
330
AB
102
}
330
AB
100
TcOptionalData
 70
     1
 70
    32
 40
-3.0
  0
TCOPTIONALDATA
  5
AF
102
{ACAD_REACTORS
330
AE
102
}
330
AE
100
TcOptionalData
 70
     1
 70
    32
 40
-3.0
  0
TCOPTIONALDATA
  5
B2
102
{ACAD_REACTORS
330
B1
102
}
330
B1
100
TcOptionalData
 70
     1
 70
    32
 40
-3.0
  0
TCOPTIONALDATA
  5
B5
102
{ACAD_REACTORS
330
B4
102
}
330
B4
100
TcOptionalData
 70
     1
 70
    32
 40
-3.0
  0
TCOPTIONALDATA
  5
B8
102
{ACAD_REACTORS
330
B7
102
}
330
B7
100
TcOptionalData
 70
     1
 70
    32
 40
-3.0
  0
TCOPTIONALDATA
  5
BB
102
{ACAD_REACTORS
330
BA
102
}
330
BA
100
TcOptionalData
 70
     1
 70
    32
 40
-3.0
  0
TCOPTIONALDATA
  5
BE
102
{ACAD_REACTORS
330
BD
102
}
330
BD
100
TcOptionalData
 70
     1
 70
    32
 40
-3.0
  0
TCOPTIONALDATA
  5
C1
102
{ACAD_REACTORS
330
C0
102
}
330
C0
100
TcOptionalData
 70
     1
 70
    32
 40
-3.0
  0
TCOPTIONALDATA
  5
C4
102
{ACAD_REACTORS
330
C3
102
}
330
C3
100
TcOptionalData
 70
     1
 70
    32
 40
-3.0
  0
TCOPTIONALDATA
  5
C7
102
{ACAD_REACTORS
330
C6
102
}
330
C6
100
TcOptionalData
 70
     1
 70
    32
 40
-3.0
  0
TCOPTIONALDATA
  5
CA
102
{ACAD_REACTORS
330
C9
102
}
330
C9
100
TcOptionalData
 70
     1
 70
    32
 40
-3.0
  0
TCOPTIONALDATA
  5
CD
102
{ACAD_REACTORS
330
CC
102
}
330
CC
100
TcOptionalData
 70
     1
 70
    32
 40
-3.0
  0
TCOPTIONALDATA
  5
D0
102
{ACAD_REACTORS
330
CF
102
}
330
CF
100
TcOptionalData
 70
     1
 70
    32
 40
-3.0
  0
TCOPTIONALDATA
  5
D3
102
{ACAD_REACTORS
330
D2
102
}
330
D2
100
TcOptionalData
 70
     1
 70
    32
 40
-3.0
  0
TCOPTIONALDATA
  5
D6
102
{ACAD_REACTORS
330
D5
102
}
330
D5
100
TcOptionalData
 70
     1
 70
    32
 40
-3.0
  0
TCOPTIONALDATA
  5
D9
102
{ACAD_REACTORS
330
D8
102
}
330
D8
100
TcOptionalData
 70
     1
 70
    32
 40
-3.0
  0
TCOPTIONALDATA
  5
DC
102
{ACAD_REACTORS
330
DB
102
}
330
DB
100
TcOptionalData
 70
     1
 70
    32
 40
-3.0
  0
TCOPTIONALDATA
  5
DF
102
{ACAD_REACTORS
330
DE
102
}
330
DE
100
TcOptionalData
 70
     1
 70
    32
 40
-3.0
  0
TCOPTIONALDATA
  5
E2
102
{ACAD_REACTORS
330
E1
102
}
330
E1
100
TcOptionalData
 70
     1
 70
    32
 40
-3.0
  0
TCOPTIONALDATA
  5
E5
102
{ACAD_REACTORS
330
E4
102
}
330
E4
100
TcOptionalData
 70
     1
 70
    32
 40
-3.0
  0
TCOPTIONALDATA
  5
E8
102
{ACAD_REACTORS
330
E7
102
}
330
E7
100
TcOptionalData
 70
     1
 70
    32
 40
-3.0
  0
TCOPTIONALDATA
  5
EB
102
{ACAD_REACTORS
330
EA
102
}
330
EA
100
TcOptionalData
 70
     1
 70
    32
 40
-3.0
  0
TCOPTIONALDATA
  5
EE
102
{ACAD_REACTORS
330
ED
102
}
330
ED
100
TcOptionalData
 70
     1
 70
    32
 40
-3.0
  0
TCOPTIONALDATA
  5
F1
102
{ACAD_REACTORS
330
F0
102
}
330
F0
100
TcOptionalData
 70
     1
 70
    32
 40
-3.0
  0
TCOPTIONALDATA
  5
F4
102
{ACAD_REACTORS
330
F3
102
}
330
F3
100
TcOptionalData
 70
     1
 70
    32
 40
-3.0
  0
TCOPTIONALDATA
  5
F7
102
{ACAD_REACTORS
330
F6
102
}
330
F6
100
TcOptionalData
 70
     1
 70
    32
 40
-3.0
  0
TCOPTIONALDATA
  5
FA
102
{ACAD_REACTORS
330
F9
102
}
330
F9
100
TcOptionalData
 70
     1
 70
    32
 40
-3.0
  0
TCOPTIONALDATA
  5
FD
102
{ACAD_REACTORS
330
FC
102
}
330
FC
100
TcOptionalData
 70
     1
 70
    32
 40
-3.0
  0
TCOPTIONALDATA
  5
100
102
{ACAD_REACTORS
330
FF
102
}
330
FF
100
TcOptionalData
 70
     1
 70
    32
 40
-3.0
  0
TCOPTIONALDATA
  5
103
102
{ACAD_REACTORS
330
102
102
}
330
102
100
TcOptionalData
 70
     1
 70
    32
 40
-3.0
  0
TCOPTIONALDATA
  5
106
102
{ACAD_REACTORS
330
105
102
}
330
105
100
TcOptionalData
 70
     1
 70
    32
 40
-3.0
  0
TCOPTIONALDATA
  5
109
102
{ACAD_REACTORS
330
108
102
}
330
108
100
TcOptionalData
 70
     1
 70
    32
 40
-3.0
  0
TCOPTIONALDATA
  5
10C
102
{ACAD_REACTORS
330
10B
102
}
330
10B
100
TcOptionalData
 70
     1
 70
    32
 40
-3.0
  0
TCOPTIONALDATA
  5
10F
102
{ACAD_REACTORS
330
10E
102
}
330
10E
100
TcOptionalData
 70
     1
 70
    32
 40
-3.0
  0
TCOPTIONALDATA
  5
112
102
{ACAD_REACTORS
330
111
102
}
330
111
100
TcOptionalData
 70
     1
 70
    32
 40
-3.0
  0
TCOPTIONALDATA
  5
115
102
{ACAD_REACTORS
330
114
102
}
330
114
100
TcOptionalData
 70
     1
 70
    32
 40
-3.0
  0
TCOPTIONALDATA
  5
118
102
{ACAD_REACTORS
330
117
102
}
330
117
100
TcOptionalData
 70
     1
 70
    32
 40
-3.0
  0
TCOPTIONALDATA
  5
11B
102
{ACAD_REACTORS
330
11A
102
}
330
11A
100
TcOptionalData
 70
     1
 70
    32
 40
-3.0
  0
TCOPTIONALDATA
  5
11E
102
{ACAD_REACTORS
330
11D
102
}
330
11D
100
TcOptionalData
 70
     1
 70
    32
 40
-3.0
  0
TCOPTIONALDATA
  5
121
102
{ACAD_REACTORS
330
120
102
}
330
120
100
TcOptionalData
 70
     1
 70
    32
 40
-3.0
  0
TCOPTIONALDATA
  5
124
102
{ACAD_REACTORS
330
123
102
}
330
123
100
TcOptionalData
 70
     1
 70
    32
 40
-3.0
  0
TCOPTIONALDATA
  5
127
102
{ACAD_REACTORS
330
126
102
}
330
126
100
TcOptionalData
 70
     1
 70
    32
 40
-3.0
  0
TCOPTIONALDATA
  5
12A
102
{ACAD_REACTORS
330
129
102
}
330
129
100
TcOptionalData
 70
     1
 70
    32
 40
-3.0
  0
TCOPTIONALDATA
  5
12D
102
{ACAD_REACTORS
330
12C
102
}
330
12C
100
TcOptionalData
 70
     1
 70
    32
 40
-3.0
  0
TCOPTIONALDATA
  5
130
102
{ACAD_REACTORS
330
12F
102
}
330
12F
100
TcOptionalData
 70
     1
 70
    32
 40
-3.0
  0
TCOPTIONALDATA
  5
133
102
{ACAD_REACTORS
330
132
102
}
330
132
100
TcOptionalData
 70
     1
 70
    32
 40
-3.0
  0
TCOPTIONALDATA
  5
136
102
{ACAD_REACTORS
330
135
102
}
330
135
100
TcOptionalData
 70
     1
 70
    32
 40
-3.0
  0
TCOPTIONALDATA
  5
139
102
{ACAD_REACTORS
330
138
102
}
330
138
100
TcOptionalData
 70
     1
 70
    32
 40
-3.0
  0
TCOPTIONALDATA
  5
13C
102
{ACAD_REACTORS
330
13B
102
}
330
13B
100
TcOptionalData
 70
     1
 70
    32
 40
-3.0
  0
TCOPTIONALDATA
  5
13F
102
{ACAD_REACTORS
330
13E
102
}
330
13E
100
TcOptionalData
 70
     1
 70
    32
 40
-3.0
  0
TCOPTIONALDATA
  5
142
102
{ACAD_REACTORS
330
141
102
}
330
141
100
TcOptionalData
 70
     1
 70
    32
 40
-3.0
  0
TCOPTIONALDATA
  5
145
102
{ACAD_REACTORS
330
144
102
}
330
144
100
TcOptionalData
 70
     1
 70
    32
 40
-3.0
  0
TCOPTIONALDATA
  5
148
102
{ACAD_REACTORS
330
147
102
}
330
147
100
TcOptionalData
 70
     1
 70
    32
 40
-3.0
  0
TCOPTIONALDATA
  5
14B
102
{ACAD_REACTORS
330
14A
102
}
330
14A
100
TcOptionalData
 70
     1
 70
    32
 40
-3.0
  0
TCOPTIONALDATA
  5
14E
102
{ACAD_REACTORS
330
14D
102
}
330
14D
100
TcOptionalData
 70
     1
 70
    32
 40
-3.0
  0
TCOPTIONALDATA
  5
151
102
{ACAD_REACTORS
330
150
102
}
330
150
100
TcOptionalData
 70
     1
 70
    32
 40
-3.0
  0
TCOPTIONALDATA
  5
154
102
{ACAD_REACTORS
330
153
102
}
330
153
100
TcOptionalData
 70
     1
 70
    32
 40
-3.0
  0
TCOPTIONALDATA
  5
157
102
{ACAD_REACTORS
330
156
102
}
330
156
100
TcOptionalData
 70
     1
 70
    32
 40
-3.0
  0
TCOPTIONALDATA
  5
15A
102
{ACAD_REACTORS
330
159
102
}
330
159
100
TcOptionalData
 70
     1
 70
    32
 40
-3.0
  0
TCOPTIONALDATA
  5
15D
102
{ACAD_REACTORS
330
15C
102
}
330
15C
100
TcOptionalData
 70
     1
 70
    32
 40
-3.0
  0
TCOPTIONALDATA
  5
160
102
{ACAD_REACTORS
330
15F
102
}
330
15F
100
TcOptionalData
 70
     1
 70
    32
 40
-3.0
  0
TCOPTIONALDATA
  5
163
102
{ACAD_REACTORS
330
162
102
}
330
162
100
TcOptionalData
 70
     1
 70
    32
 40
-3.0
  0
TCOPTIONALDATA
  5
166
102
{ACAD_REACTORS
330
165
102
}
330
165
100
TcOptionalData
 70
     1
 70
    32
 40
-3.0
  0
TCOPTIONALDATA
  5
169
102
{ACAD_REACTORS
330
168
102
}
330
168
100
TcOptionalData
 70
     1
 70
    32
 40
-3.0
  0
TCOPTIONALDATA
  5
16C
102
{ACAD_REACTORS
330
16B
102
}
330
16B
100
TcOptionalData
 70
     1
 70
    32
 40
-3.0
  0
TCOPTIONALDATA
  5
16F
102
{ACAD_REACTORS
330
16E
102
}
330
16E
100
TcOptionalData
 70
     1
 70
    32
 40
-3.0
  0
TCOPTIONALDATA
  5
172
102
{ACAD_REACTORS
330
171
102
}
330
171
100
TcOptionalData
 70
     1
 70
    32
 40
-3.0
  0
TCOPTIONALDATA
  5
175
102
{ACAD_REACTORS
330
174
102
}
330
174
100
TcOptionalData
 70
     1
 70
    32
 40
-3.0
  0
TCOPTIONALDATA
  5
178
102
{ACAD_REACTORS
330
177
102
}
330
177
100
TcOptionalData
 70
     1
 70
    32
 40
-3.0
  0
TCOPTIONALDATA
  5
17B
102
{ACAD_REACTORS
330
17A
102
}
330
17A
100
TcOptionalData
 70
     1
 70
    32
 40
-3.0
  0
TCOPTIONALDATA
  5
17E
102
{ACAD_REACTORS
330
17D
102
}
330
17D
100
TcOptionalData
 70
     1
 70
    32
 40
-3.0
  0
TCOPTIONALDATA
  5
181
102
{ACAD_REACTORS
330
180
102
}
330
180
100
TcOptionalData
 70
     1
 70
    32
 40
-3.0
  0
TCOPTIONALDATA
  5
184
102
{ACAD_REACTORS
330
183
102
}
330
183
100
TcOptionalData
 70
     1
 70
    32
 40
-3.0
  0
TCOPTIONALDATA
  5
187
102
{ACAD_REACTORS
330
186
102
}
330
186
100
TcOptionalData
 70
     1
 70
    32
 40
-3.0
  0
TCOPTIONALDATA
  5
18A
102
{ACAD_REACTORS
330
189
102
}
330
189
100
TcOptionalData
 70
     1
 70
    32
 40
-3.0
  0
TCOPTIONALDATA
  5
18D
102
{ACAD_REACTORS
330
18C
102
}
330
18C
100
TcOptionalData
 70
     1
 70
    32
 40
-3.0
  0
TCOPTIONALDATA
  5
190
102
{ACAD_REACTORS
330
18F
102
}
330
18F
100
TcOptionalData
 70
     1
 70
    32
 40
-3.0
  0
TCOPTIONALDATA
  5
193
102
{ACAD_REACTORS
330
192
102
}
330
192
100
TcOptionalData
 70
     1
 70
    32
 40
-3.0
  0
TCOPTIONALDATA
  5
196
102
{ACAD_REACTORS
330
195
102
}
330
195
100
TcOptionalData
 70
     1
 70
    32
 40
-3.0
  0
TCOPTIONALDATA
  5
199
102
{ACAD_REACTORS
330
198
102
}
330
198
100
TcOptionalData
 70
     1
 70
    32
 40
-3.0
  0
TCOPTIONALDATA
  5
19C
102
{ACAD_REACTORS
330
19B
102
}
330
19B
100
TcOptionalData
 70
     1
 70
    32
 40
-3.0
  0
TCOPTIONALDATA
  5
19F
102
{ACAD_REACTORS
330
19E
102
}
330
19E
100
TcOptionalData
 70
     1
 70
    32
 40
-3.0
  0
TCOPTIONALDATA
  5
1A2
102
{ACAD_REACTORS
330
1A1
102
}
330
1A1
100
TcOptionalData
 70
     1
 70
    32
 40
-3.0
  0
TCOPTIONALDATA
  5
1A5
102
{ACAD_REACTORS
330
1A4
102
}
330
1A4
100
TcOptionalData
 70
     1
 70
    32
 40
-3.0
  0
TCOPTIONALDATA
  5
1A8
102
{ACAD_REACTORS
330
1A7
102
}
330
1A7
100
TcOptionalData
 70
     1
 70
    32
 40
-3.0
  0
TCOPTIONALDATA
  5
1AB
102
{ACAD_REACTORS
330
1AA
102
}
330
1AA
100
TcOptionalData
 70
     1
 70
    32
 40
-3.0
  0
TCOPTIONALDATA
  5
1AE
102
{ACAD_REACTORS
330
1AD
102
}
330
1AD
100
TcOptionalData
 70
     1
 70
    32
 40
-3.0
  0
TCOPTIONALDATA
  5
1B1
102
{ACAD_REACTORS
330
1B0
102
}
330
1B0
100
TcOptionalData
 70
     1
 70
    32
 40
-3.0
  0
TCOPTIONALDATA
  5
1B4
102
{ACAD_REACTORS
330
1B3
102
}
330
1B3
100
TcOptionalData
 70
     1
 70
    32
 40
-3.0
  0
TCOPTIONALDATA
  5
1B7
102
{ACAD_REACTORS
330
1B6
102
}
330
1B6
100
TcOptionalData
 70
     1
 70
    32
 40
-3.0
  0
TCOPTIONALDATA
  5
1BA
102
{ACAD_REACTORS
330
1B9
102
}
330
1B9
100
TcOptionalData
 70
     1
 70
    32
 40
-3.0
  0
TCOPTIONALDATA
  5
1BD
102
{ACAD_REACTORS
330
1BC
102
}
330
1BC
100
TcOptionalData
 70
     1
 70
    32
 40
-3.0
  0
TCOPTIONALDATA
  5
1C0
102
{ACAD_REACTORS
330
1BF
102
}
330
1BF
100
TcOptionalData
 70
     1
 70
    32
 40
-3.0
  0
TCOPTIONALDATA
  5
1C3
102
{ACAD_REACTORS
330
1C2
102
}
330
1C2
100
TcOptionalData
 70
     1
 70
    32
 40
-3.0
  0
TCOPTIONALDATA
  5
1C6
102
{ACAD_REACTORS
330
1C5
102
}
330
1C5
100
TcOptionalData
 70
     1
 70
    32
 40
-3.0
  0
TCOPTIONALDATA
  5
1C9
102
{ACAD_REACTORS
330
1C8
102
}
330
1C8
100
TcOptionalData
 70
     1
 70
    32
 40
-3.0
  0
TCOPTIONALDATA
  5
1CC
102
{ACAD_REACTORS
330
1CB
102
}
330
1CB
100
TcOptionalData
 70
     1
 70
    32
 40
-3.0
  0
TCOPTIONALDATA
  5
1CF
102
{ACAD_REACTORS
330
1CE
102
}
330
1CE
100
TcOptionalData
 70
     1
 70
    32
 40
-3.0
  0
TCOPTIONALDATA
  5
1D2
102
{ACAD_REACTORS
330
1D1
102
}
330
1D1
100
TcOptionalData
 70
     1
 70
    32
 40
-3.0
  0
TCOPTIONALDATA
  5
1D5
102
{ACAD_REACTORS
330
1D4
102
}
330
1D4
100
TcOptionalData
 70
     1
 70
    32
 40
-3.0
  0
TCOPTIONALDATA
  5
1D8
102
{ACAD_REACTORS
330
1D7
102
}
330
1D7
100
TcOptionalData
 70
     1
 70
    32
 40
-3.0
  0
TCOPTIONALDATA
  5
1DB
102
{ACAD_REACTORS
330
1DA
102
}
330
1DA
100
TcOptionalData
 70
     1
 70
    32
 40
-3.0
  0
TCOPTIONALDATA
  5
1DE
102
{ACAD_REACTORS
330
1DD
102
}
330
1DD
100
TcOptionalData
 70
     1
 70
    32
 40
-3.0
  0
TCOPTIONALDATA
  5
1E1
102
{ACAD_REACTORS
330
1E0
102
}
330
1E0
100
TcOptionalData
 70
     1
 70
    32
 40
-3.0
  0
TCOPTIONALDATA
  5
1E4
102
{ACAD_REACTORS
330
1E3
102
}
330
1E3
100
TcOptionalData
 70
     1
 70
    32
 40
-3.0
  0
TCOPTIONALDATA
  5
1E7
102
{ACAD_REACTORS
330
1E6
102
}
330
1E6
100
TcOptionalData
 70
     1
 70
    32
 40
-3.0
  0
TCOPTIONALDATA
  5
1EA
102
{ACAD_REACTORS
330
1E9
102
}
330
1E9
100
TcOptionalData
 70
     1
 70
    32
 40
-3.0
  0
TCOPTIONALDATA
  5
1ED
102
{ACAD_REACTORS
330
1EC
102
}
330
1EC
100
TcOptionalData
 70
     1
 70
    32
 40
-3.0
  0
TCOPTIONALDATA
  5
1F0
102
{ACAD_REACTORS
330
1EF
102
}
330
1EF
100
TcOptionalData
 70
     1
 70
    32
 40
-3.0
  0
TCOPTIONALDATA
  5
1F3
102
{ACAD_REACTORS
330
1F2
102
}
330
1F2
100
TcOptionalData
 70
     1
 70
    32
 40
-3.0
  0
TCOPTIONALDATA
  5
1F6
102
{ACAD_REACTORS
330
1F5
102
}
330
1F5
100
TcOptionalData
 70
     1
 70
    32
 40
-3.0
  0
TCOPTIONALDATA
  5
1F9
102
{ACAD_REACTORS
330
1F8
102
}
330
1F8
100
TcOptionalData
 70
     1
 70
    32
 40
-3.0
  0
TCOPTIONALDATA
  5
1FC
102
{ACAD_REACTORS
330
1FB
102
}
330
1FB
100
TcOptionalData
 70
     1
 70
    32
 40
-3.0
  0
TCOPTIONALDATA
  5
1FF
102
{ACAD_REACTORS
330
1FE
102
}
330
1FE
100
TcOptionalData
 70
     1
 70
    32
 40
-3.0
  0
TCOPTIONALDATA
  5
202
102
{ACAD_REACTORS
330
201
102
}
330
201
100
TcOptionalData
 70
     1
 70
    32
 40
-3.0
  0
TCOPTIONALDATA
  5
205
102
{ACAD_REACTORS
330
204
102
}
330
204
100
TcOptionalData
 70
     1
 70
    32
 40
-3.0
  0
TCOPTIONALDATA
  5
208
102
{ACAD_REACTORS
330
207
102
}
330
207
100
TcOptionalData
 70
     1
 70
    32
 40
-3.0
  0
TCOPTIONALDATA
  5
20B
102
{ACAD_REACTORS
330
20A
102
}
330
20A
100
TcOptionalData
 70
     1
 70
    32
 40
-3.0
  0
TCOPTIONALDATA
  5
20E
102
{ACAD_REACTORS
330
20D
102
}
330
20D
100
TcOptionalData
 70
     1
 70
    32
 40
-3.0
  0
TCOPTIONALDATA
  5
211
102
{ACAD_REACTORS
330
210
102
}
330
210
100
TcOptionalData
 70
     1
 70
    32
 40
-3.0
  0
TCOPTIONALDATA
  5
214
102
{ACAD_REACTORS
330
213
102
}
330
213
100
TcOptionalData
 70
     1
 70
    32
 40
-3.0
  0
TCOPTIONALDATA
  5
217
102
{ACAD_REACTORS
330
216
102
}
330
216
100
TcOptionalData
 70
     1
 70
    32
 40
-3.0
  0
TCOPTIONALDATA
  5
21A
102
{ACAD_REACTORS
330
219
102
}
330
219
100
TcOptionalData
 70
     1
 70
    32
 40
-3.0
  0
TCOPTIONALDATA
  5
21D
102
{ACAD_REACTORS
330
21C
102
}
330
21C
100
TcOptionalData
 70
     1
 70
    32
 40
-3.0
  0
TCOPTIONALDATA
  5
220
102
{ACAD_REACTORS
330
21F
102
}
330
21F
100
TcOptionalData
 70
     1
 70
    32
 40
-3.0
  0
TCOPTIONALDATA
  5
223
102
{ACAD_REACTORS
330
222
102
}
330
222
100
TcOptionalData
 70
     1
 70
    32
 40
-3.0
  0
TCOPTIONALDATA
  5
226
102
{ACAD_REACTORS
330
225
102
}
330
225
100
TcOptionalData
 70
     1
 70
    32
 40
-3.0
  0
TCOPTIONALDATA
  5
229
102
{ACAD_REACTORS
330
228
102
}
330
228
100
TcOptionalData
 70
     1
 70
    32
 40
-3.0
  0
TCOPTIONALDATA
  5
22C
102
{ACAD_REACTORS
330
22B
102
}
330
22B
100
TcOptionalData
 70
     1
 70
    32
 40
-3.0
  0
TCOPTIONALDATA
  5
22F
102
{ACAD_REACTORS
330
22E
102
}
330
22E
100
TcOptionalData
 70
     1
 70
    32
 40
-3.0
  0
TCOPTIONALDATA
  5
232
102
{ACAD_REACTORS
330
231
102
}
330
231
100
TcOptionalData
 70
     1
 70
    32
 40
-3.0
  0
TCOPTIONALDATA
  5
235
102
{ACAD_REACTORS
330
234
102
}
330
234
100
TcOptionalData
 70
     1
 70
    32
 40
-3.0
  0
TCOPTIONALDATA
  5
238
102
{ACAD_REACTORS
330
237
102
}
330
237
100
TcOptionalData
 70
     1
 70
    32
 40
-3.0
  0
TCOPTIONALDATA
  5
23B
102
{ACAD_REACTORS
330
23A
102
}
330
23A
100
TcOptionalData
 70
     1
 70
    32
 40
-3.0
  0
TCOPTIONALDATA
  5
23E
102
{ACAD_REACTORS
330
23D
102
}
330
23D
100
TcOptionalData
 70
     1
 70
    32
 40
-3.0
  0
TCOPTIONALDATA
  5
241
102
{ACAD_REACTORS
330
240
102
}
330
240
100
TcOptionalData
 70
     1
 70
    32
 40
-3.0
  0
TCOPTIONALDATA
  5
244
102
{ACAD_REACTORS
330
243
102
}
330
243
100
TcOptionalData
 70
     1
 70
    32
 40
-3.0
  0
TCOPTIONALDATA
  5
247
102
{ACAD_REACTORS
330
246
102
}
330
246
100
TcOptionalData
 70
     1
 70
    32
 40
-3.0
  0
TCOPTIONALDATA
  5
24A
102
{ACAD_REACTORS
330
249
102
}
330
249
100
TcOptionalData
 70
     1
 70
    32
 40
-3.0
  0
TCOPTIONALDATA
  5
24D
102
{ACAD_REACTORS
330
24C
102
}
330
24C
100
TcOptionalData
 70
     1
 70
    32
 40
-3.0
  0
TCOPTIONALDATA
  5
250
102
{ACAD_REACTORS
330
24F
102
}
330
24F
100
TcOptionalData
 70
     1
 70
    32
 40
-3.0
  0
TCOPTIONALDATA
  5
253
102
{ACAD_REACTORS
330
252
102
}
330
252
100
TcOptionalData
 70
     1
 70
    32
 40
-3.0
  0
TCOPTIONALDATA
  5
256
102
{ACAD_REACTORS
330
255
102
}
330
255
100
TcOptionalData
 70
     1
 70
    32
 40
-3.0
  0
TCOPTIONALDATA
  5
259
102
{ACAD_REACTORS
330
258
102
}
330
258
100
TcOptionalData
 70
     1
 70
    32
 40
-3.0
  0
TCOPTIONALDATA
  5
25C
102
{ACAD_REACTORS
330
25B
102
}
330
25B
100
TcOptionalData
 70
     1
 70
    32
 40
-3.0
  0
TCOPTIONALDATA
  5
25F
102
{ACAD_REACTORS
330
25E
102
}
330
25E
100
TcOptionalData
 70
     1
 70
    32
 40
-3.0
  0
TCOPTIONALDATA
  5
262
102
{ACAD_REACTORS
330
261
102
}
330
261
100
TcOptionalData
 70
     1
 70
    32
 40
-3.0
  0
TCOPTIONALDATA
  5
265
102
{ACAD_REACTORS
330
264
102
}
330
264
100
TcOptionalData
 70
     1
 70
    32
 40
-3.0
  0
TCOPTIONALDATA
  5
268
102
{ACAD_REACTORS
330
267
102
}
330
267
100
TcOptionalData
 70
     1
 70
    32
 40
-3.0
  0
TCOPTIONALDATA
  5
26B
102
{ACAD_REACTORS
330
26A
102
}
330
26A
100
TcOptionalData
 70
     1
 70
    32
 40
-3.0
  0
TCOPTIONALDATA
  5
26E
102
{ACAD_REACTORS
330
26D
102
}
330
26D
100
TcOptionalData
 70
     1
 70
    32
 40
-3.0
  0
TCOPTIONALDATA
  5
271
102
{ACAD_REACTORS
330
270
102
}
330
270
100
TcOptionalData
 70
     1
 70
    32
 40
-3.0
  0
TCOPTIONALDATA
  5
274
102
{ACAD_REACTORS
330
273
102
}
330
273
100
TcOptionalData
 70
     1
 70
    32
 40
-3.0
  0
TCOPTIONALDATA
  5
277
102
{ACAD_REACTORS
330
276
102
}
330
276
100
TcOptionalData
 70
     1
 70
    32
 40
-3.0
  0
TCOPTIONALDATA
  5
27A
102
{ACAD_REACTORS
330
279
102
}
330
279
100
TcOptionalData
 70
     1
 70
    32
 40
-3.0
  0
TCOPTIONALDATA
  5
27D
102
{ACAD_REACTORS
330
27C
102
}
330
27C
100
TcOptionalData
 70
     1
 70
    32
 40
-3.0
  0
TCOPTIONALDATA
  5
280
102
{ACAD_REACTORS
330
27F
102
}
330
27F
100
TcOptionalData
 70
     1
 70
    32
 40
-3.0
  0
TCOPTIONALDATA
  5
283
102
{ACAD_REACTORS
330
282
102
}
330
282
100
TcOptionalData
 70
     1
 70
    32
 40
-3.0
  0
TCOPTIONALDATA
  5
286
102
{ACAD_REACTORS
330
285
102
}
330
285
100
TcOptionalData
 70
     1
 70
    32
 40
-3.0
  0
TCOPTIONALDATA
  5
289
102
{ACAD_REACTORS
330
288
102
}
330
288
100
TcOptionalData
 70
     1
 70
    32
 40
-3.0
  0
TCOPTIONALDATA
  5
28C
102
{ACAD_REACTORS
330
28B
102
}
330
28B
100
TcOptionalData
 70
     1
 70
    32
 40
-3.0
  0
TCOPTIONALDATA
  5
28F
102
{ACAD_REACTORS
330
28E
102
}
330
28E
100
TcOptionalData
 70
     1
 70
    32
 40
-3.0
  0
TCOPTIONALDATA
  5
292
102
{ACAD_REACTORS
330
291
102
}
330
291
100
TcOptionalData
 70
     1
 70
    32
 40
-3.0
  0
TCOPTIONALDATA
  5
295
102
{ACAD_REACTORS
330
294
102
}
330
294
100
TcOptionalData
 70
     1
 70
    32
 40
-3.0
  0
TCOPTIONALDATA
  5
298
102
{ACAD_REACTORS
330
297
102
}
330
297
100
TcOptionalData
 70
     1
 70
    32
 40
-3.0
  0
TCOPTIONALDATA
  5
29B
102
{ACAD_REACTORS
330
29A
102
}
330
29A
100
TcOptionalData
 70
     1
 70
    32
 40
-3.0
  0
TCOPTIONALDATA
  5
29E
102
{ACAD_REACTORS
330
29D
102
}
330
29D
100
TcOptionalData
 70
     1
 70
    32
 40
-3.0
  0
TCOPTIONALDATA
  5
2A1
102
{ACAD_REACTORS
330
2A0
102
}
330
2A0
100
TcOptionalData
 70
     1
 70
    32
 40
-3.0
  0
TCOPTIONALDATA
  5
2A4
102
{ACAD_REACTORS
330
2A3
102
}
330
2A3
100
TcOptionalData
 70
     1
 70
    32
 40
-3.0
  0
TCOPTIONALDATA
  5
2A7
102
{ACAD_REACTORS
330
2A6
102
}
330
2A6
100
TcOptionalData
 70
     1
 70
    32
 40
-3.0
  0
TCOPTIONALDATA
  5
2AA
102
{ACAD_REACTORS
330
2A9
102
}
330
2A9
100
TcOptionalData
 70
     1
 70
    32
 40
-3.0
  0
TCOPTIONALDATA
  5
2AD
102
{ACAD_REACTORS
330
2AC
102
}
330
2AC
100
TcOptionalData
 70
     1
 70
    32
 40
-3.0
  0
TCOPTIONALDATA
  5
2B0
102
{ACAD_REACTORS
330
2AF
102
}
330
2AF
100
TcOptionalData
 70
     1
 70
    32
 40
-3.0
  0
TCOPTIONALDATA
  5
2B3
102
{ACAD_REACTORS
330
2B2
102
}
330
2B2
100
TcOptionalData
 70
     1
 70
    32
 40
-3.0
  0
TCOPTIONALDATA
  5
2B6
102
{ACAD_REACTORS
330
2B5
102
}
330
2B5
100
TcOptionalData
 70
     1
 70
    32
 40
-3.0
  0
TCOPTIONALDATA
  5
2B9
102
{ACAD_REACTORS
330
2B8
102
}
330
2B8
100
TcOptionalData
 70
     1
 70
    32
 40
-3.0
  0
TCOPTIONALDATA
  5
2BC
102
{ACAD_REACTORS
330
2BB
102
}
330
2BB
100
TcOptionalData
 70
     1
 70
    32
 40
-3.0
  0
TCOPTIONALDATA
  5
2BF
102
{ACAD_REACTORS
330
2BE
102
}
330
2BE
100
TcOptionalData
 70
     1
 70
    32
 40
-3.0
  0
TCOPTIONALDATA
  5
2C2
102
{ACAD_REACTORS
330
2C1
102
}
330
2C1
100
TcOptionalData
 70
     1
 70
    32
 40
-3.0
  0
TCOPTIONALDATA
  5
2C5
102
{ACAD_REACTORS
330
2C4
102
}
330
2C4
100
TcOptionalData
 70
     1
 70
    32
 40
-3.0
  0
TCOPTIONALDATA
  5
2C8
102
{ACAD_REACTORS
330
2C7
102
}
330
2C7
100
TcOptionalData
 70
     1
 70
    32
 40
-3.0
  0
TCOPTIONALDATA
  5
2CB
102
{ACAD_REACTORS
330
2CA
102
}
330
2CA
100
TcOptionalData
 70
     1
 70
    32
 40
-3.0
  0
TCOPTIONALDATA
  5
2CE
102
{ACAD_REACTORS
330
2CD
102
}
330
2CD
100
TcOptionalData
 70
     1
 70
    32
 40
-3.0
  0
LAYOUT
  5
3C
102
{ACAD_REACTORS
330
1A
102
}
330
1A
100
AcDbPlotSettings
  1

  2
none_device
  4
ISO_A4_(210.00_x_297.00_MM)
  6

 40
3.17498779296875
 41
4.18040466308594
 42
13.23975372314453
 43
4.18041658401489
 44
210.0
 45
297.0
 46
10.15707892699004
 47
-1.20633025498211
 48
0.0
 49
0.0
140
0.0
141
0.0
142
1.0
143
1.0
 70
   672
 72
     1
 73
     1
 74
     5
  7

 75
    16
 76
     0
 77
     2
 78
   300
147
1.0
148
0.0
149
0.0
100
AcDbLayout
  1
Layout1
 70
     1
 71
     1
 10
-13.33206671995879
 20
-2.97407440810383
 11
283.6679332800412
 21
207.0259255918962
 12
0.0
 22
0.0
 32
0.0
 14
-13.33206671995879
 24
-2.97407440810383
 34
0.0
 15
283.6679332800412
 25
207.0259255918962
 35
0.0
146
0.0
 13
0.0
 23
0.0
 33
0.0
 16
1.0
 26
0.0
 36
0.0
 17
0.0
 27
1.0
 37
0.0
 76
     0
330
3B
331
2D1
  0
LAYOUT
  5
1E
102
{ACAD_REACTORS
330
1A
102
}
330
1A
100
AcDbPlotSettings
  1

  2
none_device
  4
ISO_C5_(229.00_x_162.00_MM)
  6

 40
0.0
 41
0.0
 42
0.0
 43
0.0
 44
229.0
 45
162.0
 46
0.0
 47
0.0
 48
0.0
 49
0.0
140
0.0
141
0.0
142
1.0
143
1.0
 70
   672
 72
     1
 73
     0
 74
     5
  7

 75
    16
 76
     0
 77
     2
 78
   300
147
1.0
148
0.0
149
0.0
100
AcDbLayout
  1
Layout2
 70
     1
 71
     2
 10
0.0
 20
0.0
 11
162.0
 21
229.0
 12
0.0
 22
0.0
 32
0.0
 14
0.0
 24
0.0
 34
0.0
 15
162.0
 25
229.0
 35
0.0
146
0.0
 13
0.0
 23
0.0
 33
0.0
 16
1.0
 26
0.0
 36
0.0
 17
0.0
 27
1.0
 37
0.0
 76
     0
330
1B
331
2D3
  0
LAYOUT
  5
22
102
{ACAD_REACTORS
330
1A
102
}
330
1A
100
AcDbPlotSettings
  1

  2
none_device
  4
ISO_A4_(210.00_x_297.00_MM)
  6

 40
0.0
 41
0.0
 42
0.0
 43
0.0
 44
210.0
 45
297.0
 46
-69.84414585941825
 47
7.600837028932281
 48
0.0
 49
0.0
140
0.0
141
0.0
142
1.0
143
0.635008
 70
  1696
 72
     1
 73
     1
 74
     0
  7

 75
     0
 76
     0
 77
     2
 78
   300
147
1.0
148
0.0
149
0.0
100
AcDbLayout
  1
Model
 70
     1
 71
     0
 10
44.35159137389746
 20
-4.82659232006823
 11
232.9489673738975
 21
128.5250876799318
 12
0.0
 22
0.0
 32
0.0
 14
44.35159137389746
 24
-4.82659232006823
 34
0.0
 15
232.9489673738975
 25
128.5250876799318
 35
0.0
146
0.0
 13
0.0
 23
0.0
 33
0.0
 16
1.0
 26
0.0
 36
0.0
 17
0.0
 27
1.0
 37
0.0
 76
     0
330
1F
331
29
  0
MLINESTYLE
  5
18
102
{ACAD_REACTORS
330
17
102
}
330
17
100
AcDbMlineStyle
  2
Standard
 70
     0
  3

 62
   256
 51
90.0
 52
90.0
 71
     8
 49
0.5
 62
   256
  6
BYLAYER
 49
-0.5
 62
   256
  6
BYLAYER
 49
0.5
 62
   256
  6
BYLAYER
 49
-0.5
 62
   256
  6
BYLAYER
 49
0.5
 62
   256
  6
BYLAYER
 49
-0.5
 62
   256
  6
BYLAYER
 49
0.5
 62
   256
  6
BYLAYER
 49
-0.5
 62
   256
  6
BYLAYER
  0
ACDBPLACEHOLDER
  5
F
102
{ACAD_REACTORS
330
E
102
}
330
E
  0
VISUALSTYLE
  5
2F
102
{ACAD_REACTORS
330
2A
102
}
330
2A
100
AcDbVisualStyle
  2
2dWireframe
 70
     4
 71
     0
 72
     2
 73
     0
 90
        0
 40
-0.6
 41
-30.0
 62
     5
 63
     7
421
 16777215
 74
     1
 91
        4
 64
     7
 65
   257
 75
     1
175
     1
 42
1.0
 92
        0
 66
   257
 43
1.0
 76
     1
 77
     6
 78
     2
 67
     7
 79
     5
170
     0
171
     0
290
     0
174
     0
 93
        1
 44
0.0
173
     0
291
     0
 45
0.0
1001
ACAD
1000
AcDbSavedByObjectVersion
1070
     0
  0
VISUALSTYLE
  5
31
102
{ACAD_REACTORS
330
2A
102
}
330
2A
100
AcDbVisualStyle
  2
3D Hidden
 70
     6
 71
     1
 72
     2
 73
     2
 90
        0
 40
-0.6
 41
-30.0
 62
     5
 63
     7
421
 16777215
 74
     2
 91
        2
 64
     7
 65
   257
 75
     2
175
     1
 42
40.0
 92
        0
 66
   257
 43
1.0
 76
     1
 77
     6
 78
     2
 67
     7
 79
     3
170
     0
171
     0
290
     0
174
     0
 93
        1
 44
0.0
173
     0
291
     0
 45
0.0
1001
ACAD
1000
AcDbSavedByObjectVersion
1070
     0
  0
VISUALSTYLE
  5
30
102
{ACAD_REACTORS
330
2A
102
}
330
2A
100
AcDbVisualStyle
  2
3dWireframe
 70
     5
 71
     0
 72
     2
 73
     0
 90
        0
 40
-0.6
 41
-30.0
 62
     5
 63
     7
421
 16777215
 74
     1
 91
        4
 64
     7
 65
   257
 75
     1
175
     1
 42
1.0
 92
        0
 66
   257
 43
1.0
 76
     1
 77
     6
 78
     2
 67
     7
 79
     5
170
     0
171
     0
290
     0
174
     0
 93
        1
 44
0.0
173
     0
291
     0
 45
0.0
1001
ACAD
1000
AcDbSavedByObjectVersion
1070
     0
  0
VISUALSTYLE
  5
32
102
{ACAD_REACTORS
330
2A
102
}
330
2A
100
AcDbVisualStyle
  2
Basic
 70
     7
 71
     1
 72
     0
 73
     1
 90
        0
 40
-0.6
 41
-30.0
 62
     5
 63
     7
421
 16777215
 74
     0
 91
        4
 64
     7
 65
   257
 75
     1
175
     1
 42
1.0
 92
        8
 66
     7
 43
1.0
 76
     1
 77
     6
 78
     2
 67
     7
 79
     5
170
     0
171
     0
290
     0
174
     0
 93
        1
 44
0.0
173
     0
291
     1
 45
0.0
1001
ACAD
1000
AcDbSavedByObjectVersion
1070
     0
  0
VISUALSTYLE
  5
36
102
{ACAD_REACTORS
330
2A
102
}
330
2A
100
AcDbVisualStyle
  2
Brighten
 70
    12
 71
     2
 72
     2
 73
     0
 90
        0
 40
-0.6
 41
-30.0
 62
     5
 63
     7
421
 16777215
 74
     1
 91
        4
 64
     7
 65
   257
 75
     1
175
     1
 42
1.0
 92
        8
 66
     7
 43
1.0
 76
     1
 77
     6
 78
     2
 67
     7
 79
     5
170
     0
171
     0
290
     0
174
     0
 93
        1
 44
50.0
173
     0
291
     1
 45
0.0
1001
ACAD
1000
AcDbSavedByObjectVersion
1070
     0
  0
VISUALSTYLE
  5
3A
102
{ACAD_REACTORS
330
2A
102
}
330
2A
100
AcDbVisualStyle
  2
ColorChange
 70
    16
 71
     2
 72
     2
 73
     3
 90
        0
 40
-0.6
 41
-30.0
 62
     5
 63
     8
421
  8421504
 74
     1
 91
        4
 64
     7
 65
   257
 75
     1
175
     1
 42
1.0
 92
        8
 66
     8
424
  8421504
 43
1.0
 76
     1
 77
     6
 78
     2
 67
     7
 79
     5
170
     0
171
     0
290
     0
174
     0
 93
        1
 44
0.0
173
     0
291
     1
 45
0.0
1001
ACAD
1000
AcDbSavedByObjectVersion
1070
     0
  0
VISUALSTYLE
  5
34
102
{ACAD_REACTORS
330
2A
102
}
330
2A
100
AcDbVisualStyle
  2
Conceptual
 70
     9
 71
     3
 72
     2
 73
     0
 90
        0
 40
-0.6
 41
-30.0
 62
     5
 63
     7
421
 16777215
 74
     2
 91
        2
 64
     7
 65
   257
 75
     1
175
     1
 42
40.0
 92
        8
 66
     7
 43
1.0
 76
     1
 77
     6
 78
     2
 67
     7
 79
     3
170
     0
171
     0
290
     0
174
     0
 93
        1
 44
0.0
173
     0
291
     0
 45
0.0
1001
ACAD
1000
AcDbSavedByObjectVersion
1070
     0
  0
VISUALSTYLE
  5
35
102
{ACAD_REACTORS
330
2A
102
}
330
2A
100
AcDbVisualStyle
  2
Dim
 70
    11
 71
     2
 72
     2
 73
     0
 90
        0
 40
-0.6
 41
-30.0
 62
     5
 63
     7
421
 16777215
 74
     1
 91
        4
 64
     7
 65
   257
 75
     1
175
     1
 42
1.0
 92
        8
 66
     7
 43
1.0
 76
     1
 77
     6
 78
     2
 67
     7
 79
     5
170
     0
171
     0
290
     0
174
     0
 93
        1
 44
-50.0
173
     0
291
     1
 45
0.0
1001
ACAD
1000
AcDbSavedByObjectVersion
1070
     0
  0
VISUALSTYLE
  5
39
102
{ACAD_REACTORS
330
2A
102
}
330
2A
100
AcDbVisualStyle
  2
Facepattern
 70
    15
 71
     2
 72
     2
 73
     0
 90
        0
 40
-0.6
 41
-30.0
 62
     5
 63
     7
421
 16777215
 74
     1
 91
        4
 64
     7
 65
   257
 75
     1
175
     1
 42
1.0
 92
        8
 66
     7
 43
1.0
 76
     1
 77
     6
 78
     2
 67
     7
 79
     5
170
     0
171
     0
290
     0
174
     0
 93
        1
 44
0.0
173
     0
291
     1
 45
0.0
1001
ACAD
1000
AcDbSavedByObjectVersion
1070
     0
  0
VISUALSTYLE
  5
2B
102
{ACAD_REACTORS
330
2A
102
}
330
2A
100
AcDbVisualStyle
  2
Flat
 70
     0
 71
     2
 72
     1
 73
     1
 90
        2
 40
-0.6
 41
30.0
 62
     5
 63
     7
421
 16777215
 74
     0
 91
        4
 64
     7
 65
   257
 75
     1
175
     1
 42
1.0
 92
        8
 66
     7
 43
1.0
 76
     1
 77
     6
 78
     2
 67
     7
 79
     5
170
     0
171
     0
290
     0
174
     0
 93
       13
 44
0.0
173
     0
291
     1
 45
0.0
1001
ACAD
1000
AcDbSavedByObjectVersion
1070
     0
  0
VISUALSTYLE
  5
2C
102
{ACAD_REACTORS
330
2A
102
}
330
2A
100
AcDbVisualStyle
  2
FlatWithEdges
 70
     1
 71
     2
 72
     1
 73
     1
 90
        2
 40
-0.6
 41
30.0
 62
     5
 63
     7
421
 16777215
 74
     1
 91
        4
 64
     7
 65
   257
 75
     1
175
     1
 42
1.0
 92
        0
 66
   257
 43
1.0
 76
     1
 77
     6
 78
     2
 67
     7
 79
     5
170
     0
171
     0
290
     0
174
     0
 93
       13
 44
0.0
173
     0
291
     1
 45
0.0
1001
ACAD
1000
AcDbSavedByObjectVersion
1070
     0
  0
VISUALSTYLE
  5
2D
102
{ACAD_REACTORS
330
2A
102
}
330
2A
100
AcDbVisualStyle
  2
Gouraud
 70
     2
 71
     2
 72
     2
 73
     1
 90
        2
 40
-0.6
 41
30.0
 62
     5
 63
     7
421
 16777215
 74
     0
 91
        4
 64
     7
 65
   257
 75
     1
175
     1
 42
1.0
 92
        0
 66
     7
 43
1.0
 76
     1
 77
     6
 78
     2
 67
     7
 79
     5
170
     0
171
     0
290
     0
174
     0
 93
       13
 44
0.0
173
     0
291
     1
 45
0.0
1001
ACAD
1000
AcDbSavedByObjectVersion
1070
     0
  0
VISUALSTYLE
  5
2E
102
{ACAD_REACTORS
330
2A
102
}
330
2A
100
AcDbVisualStyle
  2
GouraudWithEdges
 70
     3
 71
     2
 72
     2
 73
     1
 90
        2
 40
-0.6
 41
30.0
 62
     5
 63
     7
421
 16777215
 74
     1
 91
        4
 64
     7
 65
   257
 75
     1
175
     1
 42
1.0
 92
        0
 66
   257
 43
1.0
 76
     1
 77
     6
 78
     2
 67
     7
 79
     5
170
     0
171
     0
290
     0
174
     0
 93
       13
 44
0.0
173
     0
291
     1
 45
0.0
1001
ACAD
1000
AcDbSavedByObjectVersion
1070
     0
  0
VISUALSTYLE
  5
38
102
{ACAD_REACTORS
330
2A
102
}
330
2A
100
AcDbVisualStyle
  2
Linepattern
 70
    14
 71
     2
 72
     2
 73
     0
 90
        0
 40
-0.6
 41
-30.0
 62
     5
 63
     7
421
 16777215
 74
     1
 91
        4
 64
     7
 65
   257
 75
     7
175
     7
 42
1.0
 92
        8
 66
     7
 43
1.0
 76
     1
 77
     6
 78
     2
 67
     7
 79
     5
170
     0
171
     0
290
     0
174
     0
 93
        1
 44
0.0
173
     0
291
     1
 45
0.0
1001
ACAD
1000
AcDbSavedByObjectVersion
1070
     0
  0
VISUALSTYLE
  5
33
102
{ACAD_REACTORS
330
2A
102
}
330
2A
100
AcDbVisualStyle
  2
Realistic
 70
     8
 71
     2
 72
     2
 73
     0
 90
        0
 40
-0.6
 41
-30.0
 62
     5
 63
     7
421
 16777215
 74
     1
 91
        0
 64
     7
 65
   257
 75
     1
175
     1
 42
1.0
 92
        8
 66
     8
424
  7895160
 43
1.0
 76
     1
 77
     6
 78
     2
 67
     7
 79
     5
170
     0
171
     0
290
     0
174
     0
 93
       13
 44
0.0
173
     0
291
     0
 45
0.0
1001
ACAD
1000
AcDbSavedByObjectVersion
1070
     0
  0
VISUALSTYLE
  5
37
102
{ACAD_REACTORS
330
2A
102
}
330
2A
100
AcDbVisualStyle
  2
Thicken
 70
    13
 71
     2
 72
     2
 73
     0
 90
        0
 40
-0.6
 41
-30.0
 62
     5
 63
     7
421
 16777215
 74
     1
 91
        4
 64
     7
 65
   257
 75
     1
175
     1
 42
1.0
 92
       12
 66
     7
 43
1.0
 76
     1
 77
     6
 78
     2
 67
     7
 79
     5
170
     0
171
     0
290
     0
174
     0
 93
        1
 44
0.0
173
     0
291
     1
 45
0.0
1001
ACAD
1000
AcDbSavedByObjectVersion
1070
     0
  0
ENDSEC
  0
SECTION
  2
THUMBNAILIMAGE
 90
    16364
310
28000000B40000005500000001000800000000000000000000000000000000000000000000000000FFFFFF000000FF0000FFFF0000FF0000FFFF0000FF000000FF00FF000000000080808000C0C0C0000000FF007F7FFF000000A5005252A50000007F003F3F7F0000004C0026264C000000260013132600003FFF007F9FFF
310
000029A5005267A500001F7F003F4F7F0000134C00262F4C000009260013172600007FFF007FBFFF000052A500527CA500003F7F003F5F7F0000264C0026394C0000132600131C260000BFFF007FDFFF00007CA5005291A500005F7F003F6F7F0000394C0026424C00001C26001321260000FFFF007FFFFF0000A5A50052A5
310
A500007F7F003F7F7F00004C4C00264C4C00002626001326260000FFBF007FFFDF0000A57C0052A59100007F5F003F7F6F00004C3900264C420000261C001326210000FF7F007FFFBF0000A5520052A57C00007F3F003F7F5F00004C2600264C39000026130013261C0000FF3F007FFF9F0000A5290052A56700007F1F003F
310
7F4F00004C1300264C2F00002609001326170000FF00007FFF7F0000A5000052A55200007F00003F7F3F00004C0000264C260000260000132613003FFF00009FFF7F0029A5000067A552001F7F00004F7F3F00134C00002F4C260009260000172613007FFF0000BFFF7F0052A500007CA552003F7F00005F7F3F00264C0000
310
394C2600132600001C261300BFFF0000DFFF7F007CA5000091A552005F7F00006F7F3F00394C0000424C26001C26000021261300FFFF0000FFFF7F00A5A50000A5A552007F7F00007F7F3F004C4C00004C4C26002626000026261300FFBF0000FFDF7F00A57C0000A59152007F5F00007F6F3F004C3900004C422600261C00
310
0026211300FF7F0000FFBF7F00A5520000A57C52007F3F00007F5F3F004C2600004C39260026130000261C1300FF3F0000FF9F7F00A5290000A56752007F1F00007F4F3F004C1300004C2F26002609000026171300FF000000FF7F7F00A5000000A55252007F0000007F3F3F004C0000004C2626002600000026131300FF00
310
3F00FF7F9F00A5002900A55267007F001F007F3F4F004C0013004C262F002600090026131700FF007F00FF7FBF00A5005200A5527C007F003F007F3F5F004C0026004C2639002600130026131C00FF00BF00FF7FDF00A5007C00A55291007F005F007F3F6F004C0039004C26420026001C0026132100FF00FF00FF7FFF00A5
310
00A500A552A5007F007F007F3F7F004C004C004C264C002600260026132600BF00FF00DF7FFF007C00A5009152A5005F007F006F3F7F0039004C0042264C001C002600211326007F00FF00BF7FFF005200A5007C52A5003F007F005F3F7F0026004C0039264C00130026001C1326003F00FF009F7FFF002900A5006752A500
310
1F007F004F3F7F0013004C002F264C000900260017132600000000002D2D2D005B5B5B0089898900B7B7B700B3B3B30000000000000000000000000000000000000000000000000000000000000000000000000000000000000000000000000000000000000000000000000000000000000000000000000000000000000000
310
00000000000000000000000000000000000000000000000000000000000000000000000000000000000000000000000000000000000000000000000000000000000000000000000000000000000000000000000000000000000000000000000000000000000000000000000000000000000000000000000000000000000000
310
00000000000000000000000000000000000000000000000000000000000000000000000000000000000000000000000000000000000000000000000000000000000000000000000000000000000000000000000000000000000000000000000000000000000000000000000000000000000000000000000000000000000000
310
00000000000000000000000000000000000000000000000000000000000000000000000000000000000000000000000000000000000000000000000000000000000000000000000000000000000000000000000000000000000000000000000000000000000000000000000000000000000000000000000000000000000000
310
00000000000000000000000000000000000000000000000000000000000000000000000000000000000000000000000000000000000000000000000000000000000000000000000000000000000000000000000000000000000000000000000000000000000000000000000000000000000000000000000000000000000000
310
00000001010101010101010101010000000000000000000000000000000000000000000000000000000000000000000000000000000000000000000000000000000000000000000000000000000000000000000000000000000101010101010101010101010101010101010100000000000000000000000000000000000000
310
00000000000000000000000000000000000000000000000000000000000000000000000000000000000000000000000000000000000001010000000000000000000000010000000000000000000000000000000000000000000000000000000000000000000000000000000000000000000000000000000000000000000000
310
00000000000000000000000000000001000000000000000000000000000000000001000000000000000000000000000000000000000000000000000000000000000000000000000000000000000000000000000000000000000000000000000000000000000000000000000100000000000000000000000000010000000000
310
00000000000000000000000000000000000000000000000000000000000000000000000000000000000000000000000000000000000000000000000000000000000000000100000000000000000000000000000000000100000000000000000000000000000000000000000000000000000000000000000000000000000000
310
00000000000000000000000000000000000000000000000000000000000000000101000000000000000000000000000101000000000000000000000000000000000000000000000000000000000000000000000000000000000000000000000000000000000000000000000000000000000000000000000000010101010101
310
01010101010101010101010101000000000000000000000000000000000000000000000000000000000000000000000000000000000000000000000000000000000000000000000000000000000000000000010101010000000101010101010101000000010001010000000000000000000000000000000000000000000000
310
00000000000000000000000000000000000000000000000000000000000000000000000000000000000000000000000100000000000000010100000000000000000100000000000000000000000000000000000000000000000000000000000000000000000000000000000000000000000000000000000000000000000000
310
00000001010101010000000100000001000000000000010000000001000001010101010000000000000000000000000000000000000000000000000000000000000000000000000000000000000000000000000000000000000000000000000000000000010101010101010101010101010101010101010000000000000000
310
00000000000000000000000000000000000000000000000000000000000000000000000000000000000000000000000000000000000101010000000000010001000000000100000000000000010000000100010000000000010101000000000000000000000000000000000000000000000000000000000000000000000000
310
00000000000000000000000000000000000000000000000000000101010101010101010101010101010101010100000000000000000000000000000000000000000000000000000000000000000000000000000000000000000000000000000000000000000000000001000000000000000000010100000001000000000000
310
00000100000001010000000000000000000100000000000000000000000000000000000000000000000000000000000000000000000000000000000000000000000000000000000000000000000000010000000000000000000000000000000000010000000000000000000000000000000000000000000000000000000000
310
00000000000000000000000000000000000000000000000000000000000001000000000000000000000000000000010000000000000000010000000000000000000000000000000100000000000000000000000000000000000000000000000000000000000000000000000000000000000000000000000000000000000000
310
00000000000100000000000000000000000000000000000100000000000000000000000000000000000000000000000000000000000000000000000000000000000000000000000000000000000000000000010000000000000101000000000000000001000000000000000000010000000000000001010000000000000100
310
00000000000000000000000000000000000000000000000000000000000000000000000000000000000000000000000000000000000000000000010000000000000000000000000000000000010000000000000000000000000000000000000000000000000000000000000000000000000000000000000000000000000000
310
00000000000000010000000000010100000100000000000000010000000000000000000100000000000001000001010000000000010000000000000000000000000000000000000000000000000000000000000000000000000000000000000000000000000000000000000000000001000000000000000000000000000000
310
00000100000000000000000000000000000000000000000000000000000000000000000000000000000000000000000000000000000000000000000101000000000100000000000101000000010100000000000000000000000101000001010000000000010100000001010000000000000000000000000000000000000000
310
00000000000000000000000000000000000000000000000000000000000000000000000000010101010101010101010101010101010101010000000000000000000000000000000000000000000000000000000000000000000000000000000000000000000000000000000000000001000100000001000000000000000001
310
01010000000000000000000000000000000101000000000000000000010000000101000000000000000000000000000000000000000000000000000000000000000000000000000000000000000000000000000000000000000001000000000000000101000000000000000001000000000000000000000000000000000000
310
00000000000000000000000000000000000000000000000000000000000000000000000001000001000000010000000000000000000000000000000000000000000000000000000000000000000000000001000000010001000000000000000000000000000000000000000000000000000000000000000000000000000000
310
00000000000000000000000000000000010000000000000101010100000000000000010000000000000000000000000000000000000000000000000000000000000000000000000000000000000000000000000000010101010100000001000000010000000000000000000000000000000000000000000000000000000000
310
00000000000001000000010000000101010100000000000000000000000000000000000000000000000000000000000000000000000000000000000000000000000000000001010101010101010101010101010101010101000000000000000000000000000000000000000000000000000000000000000000000000000000
310
00000000000000000000010000000101010000010000000100000000000000000000000000000000000000000000000000000000000000000000000100000001000001010100000100000000000000000000000000000000000000000000000000000000000000000000000000000000000000000000000000000100000000
310
00000000000000000000000000010000000000000000000000000000000000000000000000000000000000000000000000000000000000000000000000000100000000000000010100010101010101010101010101010101010101010101010101010101010101010101010101010101010101000001010000000000000100
310
00000000000000000000000000000000000000000000000000000000000000000000000000000001010101010101010101000000000000000000000000000000000001010101010101010100000000000000000000000000000000000000000000000000000000000000000000000000000000010000000000000000000100
310
00000000000000000000000000000000000000000000000000000000000000000000000000000000000100000000000000000001000000000000000000000000000000000000000000000000000000000000000000000000000000000100000000000000000100000000000000000000000000000000000100000000000000
310
01000000000000000000000000000000000000000000000000000000000000000000000000000000010000000000000000000001000000000000000000000000000000000000000000000000000000000000000000000000000000000000000100000000000000000001000000000000000000000000000000000000000000
310
00000000000000000000000000000000000001000000000000000001000000000000000000000000000000000001000000000000000100000000000000000000000000000000000000000000000000000000000000000000000000000001000000000101010000000100000000000000000000000000000000000000000000
310
00000000000000000000000000000000000000000001000000010101000000000100000000000000000000000000000000000000000000000000000000000000000000000000000100000000000000000100000000000000000000000000000000000100000000000000010000000000000000000000000000000000000000
310
00000000000000000000000000000000000001000000000100000001010101000000000000000000000000000000000000000000000000000000000000000000000000000000000000000101010100000100000000010000000000000000000000000000000000000000000000000000000000000000000000000000010000
310
00000000000001000000000000000000000000000000000001000000000000000100000000000000000000000000000000000000000000000000000000000000000000000000000100000001000000000000000100000000000000000000000000000000000000000000000000000000000000000000000000000000000000
310
01000000000000010000000001000000000000000000000000000000000000000000000000000000000000000000000000000100000000000000000100000000000000000000000000000000000100000000000000010000000000000000000000000000000000000000000000000000000000000000000000000001000000
310
01000000000000000001000000000000000000000000000000000000000000000000000000000000000000000000000000000000000100000000000000010000000100000000000000000000000000000000000000000000000000000000000000000000000000010000000000000000010000000000000000000000000000
310
00000001000000000000000100000000000000000000000000000000000000000000000000000000000000000000000000010000000100000000000000000100000000000000000000000000000000000000000000000000000000000000000000000000000000000000010000000000000001000000000100000000000000
310
00000000000000000000000000000000000000000000000000000000000100000000000000000100000000000000000000000000000000000100000000000000010000000000000000000000000000000000000000000000000000000000000000000000000100000001000000000000000000010000000000000000000000
310
00000000000000000000000000000000000000000000000000000000000000000100000000000000000100000001000000000000000000000000000000000000000000000000000000000000000000000000010000000000000000010000000000000000000000000000000000010000000000000001000000000000000000
310
00000000000000000000000000000000000000000000000000000001000000000100000000000000000100000000000000000000000000000000000000000000000000000000000000000000000000000000000000010000000000000001000000000001000000000000000000000000000000000000000000000000000000
310
00000000000000000100000000000000000100000000000000000000000000000000000100000000000000010000000000000000000000000000000000000000000000000000000000000000000000000100000000000100000000000000010000000000000000000000000000000000000000000000000000000000000000
310
00000000000000000000000100000000000001000000000001000000000000000000000000000000000000000000000000000000000000000000000000010000000000000000010000000000000000000000000000000000010000000000000001000000000000000000000000000000000000000000000000000000000000
310
00000000000000010100000001000000000000000100000000000000000000000000000000000000010101000000000000000000000000000000000000000000010000000000000100000000010100000000000000000000000000000000000000000000000000000000000000000000000001000000000000000001010101
310
01010101010101010101010101010100000000000000010000000000000000000000000000000000000000000000000000000000000000000000000000010000000001000000000000010000000000000000000000000000000000010100000001010101000000000000000000000000000000000001000000000001000000
310
00000100000000000000000000000000000000000000000000000000000000000000000000000000010000000000000000010000000000000001010000000000000000010000000000000001000000000000000000000000000000000000000000000000000000000000000000000000000100010000000001000000000001
310
00000000000000000000000000000001010000000000000000000100000000000000000000000000000000010000000001000000000101010000000000000000000000000000000000000000000000000000000000000000000000000001000000000000000001000000000000010101010000000000000001000000000000
310
00010000000000000000000000000000000000000000000000000000000000000000000000000001000001000000010000000000010000000000000000000000000001010000000000000000000000000101000000000000000000000000000001000000000100000001000000010000000000000000000000000000000000
310
00000000000000000000000000000000000000010000000000000000010101010101010101010101010101010101010000000000000001000000000000000000000000000000000000000000000000000000000000000000000000010000010100000000010000000001000000000000000000000000010000000000000000
310
00000000000000000100000000000000000000000000010000000001000000010100000100000000000000000000000000000000000000000000000000000000000000000000000001000000000000000001010101010101010101010101010101010101000000000000000100000000000000000000000000000000000000
310
00000000000000000000000000000000000101010000000000000100000000010000000000000000000000000100000000000000000000000000000000000100000000000000000000000001000000000100000000000101010000000000000000000000000000000000000000000000000000000000000000000000000100
310
00000000000000010101010101010101010101010101010101010000000000000001000000000000000000000000000000000000000000000000000000000000000000000000010000000000000001000000000001000000000000000000000001000000000000000000000000000000000000010000000000000000000000
310
00010000000000010000000000000101000000000000000000000000000000000000000000000000000000000000000000000001000000000000000001000000000000000000000000000000000001000000000000000100000000000000000000000000000000000000000000000000000000000000000000000001000000
310
00000001000000000000010000000000000000000000010000000000000000000000000000000000000001000000000000000000000001000000000001000000000000000100000000000000000000000000000000000000000000000000000000000000000000000100000000000000000100000000000000000000000000
310
00000000010000000000000001000000000000000000000000000000000000000000000000000000000000000000000000010000010101010000000000000001000000000000000000000100000000000000000000000000000000000000000100000000000000000000000100000000000001010101000000010000000000
310
00000000000000000000000000000000000000000000000000000000000001000000000000000001000000000000000000000000000000000001000000000000000100000000000000000000000000000000000000000000000000000000000000000000000100000001000000000000000000000100000000000000010101
310
01000000000000000000000000000000000000000001000000000000000000000001000000000000000000010000000001000000000000000000000000000000000000000000000000000000000000000000000100000000000000000100000000000000000000000000000000000100000000000000010000000000000000
310
00000000000000000000000000000000000000000000000000000001000000010000000000000000000001000000000000000100000000000000000000000000000000000000000000000001000000000000000000000100000000000000000000010000000100000000000000000000000000000000000000000000000000
310
00000000000000000001000000000000000001000000000000000000000000000000000001000000000000000100000000000000000000000000000000000000000000000000000000000000000000000100000001000000000000000000000100000000000000010000000000000000000000000000000000000000000000
310
00010000000000000000000001000000000000000000000100000001000000000000000000000000000000000000000000000000000000000000000000000100000000000000000100000000000000000000000000000000000100000000000000010000000000000000000000000000000000000000000000000000000000
310
00000000000001000000010000000000000000000001000000000000000100000000000000000000000000000000000000000000000001000000000000000000000100000000000000000000010000000100000000000000000000000000000000000000000000000000000000000000000000010000000000000000000000
310
00000000000000000000000000000000000000000000000100000000000000000000000000000000000000000000000000000000000000000000000100000001000000000000000000000100000000000000010000000000000000000000000000000000000000000000010000000000000000000000010000000000000000
310
00010000000001000000000000000000000000000000000000000000000000000000000000000000000100000000000000000000000000000000000000000000000000000000000000000000010000000000000000000000000000000000000000000000000000000000000000000000010000000100000000000000000000
310
01000000000000000101010100000000000000000000000000000000000000000100000000000000000000000100000000000000000001000000010000000000000000000000000000000000000000000000000000000000000000000000010000000000000000000000000000000000000000000000000000000000000000
310
00000100000000000000000000000000000000000000000000000000000000000000000000000001000001010101000000000000000100000000000000000000010000000000000000000000000000000000000000010000000000000000000000010000000000000101010100000001000000000000000000000000000000
310
00000000000000000000000000000000000000000100000000000000000000000000000000000000000000000000000000000000000000010000000000000000000000000000000000000000000000000000000000000000000000000100000000000001000000000000010000000000000000000000010000000000000000
310
00000000000000000000000100000000000000000000000100000000000100000000000000010000000000000000000000000000000000000000000000000000000000000000000000010000000000000000000000000000000000000000000000000000000000000000000001000000000000000000000000000000000000
310
00000000000000000000000000000000000001000000000000000100000000000100000000000000000000000100000000000000000000000000000000000001000000000000000000000000010000000000010000000000000001000000000000000000000000000000000000000000000000000000000000000000000001
310
00000000000000000000000000000000000000000000000000000000000000000000010000000000000000000000000000000000000000000000000000000000000000000000000101010000000000000100000000010000000000000000000000000100000000000000000000000000000000000100000000000000000000
310
00000100000000010000000000010101000000000000000000000000000000000000000000000000000000000000000000000000010000000000000000000000000000000000000000000000000000000000000000000001000000000000000000000000000000000000000000000000000000000000000000000000010000
310
01010000000001000000000100000000000000000000000001000000000000000000000000000000000100000000000000000000000000010000000001000000010100000100000000000000000000000000000000000000000000000000000000000000000000000001000000000000000000000000000000000000000000
310
00000000000000000000000000010000000000000000000000000000000000000000000000000000000000000000000000000001000001000000010000000000010000000000000000000000000001000000000000000000000000000101000000000000000000000000000001000000000100000001000000010000000000
310
00000000000000000000000000000000000000000000000000000000000000010000000000000000000000000000000000000000000000000000000000000000000001000000000000000000000000000000000000000000000000000000000000000000000000000100010000000001000000000001000000000000000000
310
00000000000101000000000000000000000100000000000000000000000000000000010000000001000000000100010000000000000000000000000000000000000000000000000000000000000000000000000001000000000000000000000000000000000000000000000000000000000000000000000100000000000000
310
00000000000000000000000000000000000000000000000000000000000000010000000001000000000000010000000000000000000000000000000001010000000000010101000000000000000000000000000000000001000000000001000000000101000000000000000000000000000000000000000000000000000000
310
00000000000000000000010000000000000000000000000000000000000000000000000000000000000000000001000000000000000000000000000000000000000000000000000000000000000000000000000101000000010000000000000001000000000000000000000000000000000000010101010100000000000000
310
00000000000000000000000000010000000000000100000000010100000000000000000000000000000000000000000000000000000000000000000000000001010101010101010101010101010101010101010101010101010101010101010101010100000000000000000000000000000000000000000000000000000000
310
00000000000000000100000000000100000000000000010000000000000000000000000000000000000000000000000000000000000000000000000000000000000001000000000000010000000000010000000000000000000000000000000000000000000000000000000000000000000000000101010101010001000101
310
01010101000101010001010101010101010101000101010101000000000000000000000000000000000000000000000000000000000000000000000000010000000001000000000000000001000000000000000000000000000000000000000000000000000000000000000000000000000000000000000100000000000000
310
01000000000001000000000000000000000000000000000000000000000000000000000000000000000001010100010001000101010101010101000101010101010101010101010001000101000100000000000000000000000000000000000000000000000000000000000000000000000001000000010000000000000000
310
00010000000000000000000000000000000000000000000000000000000000000000000000000000000000000001000000000000000001000000010000000000000000000000000000000000000000000000000000000000000000000000000101010100010001010001010101010101010100010101010101010100010001
310
00010101000000000000000000000000000000000000000000000000000000000000000000000000000100000001000000000000000001000000000000000000000000000000000000000000000000000000000000000000000000000000000000000100000000000000010000000001000000000000000000000000000000
310
00000000000000000000000000000000000000000001000101010001010001000101010101010101010001010101010101010001000101010100000000000000000000000000000000000000000000000000000000000000000000000000010000000100000000000000000100000000000000000000000000000000000000
310
00000000000000000000000000000000000000000000000001000000000000000100000001000000000000000000000000000000000000000000000000000000000000000000000000000101000101010101010001000101010101010101010001010101010101010001010001010000000000000000000000000000000000
310
00000000000000000000000000000000000000000001000000010000000000000001000000000000000000000000000000000000000000000000000000000000000000000000000000000000000100000000000001000000000100000000000000000000000000000000000000000000000000000000000000000000000000
310
01000100010101010101000100010101010101010101010001010101010101010001000100000000000000000000000000000000000000000000000000000000000000000000000000000100000000010000000001010100000000000000000000000000000000000000000000000000000000000000000000000000000000
310
00000001010100000001000000000100000000000000000000000000000000000000000000000000000000000000000000000000000101000101010101010101000101010101010101010100010001010101010100010001010000000000000000000000000000000000000000000000000000000000000000000000000000
310
00010000000001010101000001000000000000000000000000000000000000000000000000000000000000000000000000000000000000000100000101010100000000010000000000000000000000000000000000000000000000000000000000000000000000000000010001010001010101010101010001010101010101
310
01010001000101010101010001010100000000000000000000000000000000000000000000000000000000000000000000000000000001000000000000000000000100000000000000000000000000000000000000000000000000000000000000000000000000000000000000010000000000000000000100000000000000
310
00000000000000000000000000000000000000000000000000000000000000000101010001000101010101010101000101010101010101010001010101000101010001010000000000000000000000000000000000000000000000000000000000000000000000000000000001000000000000000000010000000000000000
310
00000000000000000000000000000000000000000000000000000000000000000000010000000000000000000100000000000000000000000000000000000000000000000000000000000000000000000000000000010101010001010001010101010101000101010101010101010101010101000101010101000000000000
310
00000000000000000000000000000000000000000000000000000000000000000000010000000000000001010001010101010101010101010101010101010101010101010101010101010101010101010101010101010100000101000000000000010000000000000000000000000000000000000000000000000000000000
310
00000000000000000000000101010101010101010101010101010100010001010101010101010101010101010101010000000000000000000000000000000000000000000000000000000000000000000000000000000000010000000101010000010000000100000000000000000000000000000000000000000000000000
310
00000000000000000000010000000100000101010000010000000000000000000000000000000000000000000000000000000000000000000000000000000000000000000000000000010000000000010100010001000000000000010000000000000000000000000000000000000000000000000000000000000000000000
310
00000000000000000000000000000001010101010000000100000001000000000000000000000000000000000000000000000000000000000000000000000001000000010000000101010100000000000000000000000000000000000000000000000000000000000000000000000000000000000000000000000000000001
310
00000000000101010001010000000000000100000000000000000000000000000000000000000000000000000000000000000000000000000000000000000000000000000000000001000001000000010000000000000000000000000000000000000000000000000000000000000000000000000001000000010001000000
310
00000000000000000000000000000000000000000000000000000000000000000000000000000000000000000000000000000000010000000000010100010001000000000000010000000000000000000000000000000000000000000000000000000000000000000000000000000000000000000000000000000000000001
310
00010000000100000000000000000001010000000000000000000000000000000101000000000000000000010000000101000000000000000000000000000000000000000000000000000000000000000000000000000000000000000000000000000000000000000001000000000001010100010100000000000001000000
310
00000000000000000000000000000000000000000000000000000000000000000000000000000000000000000000000000000000000101000000000100000000000101010000010100000000000000000000000101000001010000000000010100000001010000000000000000000000000000000000000000000000000000
310
00000000000000000000000000000000000000000000000000000000000000010000000000010101010101000000000000010000000000000000000000000000000000000000000000000000000000000000000000000000000000000000000000000000000000000000000100000000000101000001000000000000000100
310
00000000000000000100000000000001000001010000000000010000000000000000000000000000000000000000000000000000000000000000000000000000000000000000000000000000000000000000000001000000000001010101010100000000000001000000000000000000000000000000000000000000000000
310
00000000000000000000000000000000000000000000000000000000000000000000010000000000000101000000000000000001000000000000000000010000000000000001010000000000000100000000000000000000000000000000000000000000000000000000000000000000000000000000000000000000000000
310
00000000000000000000010000000000010001010101000000000000010000000000000000000000000000000000000000000000000000000000000000000000000000000000000000000000000000000000000000000000010000000000000000000000000000000100000000000000000100000000000000000000000000
310
00000100000000000000000000000000000000000000000000000000000000000000000000000000000000000000000000000000000000000000000000000001000000000001010001010100000000000001000000000000000000000000000000000000000000000000000000000000000000000000000000000000000000
310
00000000000000000000000000000001000000000000000000010100000001000000000000000001000000010100000000000000000001000000000000000000000000000000000000000000000000000000000000000000000000000000000000000000000000000000000000000000000000000100000000000101010001
310
01000000000000010000000000000000000000000000000000000000000000000000000000000000000000000000000000000000000000000000000000000000000000000001010100000000000100010000000001000000000000000100000001000100000000000101010000000000000000000000000000000000000000
310
00000000000000000000000000000000000000000000000000000000000000000000000000000000000001000000000001010101000100000000000001000000000000000000000000000000000000000000000000000000000000000000000000000000000000000000000000000000000000000000000000000000000101
310
01010100000001000000010000000000000100000000010000010101010100000000000000000000000000000000000000000000000000000000000000000000000000000000000000000000000000000000000000000000000000000000000100000000000101010001010000000000000100000000000000000000000000
310
00000000000000000000000000000000000000000000000000000000000000000000000000000000000000000000000000000000000000000101010100000001010101010101010000000100010100000000000000000000000000000000000000000000000000000000000000000000000000000000000000000000000000
310
00000000000000000000000000000000000000000001010101010101010001000101010101010101000000000000000000000000000000000000000000000000000000000000000000000000000000000000000000000000000000000000000000000000000000000000000000000000010100000000000000000000000000
310
01010000000000000000000000000000000000000000000000000000000000000000000000000000000000000000000000000000000000000000000000000000000000000000000000000101010101010101010001000101010101010100000000000000000000000000000000000000000000000000000000000000000000
310
00000000000000000000000000000000000000000000000000000000000000000000000000000001000000000000000000000000000100000000000000000000000000000000000000000000000000000000000000000000000000000000000000000000000000000000000000000000000000000000000000000000000000
310
01010001010100010001010101000101010001000000000000000000000000000000000000000000000000000000000000000000000000000000000000000000000000000000000000000000000000000000000000000000000000000100000000000000000000000001000000000000000000000000000000000000000000
310
00000000000000000000000000000000000000000000000000000000000000000000000000000000000000000000000000000000000101010001010101010101010101000101010100000000000000000000000000000000000000000000000000000000000000000000000000000000000000000000000000000000000000
310
00000000000000000000000000000000000000010101010101010101010101000000000000000000000000000000000000000000000000000000000000000000000000000000000000000000000000000000000000000000000000000000000000000000000000000000010101010101010101010101010101010101010000
310
00000000000000000000000000000000000000000000000000000000000000000000000000000000000000000000000000000000000000000000000000000000000000000000000000000000000000000000000000000000000000000000000000000000000000000000000000000000000000000000000000000000000000
310
00000000000000000000000000000000000000000000000000000000000000000000000000000000000000000000000000000000000000000000000000000000000000000000000000000000000000000000000000000000000000000000000000000000000000000000000000000000000000000000000000000000000000
310
00000000000000000000000000000000000000000000000000000000000000000000000000000000000000000000000000000000000000000000000000000000000000000000000000000000000000000000000000000000000000000000000000000000000000000000000000000000000000000000000000000000000000
310
00000000000000000000000000000000000000000000000000000000000000000000000000000000000000000000000000000000000000000000000000000000000000000000000000000000000000000000000000000000000000000000000000000000000000000000000000000000000000000000000000000000000000
310
00000000000000000000000000000000000000000000000000000000000000000000000000000000000000000000000000000000000000000000000000000000000000000000000000000000000000000000000000000000000000000000000000000000000000000000000000000000000000000000000000000000000000
310
000000000000000000000000000000000000000000000000000000000000000000000000000000000000000000000000000000000000000000000000000000000000000000000000000000000000000000000000000000000000000000000000000000000000000000000000
  0
ENDSEC
  0
EOF
