999
DXF file: s1_z6_rd_15_in.dxf
999
Pro/ENGINEER 2008490 by Parametric Technology Corporation
  0
SECTION
  2
HEADER
  9
$ACADVER
  1
AC1021
  9
$DWGCODEPAGE
  3
ANSI_1252
  9
$EXTMAX
 10
297.0
 20
210.0
 30
0.0
  9
$EXTMIN
 10
0.0
 20
0.0
 30
0.0
  9
$LIMMIN
 10
0.0
 20
0.0
  9
$LIMMAX
 10
297.0
 20
210.0
  9
$VIEWCTR
 10
148.5
 20
105.0
  9
$VIEWSIZE
 40
210.0
  9
$CLAYER
  8
0
  9
$LTSCALE
 40
16.335
  9
$CELTYPE
  6
BYLAYER
  9
$DIMSCALE
 40
1.0
  9
$DIMASZ
 40
3.5
  9
$DIMEXO
 40
1.85625
  9
$DIMDLI
 40
11.286
  9
$DIMEXE
 40
5.346
  9
$DIMCEN
 40
2.673
  9
$DIMLFAC
 40
1.0
  9
$DIMBLK
  1
_FILLED
  9
$DIMTXT
 40
3.5
  9
$DIMTOL
 70
1
  9
$DIMLIM
 70
0
  9
$DIMTFAC
 40
1.0
  9
$DIMTP
 40
0.005
  9
$DIMTM
 40
0.005
  9
$PDMODE
 70
3
  9
$PDSIZE
 40
0.3125
  9
$HANDSEED
  5
31B
  9
$TILEMODE
 70
1
  9
$MEASUREMENT
 70
1
  9
$INSUNITS
 70
4
  0
ENDSEC
  0
SECTION
  2
CLASSES
  0
CLASS
  1
ACDBDICTIONARYWDFLT
  2
AcDbDictionaryWithDefault
  3
AutoCAD 2000
 90
0
 91
1
280
0
281
0
  0
CLASS
  1
ACDBPLACEHOLDER
  2
AcDbPlaceHolder
  3
AutoCAD 2000
 90
0
 91
1
280
0
281
0
  0
CLASS
  1
LAYOUT
  2
AcDbLayout
  3
AutoCAD 2000
 90
0
 91
0
280
0
281
0
  0
ENDSEC
  0
SECTION
  2
TABLES
  0
TABLE
  2
VPORT
  5
8
100
AcDbSymbolTable
 70
2
  0
VPORT
  5
1F4
100
AcDbSymbolTableRecord
100
AcDbViewportTableRecord
  2
*ACTIVE
 70
0
 10
0.0
 20
0.0
 11
1.0
 21
1.0
 12
148.5
 22
105.0
 13
0.0
 23
0.0
 14
1.0
 24
1.0
 15
0.0
 25
0.0
 16
0.0
 26
0.0
 36
1.0
 17
0.0
 27
0.0
 37
0.0
 40
210.0
 41
1.4142857143
 42
50.0
 43
0.0
 44
0.0
 50
0.0
 51
0.0
 71
0
 72
100
 73
1
 74
1
 75
0
 76
0
 77
0
 78
0
  0
ENDTAB
  0
TABLE
  2
LTYPE
  5
5
100
AcDbSymbolTable
 70
6
  0
LTYPE
  5
14
100
AcDbSymbolTableRecord
100
AcDbLinetypeTableRecord
  2
BYBLOCK
 70
0
  3

 72
65
 73
0
 40
0.0
  0
LTYPE
  5
15
100
AcDbSymbolTableRecord
100
AcDbLinetypeTableRecord
  2
BYLAYER
 70
0
  3

 72
65
 73
0
 40
0.0
  0
LTYPE
  5
16
100
AcDbSymbolTableRecord
100
AcDbLinetypeTableRecord
  2
CONTINUOUS
 70
64
  3
Solid line
 72
65
 73
0
 40
0.0
  0
LTYPE
  5
1F5
100
AcDbSymbolTableRecord
100
AcDbLinetypeTableRecord
  2
CENTER
 70
64
  3
____ _ ____ _ ____ _ ____ _ ____ _ ____ _ ____
 72
65
 73
4
 40
0.6
 49
0.375
 74
0
 49
-0.075
 74
0
 49
0.075
 74
0
 49
-0.075
 74
0
  0
LTYPE
  5
1F6
100
AcDbSymbolTableRecord
100
AcDbLinetypeTableRecord
  2
HIDDEN
 70
64
  3
- - - - - - - - - - - - - - - - - - - -
 72
65
 73
2
 40
0.2
 49
0.1
 74
0
 49
-0.1
 74
0
  0
LTYPE
  5
1F7
100
AcDbSymbolTableRecord
100
AcDbLinetypeTableRecord
  2
PHANTOM
 70
64
  3
_____ _ _ _____ _ _ _____ _ _ _____
 72
65
 73
6
 40
0.8
 49
0.45
 74
0
 49
-0.05
 74
0
 49
0.1
 74
0
 49
-0.05
 74
0
 49
0.1
 74
0
 49
-0.05
 74
0
  0
LTYPE
  5
1F8
100
AcDbSymbolTableRecord
100
AcDbLinetypeTableRecord
  2
DOT
 70
64
  3
. . . . . . . . . . . . . . . . . . . .
 72
65
 73
2
 40
0.2
 49
0.1
 74
0
 49
-0.1
 74
0
  0
LTYPE
  5
1F9
100
AcDbSymbolTableRecord
100
AcDbLinetypeTableRecord
  2
DASHED
 70
64
  3
- - - - - - - - - - - - - - - - - - - -
 72
65
 73
2
 40
0.2
 49
0.1
 74
0
 49
-0.1
 74
0
  0
ENDTAB
  0
TABLE
  2
LAYER
  5
2
100
AcDbSymbolTable
 70
36
  0
LAYER
  5
10
100
AcDbSymbolTableRecord
100
AcDbLayerTableRecord
  2
0
 70
0
 62
7
  6
CONTINUOUS
370
-3
390
F
  0
LAYER
  5
1FA
100
AcDbSymbolTableRecord
100
AcDbLayerTableRecord
  2
DEFAULT_1
 70
0
 62
7
  6
CENTER
370
-3
390
F
  0
LAYER
  5
1FB
100
AcDbSymbolTableRecord
100
AcDbLayerTableRecord
  2
DEFAULT_2
 70
0
 62
8
  6
HIDDEN
370
-3
390
F
  0
LAYER
  5
1FC
100
AcDbSymbolTableRecord
100
AcDbLayerTableRecord
  2
DEFAULT_3
 70
0
 62
7
  6
PHANTOM
370
-3
390
F
  0
LAYER
  5
1FD
100
AcDbSymbolTableRecord
100
AcDbLayerTableRecord
  2
01___PRT_ALL_DTM_PLN
 70
0
 62
7
  6
CONTINUOUS
370
-3
390
F
  0
LAYER
  5
1FE
100
AcDbSymbolTableRecord
100
AcDbLayerTableRecord
  2
01___PRT_DEF_DTM_PLN
 70
0
 62
7
  6
CONTINUOUS
370
-3
390
F
  0
LAYER
  5
1FF
100
AcDbSymbolTableRecord
100
AcDbLayerTableRecord
  2
02___PRT_ALL_AXES
 70
0
 62
7
  6
CONTINUOUS
370
-3
390
F
  0
LAYER
  5
200
100
AcDbSymbolTableRecord
100
AcDbLayerTableRecord
  2
03___PRT_ALL_CURVES
 70
0
 62
7
  6
CONTINUOUS
370
-3
390
F
  0
LAYER
  5
201
100
AcDbSymbolTableRecord
100
AcDbLayerTableRecord
  2
04___PRT_ALL_DTM_PNT
 70
0
 62
7
  6
CONTINUOUS
370
-3
390
F
  0
LAYER
  5
202
100
AcDbSymbolTableRecord
100
AcDbLayerTableRecord
  2
05___PRT_ALL_DTM_CSYS
 70
0
 62
7
  6
CONTINUOUS
370
-3
390
F
  0
LAYER
  5
203
100
AcDbSymbolTableRecord
100
AcDbLayerTableRecord
  2
05___PRT_DEF_DTM_CSYS
 70
0
 62
7
  6
CONTINUOUS
370
-3
390
F
  0
LAYER
  5
204
100
AcDbSymbolTableRecord
100
AcDbLayerTableRecord
  2
06___PRT_ALL_SURFS
 70
0
 62
7
  6
CONTINUOUS
370
-3
390
F
  0
LAYER
  5
205
100
AcDbSymbolTableRecord
100
AcDbLayerTableRecord
  2
BEZUGSACHSEN
 70
0
 62
7
  6
CONTINUOUS
370
-3
390
F
  0
LAYER
  5
206
100
AcDbSymbolTableRecord
100
AcDbLayerTableRecord
  2
BEZUGSEBENE
 70
0
 62
7
  6
CONTINUOUS
370
-3
390
F
  0
LAYER
  5
207
100
AcDbSymbolTableRecord
100
AcDbLayerTableRecord
  2
BEZUGSEBENEN
 70
0
 62
7
  6
CONTINUOUS
370
-3
390
F
  0
LAYER
  5
208
100
AcDbSymbolTableRecord
100
AcDbLayerTableRecord
  2
BEZUGSEBENEN-KES
 70
0
 62
7
  6
CONTINUOUS
370
-3
390
F
  0
LAYER
  5
209
100
AcDbSymbolTableRecord
100
AcDbLayerTableRecord
  2
KURVEN
 70
0
 62
7
  6
CONTINUOUS
370
-3
390
F
  0
LAYER
  5
20A
100
AcDbSymbolTableRecord
100
AcDbLayerTableRecord
  2
RUNDUNGEN
 70
0
 62
7
  6
CONTINUOUS
370
-3
390
F
  0
LAYER
  5
20B
100
AcDbSymbolTableRecord
100
AcDbLayerTableRecord
  2
XSEC_DATUMS
 70
0
 62
7
  6
CONTINUOUS
370
-3
390
F
  0
LAYER
  5
20C
100
AcDbSymbolTableRecord
100
AcDbLayerTableRecord
  2
ZEICHNUNGSBEMASSUNGEN
 70
0
 62
7
  6
CONTINUOUS
370
-3
390
F
  0
LAYER
  5
20D
100
AcDbSymbolTableRecord
100
AcDbLayerTableRecord
  2
ZEICHNUNGSNOTIZEN
 70
0
 62
7
  6
CONTINUOUS
370
-3
390
F
  0
ENDTAB
  0
TABLE
  2
STYLE
  5
3
100
AcDbSymbolTable
 70
1
  0
STYLE
  5
11
100
AcDbSymbolTableRecord
100
AcDbTextStyleTableRecord
  2
STANDARD
 70
0
 40
0.0
 41
0.7
 50
0.0
 71
0
 42
0.2
  3
txt
  4

  0
STYLE
  5
20E
100
AcDbSymbolTableRecord
100
AcDbTextStyleTableRecord
  2
TEXTSTYLE_1
 70
0
 40
0.0
 41
0.8
 50
0.0
 71
0
 42
0.2
  3
gdt
  4

  0
ENDTAB
  0
TABLE
  2
VIEW
  5
6
100
AcDbSymbolTable
 70
0
  0
ENDTAB
  0
TABLE
  2
UCS
  5
7
100
AcDbSymbolTable
 70
0
  0
ENDTAB
  0
TABLE
  2
APPID
  5
9
100
AcDbSymbolTable
 70
1
  0
APPID
  5
20F
100
AcDbSymbolTableRecord
100
AcDbRegAppTableRecord
  2
ACAD
 70
0
  0
ENDTAB
  0
TABLE
  2
BLOCK_RECORD
  5
1
100
AcDbSymbolTable
 70
0
  0
BLOCK_RECORD
  5
210
100
AcDbSymbolTableRecord
100
AcDbBlockTableRecord
  2
*Model_Space
  0
BLOCK_RECORD
  5
211
100
AcDbSymbolTableRecord
100
AcDbBlockTableRecord
  2
*Paper_Space
  0
ENDTAB
  0
TABLE
  2
DIMSTYLE
  5
A
100
AcDbSymbolTable
 70
1
100
AcDbDimStyleTable
 71
0
  0
DIMSTYLE
105
212
100
AcDbSymbolTableRecord
100
AcDbDimStyleTableRecord
  2
STANDARD
 70
0
  3

  4

 40
1.0
 41
3.5
 42
0.0625
 43
0.38
 44
0.18
 45
0.0
 46
0.0
 47
0.005
 48
0.005
140
3.5
141
0.09
142
0.0
143
25.4
144
1.0
145
0.0
146
1.0
147
0.09
 71
1.0
 72
0.0
 73
0
 74
0
 75
0
 76
0
 77
1
 78
8
170
0
171
2
172
0
173
0
174
0
175
0
176
0
177
0
178
5
270
2
271
3
272
3
273
2
274
2
275
0
280
0
281
0
282
0
283
1
284
8
285
0
286
0
287
3
288
0
340
11
  0
ENDTAB
  0
ENDSEC
  0
SECTION
  2
BLOCKS
  0
BLOCK
  5
20
100
AcDbEntity
  8
0
100
AcDbBlockBegin
  2
*Model_Space
 70
0
 10
0.0
 20
0.0
 30
0.0
  3
*Model_Space
  1

  0
ENDBLK
  5
21
100
AcDbEntity
  8
0
100
AcDbBlockEnd
  0
BLOCK
  5
1C
100
AcDbEntity
  8
0
100
AcDbBlockBegin
  2
*Paper_Space
 70
0
 10
0.0
 20
0.0
 30
0.0
  3
*Paper_Space
  1

  0
ENDBLK
  5
1D
100
AcDbEntity
  8
0
100
AcDbBlockEnd
  0
ENDSEC
  0
SECTION
  2
ENTITIES
  0
LINE
  5
213
100
AcDbEntity
  8
0
100
AcDbLine
 62
7
  6
CONTINUOUS
 10
209.6417043911
 20
147.8990645763
 11
229.6417043911
 21
147.8990645763
  0
LINE
  5
214
100
AcDbEntity
  8
0
100
AcDbLine
 62
7
  6
CONTINUOUS
 10
229.6417043911
 20
147.8990645763
 11
229.6417043911
 21
142.8990645763
  0
LINE
  5
215
100
AcDbEntity
  8
0
100
AcDbLine
 62
7
  6
CONTINUOUS
 10
229.6417043911
 20
142.8990645763
 11
222.1417043911
 21
142.8990645763
  0
LINE
  5
216
100
AcDbEntity
  8
0
100
AcDbLine
 62
7
  6
CONTINUOUS
 10
222.1417043911
 20
142.8990645763
 11
222.1417043911
 21
131.0777893352
  0
LINE
  5
217
100
AcDbEntity
  8
0
100
AcDbLine
 62
7
  6
CONTINUOUS
 10
222.1417043911
 20
131.0777893352
 11
239.6417043911
 21
131.0777893352
  0
LINE
  5
218
100
AcDbEntity
  8
0
100
AcDbLine
 62
7
  6
CONTINUOUS
 10
239.6417043911
 20
131.0777893352
 11
239.6417043911
 21
121.8777893352
  0
LINE
  5
219
100
AcDbEntity
  8
0
100
AcDbLine
 62
7
  6
CONTINUOUS
 10
239.6417043911
 20
121.8777893352
 11
199.6417043911
 21
121.8777893352
  0
LINE
  5
21A
100
AcDbEntity
  8
0
100
AcDbLine
 62
7
  6
CONTINUOUS
 10
199.6417043911
 20
121.8777893352
 11
199.6417043911
 21
131.0777893352
  0
LINE
  5
21B
100
AcDbEntity
  8
0
100
AcDbLine
 62
7
  6
CONTINUOUS
 10
199.6417043911
 20
131.0777893352
 11
217.1417043911
 21
131.0777893352
  0
LINE
  5
21C
100
AcDbEntity
  8
0
100
AcDbLine
 62
7
  6
CONTINUOUS
 10
217.1417043911
 20
131.0777893352
 11
217.1417043911
 21
142.8990645763
  0
LINE
  5
21D
100
AcDbEntity
  8
0
100
AcDbLine
 62
7
  6
CONTINUOUS
 10
217.1417043911
 20
142.8990645763
 11
209.6417043911
 21
142.8990645763
  0
LINE
  5
21E
100
AcDbEntity
  8
0
100
AcDbLine
 62
7
  6
CONTINUOUS
 10
209.6417043911
 20
142.8990645763
 11
209.6417043911
 21
147.8990645763
  0
HATCH
  5
21F
100
AcDbEntity
  8
0
100
AcDbHatch
 62
2
  6
CONTINUOUS
 10
0.0
 20
0.0
 30
0.0
210
0.0
220
0.0
230
1.0
  2
B
 70
0
 71
1
 91
1
 92
1
 93
12
 72
1
 10
209.6417043911
 20
147.8990645763
 11
229.6417043911
 21
147.8990645763
 72
1
 10
229.6417043911
 20
147.8990645763
 11
229.6417043911
 21
142.8990645763
 72
1
 10
229.6417043911
 20
142.8990645763
 11
222.1417043911
 21
142.8990645763
 72
1
 10
222.1417043911
 20
142.8990645763
 11
222.1417043911
 21
131.0777893352
 72
1
 10
222.1417043911
 20
131.0777893352
 11
239.6417043911
 21
131.0777893352
 72
1
 10
239.6417043911
 20
131.0777893352
 11
239.6417043911
 21
121.8777893352
 72
1
 10
239.6417043911
 20
121.8777893352
 11
199.6417043911
 21
121.8777893352
 72
1
 10
199.6417043911
 20
121.8777893352
 11
199.6417043911
 21
131.0777893352
 72
1
 10
199.6417043911
 20
131.0777893352
 11
217.1417043911
 21
131.0777893352
 72
1
 10
217.1417043911
 20
131.0777893352
 11
217.1417043911
 21
142.8990645763
 72
1
 10
217.1417043911
 20
142.8990645763
 11
209.6417043911
 21
142.8990645763
 72
1
 10
209.6417043911
 20
142.8990645763
 11
209.6417043911
 21
147.8990645763
 97
12
330
213
330
214
330
215
330
216
330
217
330
218
330
219
330
21A
330
21B
330
21C
330
21D
330
21E
 75
0
 76
0
 52
45.0
 41
7.1100094208
 77
0
 78
1
 53
45.0
 43
-1.8853259534
 44
1.8853259534
 45
-5.0275358757
 46
5.0275358757
 79
0
 98
1
 10
0.0
 20
0.0
  0
LINE
  5
220
100
AcDbEntity
  8
0
100
AcDbLine
 62
7
  6
CONTINUOUS
 10
0.0
 20
0.0
 11
0.0
 21
210.0
  0
LINE
  5
221
100
AcDbEntity
  8
0
100
AcDbLine
 62
7
  6
CONTINUOUS
 10
0.0
 20
0.0
 11
297.0
 21
0.0
  0
LINE
  5
222
100
AcDbEntity
  8
0
100
AcDbLine
 62
7
  6
CONTINUOUS
 10
0.0
 20
210.0
 11
297.0
 21
210.0
  0
LINE
  5
223
100
AcDbEntity
  8
0
100
AcDbLine
 62
7
  6
CONTINUOUS
 10
297.0
 20
0.0
 11
297.0
 21
210.0
  0
LINE
  5
224
100
AcDbEntity
  8
RUNDUNGEN
100
AcDbLine
 62
7
  6
CONTINUOUS
 10
60.9725601186
 20
111.1213516216
 11
60.9725601186
 21
101.0342270488
  0
LINE
  5
225
100
AcDbEntity
  8
RUNDUNGEN
100
AcDbLine
 62
7
  6
CONTINUOUS
 10
86.8410482788
 20
145.8397628573
 11
78.1053421476
 21
140.7962005708
  0
LINE
  5
226
100
AcDbEntity
  8
RUNDUNGEN
100
AcDbLine
 62
7
  6
CONTINUOUS
 10
78.1053421476
 20
71.3593780995
 11
86.8410482788
 21
66.3158158131
  0
LINE
  5
227
100
AcDbEntity
  8
0
100
AcDbLine
 62
7
  6
CONTINUOUS
 10
65.9725601186
 20
103.1931687819
 11
65.9725601186
 21
108.9624098884
  0
LINE
  5
228
100
AcDbEntity
  8
RUNDUNGEN
100
AcDbLine
 62
7
  6
CONTINUOUS
 10
67.7555435304
 20
126.9884269557
 11
65.8516836457
 21
121.1289487316
  0
LINE
  5
229
100
AcDbEntity
  8
RUNDUNGEN
100
AcDbLine
 62
7
  6
CONTINUOUS
 10
71.8780705831
 20
131.5669570932
 11
67.7555435304
 21
126.9884269557
  0
LINE
  5
22A
100
AcDbEntity
  8
0
100
AcDbLine
 62
7
  6
CONTINUOUS
 10
82.4750405338
 20
137.5455444185
 11
87.4713498926
 21
140.4301649717
  0
LINE
  5
22B
100
AcDbEntity
  8
RUNDUNGEN
100
AcDbLine
 62
7
  6
CONTINUOUS
 10
103.9738303078
 20
64.2565140941
 11
110.0002172452
 21
65.5374621808
  0
LINE
  5
22C
100
AcDbEntity
  8
RUNDUNGEN
100
AcDbLine
 62
7
  6
CONTINUOUS
 10
97.9474433704
 20
65.5374621808
 11
103.9738303078
 21
64.2565140941
  0
LINE
  5
22D
100
AcDbEntity
  8
0
100
AcDbLine
 62
7
  6
CONTINUOUS
 10
87.4713498926
 20
71.7254136986
 11
82.4750405338
 21
74.6100342519
  0
LINE
  5
22E
100
AcDbEntity
  8
RUNDUNGEN
100
AcDbLine
 62
7
  6
CONTINUOUS
 10
67.7555435304
 20
85.1671517146
 11
71.8780705831
 21
80.5886215772
  0
LINE
  5
22F
100
AcDbEntity
  8
RUNDUNGEN
100
AcDbLine
 62
7
  6
CONTINUOUS
 10
65.8516836457
 20
91.0266299388
 11
67.7555435304
 21
85.1671517146
  0
LINE
  5
230
100
AcDbEntity
  8
0
100
AcDbLine
 62
7
  6
CONTINUOUS
 10
71.1518062108
 20
121.614288055
 11
72.0856705493
 21
124.4884269557
  0
LINE
  5
231
100
AcDbEntity
  8
0
100
AcDbLine
 62
7
  6
CONTINUOUS
 10
68.9795767911
 20
116.7434396286
 11
68.1717060812
 21
114.8402155053
  0
LINE
  5
232
100
AcDbEntity
  8
0
100
AcDbLine
 62
7
  6
CONTINUOUS
 10
78.4842845324
 20
132.7021253398
 11
77.2399794475
 21
131.0508767204
  0
LINE
  5
233
100
AcDbEntity
  8
0
100
AcDbLine
 62
7
  6
CONTINUOUS
 10
72.0856705493
 20
124.4884269557
 11
74.1078156821
 21
126.7342466469
  0
LINE
  5
234
100
AcDbEntity
  8
0
100
AcDbLine
 62
7
  6
CONTINUOUS
 10
106.9298397791
 20
69.8848333036
 11
103.9738303078
 21
69.2565140941
  0
LINE
  5
235
100
AcDbEntity
  8
0
100
AcDbLine
 62
7
  6
CONTINUOUS
 10
112.2342329642
 20
70.4390516565
 11
114.286408759
 21
70.6910271604
  0
LINE
  5
236
100
AcDbEntity
  8
0
100
AcDbLine
 62
7
  6
CONTINUOUS
 10
93.6612518566
 20
70.6910271604
 11
95.7134276514
 21
70.4390516565
  0
LINE
  5
237
100
AcDbEntity
  8
0
100
AcDbLine
 62
7
  6
CONTINUOUS
 10
103.9738303078
 20
69.2565140941
 11
101.0178208366
 21
69.8848333036
  0
LINE
  5
238
100
AcDbEntity
  8
0
100
AcDbLine
 62
7
  6
CONTINUOUS
 10
74.1078156821
 20
85.4213320234
 11
72.0856705493
 21
87.6671517146
  0
LINE
  5
239
100
AcDbEntity
  8
0
100
AcDbLine
 62
7
  6
CONTINUOUS
 10
77.2399794475
 20
81.1047019499
 11
78.4842845324
 21
79.4534533305
  0
LINE
  5
23A
100
AcDbEntity
  8
0
100
AcDbLine
 62
7
  6
CONTINUOUS
 10
68.1717060812
 20
97.3153631651
 11
68.9795767911
 21
95.4121390418
  0
LINE
  5
23B
100
AcDbEntity
  8
0
100
AcDbLine
 62
7
  6
CONTINUOUS
 10
72.0856705493
 20
87.6671517146
 11
71.1518062108
 21
90.5412906153
  0
LINE
  5
23C
100
AcDbEntity
  8
0
100
AcDbLine
 62
7
  6
CONTINUOUS
 10
78.9738303078
 20
129.0777893352
 11
78.9738303078
 21
83.0777893352
  0
LINE
  5
23D
100
AcDbEntity
  8
0
100
AcDbLine
 62
7
  6
CONTINUOUS
 10
80.9738303078
 20
81.0777893352
 11
126.9738303078
 21
81.0777893352
  0
LINE
  5
23E
100
AcDbEntity
  8
0
100
AcDbLine
 62
7
  6
CONTINUOUS
 10
99.9738303078
 20
121.8777893352
 11
99.9738303078
 21
117.9205086175
  0
LINE
  5
23F
100
AcDbEntity
  8
02___PRT_ALL_AXES
100
AcDbLine
 62
7
  6
CENTER
 10
103.9738303078
 20
106.0777893352
 11
103.9738303078
 21
56.5442339433
  0
LINE
  5
240
100
AcDbEntity
  8
02___PRT_ALL_AXES
100
AcDbLine
 62
7
  6
CENTER
 10
103.9738303078
 20
106.0777893352
 11
103.9738303078
 21
155.6113447271
  0
LINE
  5
241
100
AcDbEntity
  8
0
100
AcDbLine
 62
7
  6
CONTINUOUS
 10
75.061891751
 20
80.4583343679
 11
73.523061298
 21
79.0947455025
  0
LINE
  5
242
100
AcDbEntity
  8
0
100
AcDbLine
 62
7
  6
CONTINUOUS
 10
132.8857688646
 20
131.6972443024
 11
134.4245993177
 21
133.0608331678
  0
LINE
  5
243
100
AcDbEntity
  8
02___PRT_ALL_AXES
100
AcDbLine
 62
7
  6
CENTER
 10
103.9738303078
 20
106.0777893352
 11
54.4402749159
 21
106.0777893352
  0
LINE
  5
244
100
AcDbEntity
  8
02___PRT_ALL_AXES
100
AcDbLine
 62
7
  6
CENTER
 10
103.9738303078
 20
106.0777893352
 11
153.5073856997
 21
106.0777893352
  0
LINE
  5
245
100
AcDbEntity
  8
0
100
AcDbLine
 62
7
  6
CONTINUOUS
 10
67.3307621967
 20
118.3065351144
 11
65.3804443724
 21
118.9574069461
  0
LINE
  5
246
100
AcDbEntity
  8
0
100
AcDbLine
 62
7
  6
CONTINUOUS
 10
140.616898419
 20
93.849043556
 11
142.5672162433
 21
93.1981717242
  0
LINE
  5
247
100
AcDbEntity
  8
0
100
AcDbLine
 62
7
  6
CONTINUOUS
 10
111.7049598622
 20
68.2295885887
 11
112.1164472334
 21
66.2151278916
  0
LINE
  5
248
100
AcDbEntity
  8
0
100
AcDbLine
 62
7
  6
CONTINUOUS
 10
96.2427007535
 20
143.9259900816
 11
95.8312133822
 21
145.9404507788
  0
LINE
  5
249
100
AcDbEntity
  8
0
100
AcDbLine
 62
7
  6
CONTINUOUS
 10
107.9738303078
 20
117.9205086175
 11
107.9738303078
 21
121.8777893352
  0
LINE
  5
24A
100
AcDbEntity
  8
0
100
AcDbLine
 62
7
  6
CONTINUOUS
 10
107.9738303078
 20
121.8777893352
 11
99.9738303078
 21
121.8777893352
  0
LINE
  5
24B
100
AcDbEntity
  8
0
100
AcDbLine
 62
7
  6
CONTINUOUS
 10
128.9738303078
 20
83.0777893352
 11
128.9738303078
 21
129.0777893352
  0
LINE
  5
24C
100
AcDbEntity
  8
0
100
AcDbLine
 62
7
  6
CONTINUOUS
 10
126.9738303078
 20
131.0777893352
 11
80.9738303078
 21
131.0777893352
  0
LINE
  5
24D
100
AcDbEntity
  8
0
100
AcDbLine
 62
7
  6
CONTINUOUS
 10
141.9751004971
 20
108.9624098884
 11
141.9751004971
 21
103.1931687819
  0
LINE
  5
24E
100
AcDbEntity
  8
0
100
AcDbLine
 62
7
  6
CONTINUOUS
 10
136.7958544049
 20
90.5412906153
 11
135.8619900664
 21
87.6671517146
  0
LINE
  5
24F
100
AcDbEntity
  8
0
100
AcDbLine
 62
7
  6
CONTINUOUS
 10
138.9680838246
 20
95.4121390418
 11
139.7759545345
 21
97.3153631651
  0
LINE
  5
250
100
AcDbEntity
  8
0
100
AcDbLine
 62
7
  6
CONTINUOUS
 10
129.4633760833
 20
79.4534533305
 11
130.7076811682
 21
81.1047019499
  0
LINE
  5
251
100
AcDbEntity
  8
0
100
AcDbLine
 62
7
  6
CONTINUOUS
 10
135.8619900664
 20
87.6671517146
 11
133.8398449336
 21
85.4213320234
  0
LINE
  5
252
100
AcDbEntity
  8
0
100
AcDbLine
 62
7
  6
CONTINUOUS
 10
125.4726200818
 20
74.6100342519
 11
120.4763107231
 21
71.7254136986
  0
LINE
  5
253
100
AcDbEntity
  8
0
100
AcDbLine
 62
7
  6
CONTINUOUS
 10
101.0178208366
 20
142.2707453668
 11
103.9738303078
 21
142.8990645763
  0
LINE
  5
254
100
AcDbEntity
  8
0
100
AcDbLine
 62
7
  6
CONTINUOUS
 10
95.7134276514
 20
141.7165270138
 11
93.6612518566
 21
141.46455151
  0
LINE
  5
255
100
AcDbEntity
  8
0
100
AcDbLine
 62
7
  6
CONTINUOUS
 10
114.286408759
 20
141.46455151
 11
112.2342329642
 21
141.7165270138
  0
LINE
  5
256
100
AcDbEntity
  8
0
100
AcDbLine
 62
7
  6
CONTINUOUS
 10
103.9738303078
 20
142.8990645763
 11
106.9298397791
 21
142.2707453668
  0
LINE
  5
257
100
AcDbEntity
  8
0
100
AcDbLine
 62
7
  6
CONTINUOUS
 10
120.4763107231
 20
140.4301649717
 11
125.4726200818
 21
137.5455444185
  0
LINE
  5
258
100
AcDbEntity
  8
0
100
AcDbLine
 62
7
  6
CONTINUOUS
 10
133.8398449336
 20
126.7342466469
 11
135.8619900664
 21
124.4884269557
  0
LINE
  5
259
100
AcDbEntity
  8
0
100
AcDbLine
 62
7
  6
CONTINUOUS
 10
130.7076811682
 20
131.0508767204
 11
129.4633760833
 21
132.7021253398
  0
LINE
  5
25A
100
AcDbEntity
  8
0
100
AcDbLine
 62
7
  6
CONTINUOUS
 10
139.7759545345
 20
114.8402155053
 11
138.9680838246
 21
116.7434396286
  0
LINE
  5
25B
100
AcDbEntity
  8
0
100
AcDbLine
 62
7
  6
CONTINUOUS
 10
135.8619900664
 20
124.4884269557
 11
136.7958544049
 21
121.614288055
  0
LINE
  5
25C
100
AcDbEntity
  8
RUNDUNGEN
100
AcDbLine
 62
7
  6
CONTINUOUS
 10
146.9751004971
 20
101.0342270488
 11
146.9751004971
 21
111.1213516216
  0
LINE
  5
25D
100
AcDbEntity
  8
RUNDUNGEN
100
AcDbLine
 62
7
  6
CONTINUOUS
 10
140.1921170853
 20
85.1671517146
 11
142.09597697
 21
91.0266299388
  0
LINE
  5
25E
100
AcDbEntity
  8
RUNDUNGEN
100
AcDbLine
 62
7
  6
CONTINUOUS
 10
136.0695900326
 20
80.5886215772
 11
140.1921170853
 21
85.1671517146
  0
LINE
  5
25F
100
AcDbEntity
  8
RUNDUNGEN
100
AcDbLine
 62
7
  6
CONTINUOUS
 10
121.1066123368
 20
66.3158158131
 11
129.8423184681
 21
71.3593780995
  0
LINE
  5
260
100
AcDbEntity
  8
RUNDUNGEN
100
AcDbLine
 62
7
  6
CONTINUOUS
 10
103.9738303078
 20
147.8990645763
 11
97.9474433704
 21
146.6181164896
  0
LINE
  5
261
100
AcDbEntity
  8
RUNDUNGEN
100
AcDbLine
 62
7
  6
CONTINUOUS
 10
110.0002172452
 20
146.6181164896
 11
103.9738303078
 21
147.8990645763
  0
LINE
  5
262
100
AcDbEntity
  8
RUNDUNGEN
100
AcDbLine
 62
7
  6
CONTINUOUS
 10
129.8423184681
 20
140.7962005708
 11
121.1066123368
 21
145.8397628573
  0
LINE
  5
263
100
AcDbEntity
  8
RUNDUNGEN
100
AcDbLine
 62
7
  6
CONTINUOUS
 10
140.1921170853
 20
126.9884269557
 11
136.0695900326
 21
131.5669570932
  0
LINE
  5
264
100
AcDbEntity
  8
RUNDUNGEN
100
AcDbLine
 62
7
  6
CONTINUOUS
 10
142.09597697
 20
121.1289487316
 11
140.1921170853
 21
126.9884269557
  0
LINE
  5
265
100
AcDbEntity
  8
0
100
AcDbLine
 62
7
  6
CONTINUOUS
 10
209.6417043911
 20
64.2565140941
 11
229.6417043911
 21
64.2565140941
  0
LINE
  5
266
100
AcDbEntity
  8
RUNDUNGEN
100
AcDbLine
 62
9
  6
CONTINUOUS
 10
229.6417043911
 20
65.5374621808
 11
209.6417043911
 21
65.5374621808
  0
LINE
  5
267
100
AcDbEntity
  8
RUNDUNGEN
100
AcDbLine
 62
7
  6
CONTINUOUS
 10
229.6417043911
 20
65.9808793226
 11
209.6417043911
 21
65.9808793226
  0
LINE
  5
268
100
AcDbEntity
  8
RUNDUNGEN
100
AcDbLine
 62
9
  6
CONTINUOUS
 10
229.6417043911
 20
66.3158158131
 11
209.6417043911
 21
66.3158158131
  0
LINE
  5
269
100
AcDbEntity
  8
RUNDUNGEN
100
AcDbLine
 62
9
  6
CONTINUOUS
 10
229.6417043911
 20
71.3593780995
 11
209.6417043911
 21
71.3593780995
  0
LINE
  5
26A
100
AcDbEntity
  8
RUNDUNGEN
100
AcDbLine
 62
9
  6
CONTINUOUS
 10
229.6417043911
 20
74.5713196928
 11
209.6417043911
 21
74.5713196928
  0
LINE
  5
26B
100
AcDbEntity
  8
0
100
AcDbLine
 62
7
  6
CONTINUOUS
 10
218.8917043911
 20
75.2770456138
 11
220.3917043911
 21
75.2770456138
  0
LINE
  5
26C
100
AcDbEntity
  8
0
100
AcDbLine
 62
7
  6
CONTINUOUS
 10
220.3917043911
 20
79.0947455025
 11
218.8917043911
 21
79.0947455025
  0
LINE
  5
26D
100
AcDbEntity
  8
0
100
AcDbLine
 62
7
  6
CONTINUOUS
 10
209.6417043911
 20
79.4534533305
 11
218.2237892279
 21
79.4534533305
  0
LINE
  5
26E
100
AcDbEntity
  8
0
100
AcDbLine
 62
7
  6
CONTINUOUS
 10
221.0596195542
 20
79.4534533305
 11
229.6417043911
 21
79.4534533305
  0
LINE
  5
26F
100
AcDbEntity
  8
RUNDUNGEN
100
AcDbLine
 62
7
  6
CONTINUOUS
 10
229.6417043911
 20
79.9268827899
 11
209.6417043911
 21
79.9268827899
  0
LINE
  5
270
100
AcDbEntity
  8
RUNDUNGEN
100
AcDbLine
 62
9
  6
CONTINUOUS
 10
229.6417043911
 20
80.5886215772
 11
209.6417043911
 21
80.5886215772
  0
LINE
  5
271
100
AcDbEntity
  8
0
100
AcDbLine
 62
7
  6
CONTINUOUS
 10
199.6417043911
 20
81.0777893352
 11
209.6417043911
 21
81.0777893352
  0
LINE
  5
272
100
AcDbEntity
  8
0
100
AcDbLine
 62
7
  6
CONTINUOUS
 10
229.6417043911
 20
81.0777893352
 11
239.6417043911
 21
81.0777893352
  0
LINE
  5
273
100
AcDbEntity
  8
0
100
AcDbLine
 62
9
  6
CONTINUOUS
 10
199.6417043911
 20
83.0777893352
 11
209.6417043911
 21
83.0777893352
  0
LINE
  5
274
100
AcDbEntity
  8
0
100
AcDbLine
 62
9
  6
CONTINUOUS
 10
229.6417043911
 20
83.0777893352
 11
239.6417043911
 21
83.0777893352
  0
LINE
  5
275
100
AcDbEntity
  8
0
100
AcDbLine
 62
7
  6
CONTINUOUS
 10
199.6417043911
 20
81.0777893352
 11
199.6417043911
 21
131.0777893352
  0
LINE
  5
276
100
AcDbEntity
  8
0
100
AcDbLine
 62
7
  6
CONTINUOUS
 10
209.6417043911
 20
85.1671517146
 11
229.6417043911
 21
85.1671517146
  0
LINE
  5
277
100
AcDbEntity
  8
RUNDUNGEN
100
AcDbLine
 62
9
  6
CONTINUOUS
 10
229.6417043911
 20
91.0266299388
 11
209.6417043911
 21
91.0266299388
  0
LINE
  5
278
100
AcDbEntity
  8
0
100
AcDbLine
 62
7
  6
CONTINUOUS
 10
220.3917043911
 20
92.0280119001
 11
218.8917043911
 21
92.0280119001
  0
LINE
  5
279
100
AcDbEntity
  8
0
100
AcDbLine
 62
9
  6
CONTINUOUS
 10
229.6417043911
 20
93.2574987927
 11
220.5918714758
 21
93.2574987927
  0
LINE
  5
27A
100
AcDbEntity
  8
0
100
AcDbLine
 62
9
  6
CONTINUOUS
 10
218.6915373063
 20
93.2574987927
 11
209.6417043911
 21
93.2574987927
  0
LINE
  5
27B
100
AcDbEntity
  8
0
100
AcDbLine
 62
7
  6
CONTINUOUS
 10
209.6417043911
 20
95.4121390418
 11
218.1757424904
 21
95.4121390418
  0
LINE
  5
27C
100
AcDbEntity
  8
0
100
AcDbLine
 62
7
  6
CONTINUOUS
 10
221.1076662918
 20
95.4121390418
 11
229.6417043911
 21
95.4121390418
  0
LINE
  5
27D
100
AcDbEntity
  8
0
100
AcDbLine
 62
7
  6
CONTINUOUS
 10
209.6417043911
 20
97.3153631651
 11
209.6417043911
 21
95.4121390418
  0
LINE
  5
27E
100
AcDbEntity
  8
0
100
AcDbLine
 62
7
  6
CONTINUOUS
 10
209.6417043911
 20
79.9270326646
 11
209.6417043911
 21
79.4534533305
  0
LINE
  5
27F
100
AcDbEntity
  8
RUNDUNGEN
100
AcDbLine
 62
7
  6
CONTINUOUS
 10
209.6417043911
 20
64.2565140941
 11
209.6417043911
 21
79.4534533305
  0
LINE
  5
280
100
AcDbEntity
  8
RUNDUNGEN
100
AcDbLine
 62
7
  6
CONTINUOUS
 10
209.6417043911
 20
79.9270326646
 11
209.6417043911
 21
95.4121390418
  0
LINE
  5
281
100
AcDbEntity
  8
RUNDUNGEN
100
AcDbLine
 62
7
  6
CONTINUOUS
 10
209.6417043911
 20
97.3153631651
 11
209.6417043911
 21
106.0777893358
  0
LINE
  5
282
100
AcDbEntity
  8
0
100
AcDbLine
 62
7
  6
CONTINUOUS
 10
209.6417043911
 20
131.0777893352
 11
209.6417043911
 21
147.8990645763
  0
LINE
  5
283
100
AcDbEntity
  8
0
100
AcDbLine
 62
7
  6
CONTINUOUS
 10
209.6417043911
 20
97.3153631651
 11
218.2237892279
 21
97.3153631651
  0
LINE
  5
284
100
AcDbEntity
  8
0
100
AcDbLine
 62
7
  6
CONTINUOUS
 10
221.0596195542
 20
97.3153631651
 11
229.6417043911
 21
97.3153631651
  0
LINE
  5
285
100
AcDbEntity
  8
0
100
AcDbLine
 62
7
  6
CONTINUOUS
 10
218.8917043911
 20
98.456733558
 11
220.3917043911
 21
98.456733558
  0
LINE
  5
286
100
AcDbEntity
  8
RUNDUNGEN
100
AcDbLine
 62
9
  6
CONTINUOUS
 10
229.6417043911
 20
98.5446916948
 11
209.6417043911
 21
98.5446916948
  0
LINE
  5
287
100
AcDbEntity
  8
0
100
AcDbLine
 62
7
  6
CONTINUOUS
 10
218.8917043911
 20
79.0947455025
 11
218.6727206757
 21
79.9268827899
  0
LINE
  5
288
100
AcDbEntity
  8
RUNDUNGEN
100
AcDbLine
 62
9
  6
CONTINUOUS
 10
229.6417043911
 20
101.0342270488
 11
209.6417043911
 21
101.0342270488
  0
LWPOLYLINE
  5
289
100
AcDbEntity
  8
0
100
AcDbPolyline
 62
7
  6
CONTINUOUS
 90
7
 70
0
 10
218.6915373063
 20
93.2574987927
 10
218.6019880099
 20
93.5840062946
 10
218.5137902115
 20
93.9240976356
 10
218.4268671303
 20
94.2774138639
 10
218.3414491087
 20
94.6434988804
 10
218.257766489
 20
95.0218753654
 10
218.1757424904
 20
95.4121390418
  0
LWPOLYLINE
  5
28A
100
AcDbEntity
  8
0
100
AcDbPolyline
 62
7
  6
CONTINUOUS
 90
7
 70
0
 10
218.8917043911
 20
75.2770456138
 10
218.7729969004
 20
75.9528610431
 10
218.6570469902
 20
76.6386163129
 10
218.5436692806
 20
77.3330660013
 10
218.4334199107
 20
78.0346760246
 10
218.3268550198
 20
78.7418964679
 10
218.2237892279
 20
79.4534533305
  0
LWPOLYLINE
  5
28B
100
AcDbEntity
  8
0
100
AcDbPolyline
 62
7
  6
CONTINUOUS
 90
7
 70
0
 10
218.8917043911
 20
92.0280119001
 10
218.8669919251
 20
92.2671363505
 10
218.8385776707
 20
92.4971619724
 10
218.8062344689
 20
92.7144929818
 10
218.770643796
 20
92.915742569
 10
218.7324871281
 20
93.097730318
 10
218.6915373063
 20
93.2574987927
  0
LINE
  5
28C
100
AcDbEntity
  8
0
100
AcDbLine
 62
7
  6
CONTINUOUS
 10
218.2237892279
 20
79.4534533305
 11
218.208050098
 21
79.9268827899
  0
LINE
  5
28D
100
AcDbEntity
  8
0
100
AcDbLine
 62
7
  6
CONTINUOUS
 10
217.1417043911
 20
131.0777893352
 11
217.1417043911
 21
142.8990645763
  0
LINE
  5
28E
100
AcDbEntity
  8
0
100
AcDbLine
 62
7
  6
CONTINUOUS
 10
218.8917043911
 20
75.2770456138
 11
218.8917043911
 21
79.0947455025
  0
LINE
  5
28F
100
AcDbEntity
  8
0
100
AcDbLine
 62
7
  6
CONTINUOUS
 10
218.8917043911
 20
92.0280119001
 11
218.8917043911
 21
98.456733558
  0
LINE
  5
290
100
AcDbEntity
  8
0
100
AcDbLine
 62
7
  6
CONTINUOUS
 10
218.1757424904
 20
95.4121390418
 11
218.1972866915
 21
96.3643851937
  0
LINE
  5
291
100
AcDbEntity
  8
0
100
AcDbLine
 62
7
  6
CONTINUOUS
 10
218.1972866915
 20
96.3643851937
 11
218.2237892279
 21
97.3153631651
  0
LINE
  5
292
100
AcDbEntity
  8
02___PRT_ALL_AXES
100
AcDbLine
 62
7
  6
CENTER
 10
242.6417043911
 20
106.0777893352
 11
196.6417043911
 21
106.0777893352
  0
LINE
  5
293
100
AcDbEntity
  8
0
100
AcDbLine
 62
2
  6
CONTINUOUS
 10
199.6417043911
 20
106.0777893358
 11
239.6417043911
 21
106.0777893358
  0
LWPOLYLINE
  5
294
100
AcDbEntity
  8
0
100
AcDbPolyline
 62
7
  6
CONTINUOUS
 90
7
 70
0
 10
221.0596195542
 20
97.3153631651
 10
220.9565477995
 20
97.5794446023
 10
220.8499869313
 20
97.8146609604
 10
220.7397586953
 20
98.0204754825
 10
220.6263978544
 20
98.1963753607
 10
220.510439171
 20
98.3419152302
 10
220.3917043911
 20
98.456733558
  0
LINE
  5
295
100
AcDbEntity
  8
0
100
AcDbLine
 62
7
  6
CONTINUOUS
 10
221.0861220906
 20
96.3643851937
 11
221.0596195542
 21
97.3153631651
  0
LINE
  5
296
100
AcDbEntity
  8
0
100
AcDbLine
 62
7
  6
CONTINUOUS
 10
221.1076662918
 20
95.4121390418
 11
221.0861220906
 21
96.3643851937
  0
LINE
  5
297
100
AcDbEntity
  8
0
100
AcDbLine
 62
7
  6
CONTINUOUS
 10
220.3917043911
 20
75.2770456138
 11
220.3917043911
 21
79.0947455025
  0
LINE
  5
298
100
AcDbEntity
  8
0
100
AcDbLine
 62
7
  6
CONTINUOUS
 10
220.3917043911
 20
92.0280119001
 11
220.3917043911
 21
98.456733558
  0
LINE
  5
299
100
AcDbEntity
  8
0
100
AcDbLine
 62
7
  6
CONTINUOUS
 10
222.1417043911
 20
131.0777893352
 11
222.1417043911
 21
142.8990645763
  0
LINE
  5
29A
100
AcDbEntity
  8
0
100
AcDbLine
 62
7
  6
CONTINUOUS
 10
221.0596195542
 20
79.4534533305
 11
221.0753586841
 21
79.9268827899
  0
LWPOLYLINE
  5
29B
100
AcDbEntity
  8
0
100
AcDbPolyline
 62
7
  6
CONTINUOUS
 90
7
 70
0
 10
220.3917043911
 20
92.0280119001
 10
220.416416857
 20
92.2671363505
 10
220.4448311115
 20
92.4971619724
 10
220.4771743132
 20
92.7144929818
 10
220.5127649861
 20
92.915742569
 10
220.5509216541
 20
93.097730318
 10
220.5918714758
 20
93.2574987927
  0
LWPOLYLINE
  5
29C
100
AcDbEntity
  8
0
100
AcDbPolyline
 62
7
  6
CONTINUOUS
 90
7
 70
0
 10
218.2237892279
 20
97.3153631651
 10
218.3268609827
 20
97.5794446023
 10
218.4334218509
 20
97.8146609604
 10
218.5436500868
 20
98.0204754825
 10
218.6570109278
 20
98.1963753607
 10
218.7729696111
 20
98.3419152302
 10
218.8917043911
 20
98.456733558
  0
LWPOLYLINE
  5
29D
100
AcDbEntity
  8
0
100
AcDbPolyline
 62
7
  6
CONTINUOUS
 90
7
 70
0
 10
220.3917043911
 20
75.2770456138
 10
220.5104118817
 20
75.9528610431
 10
220.626361792
 20
76.6386163129
 10
220.7397395016
 20
77.3330660013
 10
220.8499888714
 20
78.0346760246
 10
220.9565537624
 20
78.7418964679
 10
221.0596195542
 20
79.4534533305
  0
LINE
  5
29E
100
AcDbEntity
  8
0
100
AcDbLine
 62
7
  6
CONTINUOUS
 10
220.6106881064
 20
79.9268827899
 11
220.3917043911
 21
79.0947455025
  0
LWPOLYLINE
  5
29F
100
AcDbEntity
  8
0
100
AcDbPolyline
 62
7
  6
CONTINUOUS
 90
7
 70
0
 10
220.5918714758
 20
93.2574987927
 10
220.6814207722
 20
93.5840062946
 10
220.7696185707
 20
93.9240976356
 10
220.8565416518
 20
94.2774138639
 10
220.9419596734
 20
94.6434988804
 10
221.0256422931
 20
95.0218753654
 10
221.1076662918
 20
95.4121390418
  0
LINE
  5
2A0
100
AcDbEntity
  8
RUNDUNGEN
100
AcDbLine
 62
7
  6
CONTINUOUS
 10
229.6417043911
 20
106.0777893358
 11
229.6417043911
 21
97.3153631651
  0
LINE
  5
2A1
100
AcDbEntity
  8
0
100
AcDbLine
 62
7
  6
CONTINUOUS
 10
229.6417043911
 20
97.3153631651
 11
229.6417043911
 21
95.4121390418
  0
LINE
  5
2A2
100
AcDbEntity
  8
RUNDUNGEN
100
AcDbLine
 62
7
  6
CONTINUOUS
 10
229.6417043911
 20
95.4121390418
 11
229.6417043911
 21
79.9270326646
  0
LINE
  5
2A3
100
AcDbEntity
  8
0
100
AcDbLine
 62
7
  6
CONTINUOUS
 10
229.6417043911
 20
79.9268827899
 11
229.6417043911
 21
79.4534533305
  0
LINE
  5
2A4
100
AcDbEntity
  8
RUNDUNGEN
100
AcDbLine
 62
7
  6
CONTINUOUS
 10
229.6417043911
 20
79.4534533305
 11
229.6417043911
 21
64.2565140941
  0
LINE
  5
2A5
100
AcDbEntity
  8
0
100
AcDbLine
 62
7
  6
CONTINUOUS
 10
229.6417043911
 20
131.0777893352
 11
229.6417043911
 21
147.8990645763
  0
LINE
  5
2A6
100
AcDbEntity
  8
0
100
AcDbLine
 62
7
  6
CONTINUOUS
 10
199.6417043911
 20
117.9205086175
 11
239.6417043911
 21
117.9205086175
  0
LINE
  5
2A7
100
AcDbEntity
  8
0
100
AcDbLine
 62
7
  6
CONTINUOUS
 10
239.6417043911
 20
121.8777893352
 11
199.6417043911
 21
121.8777893352
  0
LINE
  5
2A8
100
AcDbEntity
  8
0
100
AcDbLine
 62
7
  6
CONTINUOUS
 10
239.6417043911
 20
81.0777893352
 11
239.6417043911
 21
131.0777893352
  0
LINE
  5
2A9
100
AcDbEntity
  8
0
100
AcDbLine
 62
7
  6
CONTINUOUS
 10
239.6417043911
 20
131.0777893352
 11
222.1417043911
 21
131.0777893352
  0
LINE
  5
2AA
100
AcDbEntity
  8
0
100
AcDbLine
 62
7
  6
CONTINUOUS
 10
217.1417043911
 20
131.0777893352
 11
199.6417043911
 21
131.0777893352
  0
LINE
  5
2AB
100
AcDbEntity
  8
0
100
AcDbLine
 62
7
  6
CONTINUOUS
 10
209.6417043911
 20
135.4012679139
 11
217.1417043911
 21
135.4012679139
  0
LINE
  5
2AC
100
AcDbEntity
  8
0
100
AcDbLine
 62
7
  6
CONTINUOUS
 10
222.1417043911
 20
135.4012679139
 11
229.6417043911
 21
135.4012679139
  0
LINE
  5
2AD
100
AcDbEntity
  8
0
100
AcDbLine
 62
9
  6
CONTINUOUS
 10
209.6417043911
 20
138.5131916108
 11
217.1417043911
 21
138.5131916108
  0
LINE
  5
2AE
100
AcDbEntity
  8
0
100
AcDbLine
 62
9
  6
CONTINUOUS
 10
222.1417043911
 20
138.5131916108
 11
229.6417043911
 21
138.5131916108
  0
LINE
  5
2AF
100
AcDbEntity
  8
0
100
AcDbLine
 62
7
  6
CONTINUOUS
 10
209.6417043911
 20
142.2707453668
 11
217.1417043911
 21
142.2707453668
  0
LINE
  5
2B0
100
AcDbEntity
  8
0
100
AcDbLine
 62
7
  6
CONTINUOUS
 10
222.1417043911
 20
142.2707453668
 11
229.6417043911
 21
142.2707453668
  0
LINE
  5
2B1
100
AcDbEntity
  8
0
100
AcDbLine
 62
7
  6
CONTINUOUS
 10
229.6417043911
 20
142.8990645763
 11
222.1417043911
 21
142.8990645763
  0
LINE
  5
2B2
100
AcDbEntity
  8
0
100
AcDbLine
 62
7
  6
CONTINUOUS
 10
217.1417043911
 20
142.8990645763
 11
209.6417043911
 21
142.8990645763
  0
LINE
  5
2B3
100
AcDbEntity
  8
0
100
AcDbLine
 62
7
  6
CONTINUOUS
 10
229.6417043911
 20
147.8990645763
 11
209.6417043911
 21
147.8990645763
  0
ARC
  5
2B4
100
AcDbEntity
  8
0
100
AcDbCircle
 62
7
  6
CONTINUOUS
 10
79.8076418376
 20
65.4607230794
 40
21.6666666667
100
AcDbArc
 50
11.7820691319
 51
22.1860444241
  0
ARC
  5
2B5
100
AcDbEntity
  8
0
100
AcDbCircle
 62
7
  6
CONTINUOUS
 10
103.7444591974
 20
57.4205069181
 40
21.6666666667
100
AcDbArc
 50
120.6802472651
 51
138.6828532772
  0
ARC
  5
2B6
100
AcDbEntity
  8
0
100
AcDbCircle
 62
7
  6
CONTINUOUS
 10
61.9500732108
 20
81.5505069181
 40
21.6666666667
100
AcDbArc
 50
341.3171467228
 51
358.7498366932
  0
ARC
  5
2B7
100
AcDbEntity
  8
0
100
AcDbCircle
 62
7
  6
CONTINUOUS
 10
80.8815133383
 20
64.8407230794
 40
21.6666666667
100
AcDbArc
 50
97.8139555759
 51
108.2179308681
  0
ARC
  5
2B8
100
AcDbEntity
  8
0
100
AcDbCircle
 62
7
  6
CONTINUOUS
 10
61.7207021003
 20
81.9477893352
 40
21.6666666667
100
AcDbArc
 50
60.6802472651
 51
78.6828532772
  0
ARC
  5
2B9
100
AcDbEntity
  8
0
100
AcDbCircle
 62
7
  6
CONTINUOUS
 10
56.715324868
 20
105.4577893352
 40
21.6666666667
100
AcDbArc
 50
37.8139555759
 51
48.2179308681
  0
ARC
  5
2BA
100
AcDbEntity
  8
RUNDUNGEN
100
AcDbCircle
 62
7
  6
CONTINUOUS
 10
56.715324868
 20
105.4577893352
 40
16.6666666666
100
AcDbArc
 50
42.6204782948
 51
53.7473672409
  0
ARC
  5
2BB
100
AcDbEntity
  8
RUNDUNGEN
100
AcDbCircle
 62
7
  6
CONTINUOUS
 10
61.7207021003
 20
81.9477893352
 40
16.6666666666
100
AcDbArc
 50
67.2282978974
 51
84.7557727191
  0
ARC
  5
2BC
100
AcDbEntity
  8
RUNDUNGEN
100
AcDbCircle
 62
7
  6
CONTINUOUS
 10
80.8815133383
 20
64.8407230794
 40
16.6666666666
100
AcDbArc
 50
102.6204782948
 51
113.7473672409
  0
ARC
  5
2BD
100
AcDbEntity
  8
RUNDUNGEN
100
AcDbCircle
 62
7
  6
CONTINUOUS
 10
61.9500732108
 20
81.5505069181
 40
16.6666666666
100
AcDbArc
 50
335.2442272809
 51
352.7717021026
  0
ARC
  5
2BE
100
AcDbEntity
  8
RUNDUNGEN
100
AcDbCircle
 62
7
  6
CONTINUOUS
 10
103.7444591974
 20
57.4205069181
 40
16.6666666666
100
AcDbArc
 50
127.2282978974
 51
144.7557727191
  0
ARC
  5
2BF
100
AcDbEntity
  8
RUNDUNGEN
100
AcDbCircle
 62
7
  6
CONTINUOUS
 10
79.8076418376
 20
65.4607230794
 40
16.6666666666
100
AcDbArc
 50
6.2526327591
 51
17.3795217052
  0
ARC
  5
2C0
100
AcDbEntity
  8
0
100
AcDbCircle
 62
7
  6
CONTINUOUS
 10
95.2403516427
 20
71.7543107564
 40
5.0
100
AcDbArc
 50
22.1860444241
 51
120.6802472651
  0
ARC
  5
2C1
100
AcDbEntity
  8
0
100
AcDbCircle
 62
7
  6
CONTINUOUS
 10
78.615565245
 20
81.3526356584
 40
5.0
100
AcDbArc
 50
85.8910636765
 51
97.8139555759
  0
ARC
  5
2C2
100
AcDbEntity
  8
0
100
AcDbCircle
 62
7
  6
CONTINUOUS
 10
69.8820865798
 20
96.4794644332
 40
5.0
100
AcDbArc
 50
322.1860444241
 51
60.6802472651
  0
ARC
  5
2C3
100
AcDbEntity
  8
RUNDUNGEN
100
AcDbCircle
 62
7
  6
CONTINUOUS
 10
63.4725601186
 20
101.0342270488
 40
2.5
100
AcDbArc
 50
180.0
 51
264.7557727191
  0
ARC
  5
2C4
100
AcDbEntity
  8
RUNDUNGEN
100
AcDbCircle
 62
7
  6
CONTINUOUS
 10
79.3553421476
 20
73.524441609
 40
2.5
100
AcDbArc
 50
155.2442272809
 51
240.0
  0
ARC
  5
2C5
100
AcDbEntity
  8
RUNDUNGEN
100
AcDbCircle
 62
7
  6
CONTINUOUS
 10
88.0910482788
 20
68.4808793226
 40
2.5
100
AcDbArc
 50
240.0
 51
324.7557727191
  0
ARC
  5
2C6
100
AcDbEntity
  8
0
100
AcDbCircle
 62
7
  6
CONTINUOUS
 10
80.9738303078
 20
83.0777893352
 40
2.0
100
AcDbArc
 50
180.0
 51
270.0
  0
ARC
  5
2C7
100
AcDbEntity
  8
RUNDUNGEN
100
AcDbCircle
 62
7
  6
CONTINUOUS
 10
67.7537966783
 20
91.6446639276
 40
2.0
100
AcDbArc
 50
126.2526327591
 51
198.0
  0
ARC
  5
2C8
100
AcDbEntity
  8
RUNDUNGEN
100
AcDbCircle
 62
7
  6
CONTINUOUS
 10
73.3643602341
 20
81.9268827899
 40
2.0
100
AcDbArc
 50
222.0
 51
293.7473672409
  0
ARC
  5
2C9
100
AcDbEntity
  8
RUNDUNGEN
100
AcDbCircle
 62
7
  6
CONTINUOUS
 10
98.3632667521
 20
67.4937573823
 40
2.0
100
AcDbArc
 50
186.2526327591
 51
258.0
  0
ARC
  5
2CA
100
AcDbEntity
  8
0
100
AcDbCircle
 62
7
  6
CONTINUOUS
 10
61.9500732108
 20
130.6050717522
 40
21.6666666667
100
AcDbArc
 50
1.2501633068
 51
18.6828532772
  0
ARC
  5
2CB
100
AcDbEntity
  8
0
100
AcDbCircle
 62
7
  6
CONTINUOUS
 10
103.7444591974
 20
154.7350717522
 40
21.6666666667
100
AcDbArc
 50
221.3171467228
 51
239.3197527349
  0
ARC
  5
2CC
100
AcDbEntity
  8
0
100
AcDbCircle
 62
7
  6
CONTINUOUS
 10
79.8076418376
 20
146.6948555909
 40
21.6666666667
100
AcDbArc
 50
337.8139555759
 51
348.2179308681
  0
ARC
  5
2CD
100
AcDbEntity
  8
0
100
AcDbCircle
 62
7
  6
CONTINUOUS
 10
56.715324868
 20
106.6977893352
 40
21.6666666667
100
AcDbArc
 50
311.7820691319
 51
322.1860444241
  0
ARC
  5
2CE
100
AcDbEntity
  8
0
100
AcDbCircle
 62
7
  6
CONTINUOUS
 10
61.7207021003
 20
130.2077893352
 40
21.6666666667
100
AcDbArc
 50
281.3171467228
 51
299.3197527349
  0
ARC
  5
2CF
100
AcDbEntity
  8
0
100
AcDbCircle
 62
7
  6
CONTINUOUS
 10
80.8815133383
 20
147.3148555909
 40
21.6666666667
100
AcDbArc
 50
251.7820691319
 51
262.1860444241
  0
ARC
  5
2D0
100
AcDbEntity
  8
RUNDUNGEN
100
AcDbCircle
 62
7
  6
CONTINUOUS
 10
79.8076418376
 20
146.6948555909
 40
16.6666666666
100
AcDbArc
 50
342.6204782948
 51
353.7473672409
  0
ARC
  5
2D1
100
AcDbEntity
  8
RUNDUNGEN
100
AcDbCircle
 62
7
  6
CONTINUOUS
 10
103.7444591974
 20
154.7350717522
 40
16.6666666666
100
AcDbArc
 50
215.2442272809
 51
232.7717021026
  0
ARC
  5
2D2
100
AcDbEntity
  8
RUNDUNGEN
100
AcDbCircle
 62
7
  6
CONTINUOUS
 10
61.9500732108
 20
130.6050717522
 40
16.6666666666
100
AcDbArc
 50
7.2282978974
 51
24.7557727191
  0
ARC
  5
2D3
100
AcDbEntity
  8
RUNDUNGEN
100
AcDbCircle
 62
7
  6
CONTINUOUS
 10
80.8815133383
 20
147.3148555909
 40
16.6666666666
100
AcDbArc
 50
246.2526327591
 51
257.3795217052
  0
ARC
  5
2D4
100
AcDbEntity
  8
RUNDUNGEN
100
AcDbCircle
 62
7
  6
CONTINUOUS
 10
61.7207021003
 20
130.2077893352
 40
16.6666666666
100
AcDbArc
 50
275.2442272809
 51
292.7717021026
  0
ARC
  5
2D5
100
AcDbEntity
  8
RUNDUNGEN
100
AcDbCircle
 62
7
  6
CONTINUOUS
 10
56.715324868
 20
106.6977893352
 40
16.6666666666
100
AcDbArc
 50
306.2526327591
 51
317.3795217052
  0
ARC
  5
2D6
100
AcDbEntity
  8
0
100
AcDbCircle
 62
7
  6
CONTINUOUS
 10
95.2403516427
 20
140.4012679139
 40
5.0
100
AcDbArc
 50
239.3197527349
 51
337.8139555759
  0
ARC
  5
2D7
100
AcDbEntity
  8
0
100
AcDbCircle
 62
7
  6
CONTINUOUS
 10
69.8820865798
 20
115.6761142371
 40
5.0
100
AcDbArc
 50
299.3197527349
 51
37.8139555759
  0
ARC
  5
2D8
100
AcDbEntity
  8
0
100
AcDbCircle
 62
7
  6
CONTINUOUS
 10
78.615565245
 20
130.802943012
 40
5.0
100
AcDbArc
 50
262.1860444241
 51
274.1089363235
  0
ARC
  5
2D9
100
AcDbEntity
  8
RUNDUNGEN
100
AcDbCircle
 62
7
  6
CONTINUOUS
 10
88.0910482788
 20
143.6746993478
 40
2.5
100
AcDbArc
 50
35.2442272809
 51
120.0
  0
ARC
  5
2DA
100
AcDbEntity
  8
RUNDUNGEN
100
AcDbCircle
 62
7
  6
CONTINUOUS
 10
79.3553421476
 20
138.6311370614
 40
2.5
100
AcDbArc
 50
120.0
 51
204.7557727191
  0
ARC
  5
2DB
100
AcDbEntity
  8
RUNDUNGEN
100
AcDbCircle
 62
7
  6
CONTINUOUS
 10
63.4725601186
 20
111.1213516216
 40
2.5
100
AcDbArc
 50
95.2442272809
 51
180.0
  0
ARC
  5
2DC
100
AcDbEntity
  8
0
100
AcDbCircle
 62
7
  6
CONTINUOUS
 10
80.9738303078
 20
129.0777893352
 40
2.0
100
AcDbArc
 50
90.0
 51
180.0
  0
ARC
  5
2DD
100
AcDbEntity
  8
RUNDUNGEN
100
AcDbCircle
 62
7
  6
CONTINUOUS
 10
98.3632667521
 20
144.6618212881
 40
2.0
100
AcDbArc
 50
102.0
 51
173.7473672409
  0
ARC
  5
2DE
100
AcDbEntity
  8
RUNDUNGEN
100
AcDbCircle
 62
7
  6
CONTINUOUS
 10
73.3643602341
 20
130.2286958805
 40
2.0
100
AcDbArc
 50
66.2526327591
 51
138.0
  0
ARC
  5
2DF
100
AcDbEntity
  8
RUNDUNGEN
100
AcDbCircle
 62
7
  6
CONTINUOUS
 10
67.7537966783
 20
120.5109147428
 40
2.0
100
AcDbArc
 50
162.0
 51
233.7473672409
  0
ARC
  5
2E0
100
AcDbEntity
  8
0
100
AcDbCircle
 62
7
  6
CONTINUOUS
 10
151.2323357476
 20
105.4577893352
 40
21.6666666667
100
AcDbArc
 50
131.7820691319
 51
142.1860444241
  0
ARC
  5
2E1
100
AcDbEntity
  8
0
100
AcDbCircle
 62
7
  6
CONTINUOUS
 10
146.2269585153
 20
81.9477893352
 40
21.6666666667
100
AcDbArc
 50
101.3171467228
 51
119.3197527349
  0
ARC
  5
2E2
100
AcDbEntity
  8
0
100
AcDbCircle
 62
7
  6
CONTINUOUS
 10
127.0661472774
 20
64.8407230794
 40
21.6666666667
100
AcDbArc
 50
71.7820691319
 51
82.1860444241
  0
ARC
  5
2E3
100
AcDbEntity
  8
0
100
AcDbCircle
 62
7
  6
CONTINUOUS
 10
145.9975874049
 20
81.5505069181
 40
21.6666666667
100
AcDbArc
 50
181.2501633068
 51
198.6828532772
  0
ARC
  5
2E4
100
AcDbEntity
  8
0
100
AcDbCircle
 62
7
  6
CONTINUOUS
 10
104.2032014183
 20
57.4205069181
 40
21.6666666667
100
AcDbArc
 50
41.3171467228
 51
59.3197527349
  0
ARC
  5
2E5
100
AcDbEntity
  8
0
100
AcDbCircle
 62
7
  6
CONTINUOUS
 10
128.1400187781
 20
65.4607230794
 40
21.6666666667
100
AcDbArc
 50
157.8139555759
 51
168.2179308681
  0
ARC
  5
2E6
100
AcDbEntity
  8
RUNDUNGEN
100
AcDbCircle
 62
7
  6
CONTINUOUS
 10
151.2323357476
 20
105.4577893352
 40
16.6666666666
100
AcDbArc
 50
126.2526327591
 51
137.3795217052
  0
ARC
  5
2E7
100
AcDbEntity
  8
RUNDUNGEN
100
AcDbCircle
 62
7
  6
CONTINUOUS
 10
128.1400187781
 20
65.4607230794
 40
16.6666666666
100
AcDbArc
 50
162.6204782948
 51
173.7473672409
  0
ARC
  5
2E8
100
AcDbEntity
  8
RUNDUNGEN
100
AcDbCircle
 62
7
  6
CONTINUOUS
 10
146.2269585153
 20
81.9477893352
 40
16.6666666666
100
AcDbArc
 50
95.2442272809
 51
112.7717021026
  0
ARC
  5
2E9
100
AcDbEntity
  8
RUNDUNGEN
100
AcDbCircle
 62
7
  6
CONTINUOUS
 10
127.0661472774
 20
64.8407230794
 40
16.6666666666
100
AcDbArc
 50
66.2526327591
 51
77.3795217052
  0
ARC
  5
2EA
100
AcDbEntity
  8
RUNDUNGEN
100
AcDbCircle
 62
7
  6
CONTINUOUS
 10
145.9975874049
 20
81.5505069181
 40
16.6666666666
100
AcDbArc
 50
187.2282978974
 51
204.7557727191
  0
ARC
  5
2EB
100
AcDbEntity
  8
RUNDUNGEN
100
AcDbCircle
 62
7
  6
CONTINUOUS
 10
104.2032014183
 20
57.4205069181
 40
16.6666666666
100
AcDbArc
 50
35.2442272809
 51
52.7717021026
  0
ARC
  5
2EC
100
AcDbEntity
  8
0
100
AcDbCircle
 62
7
  6
CONTINUOUS
 10
138.0655740358
 20
96.4794644332
 40
5.0
100
AcDbArc
 50
119.3197527349
 51
217.8139555759
  0
ARC
  5
2ED
100
AcDbEntity
  8
0
100
AcDbCircle
 62
7
  6
CONTINUOUS
 10
129.3320953707
 20
81.3526356584
 40
5.0
100
AcDbArc
 50
82.1860444241
 51
94.1089363235
  0
ARC
  5
2EE
100
AcDbEntity
  8
0
100
AcDbCircle
 62
7
  6
CONTINUOUS
 10
112.707308973
 20
71.7543107564
 40
5.0
100
AcDbArc
 50
59.3197527349
 51
157.8139555759
  0
ARC
  5
2EF
100
AcDbEntity
  8
RUNDUNGEN
100
AcDbCircle
 62
7
  6
CONTINUOUS
 10
144.4751004971
 20
101.0342270488
 40
2.5
100
AcDbArc
 50
275.2442272809
 51
360.0
  0
ARC
  5
2F0
100
AcDbEntity
  8
RUNDUNGEN
100
AcDbCircle
 62
7
  6
CONTINUOUS
 10
128.5923184681
 20
73.524441609
 40
2.5
100
AcDbArc
 50
300.0
 51
24.7557727191
  0
ARC
  5
2F1
100
AcDbEntity
  8
RUNDUNGEN
100
AcDbCircle
 62
7
  6
CONTINUOUS
 10
119.8566123368
 20
68.4808793226
 40
2.5
100
AcDbArc
 50
215.2442272809
 51
300.0
  0
ARC
  5
2F2
100
AcDbEntity
  8
0
100
AcDbCircle
 62
7
  6
CONTINUOUS
 10
126.9738303078
 20
83.0777893352
 40
2.0
100
AcDbArc
 50
270.0
 51
360.0
  0
ARC
  5
2F3
100
AcDbEntity
  8
RUNDUNGEN
100
AcDbCircle
 62
7
  6
CONTINUOUS
 10
109.5843938636
 20
67.4937573823
 40
2.0
100
AcDbArc
 50
282.0
 51
353.7473672409
  0
ARC
  5
2F4
100
AcDbEntity
  8
RUNDUNGEN
100
AcDbCircle
 62
7
  6
CONTINUOUS
 10
140.1938639374
 20
91.6446639276
 40
2.0
100
AcDbArc
 50
342.0
 51
53.7473672409
  0
ARC
  5
2F5
100
AcDbEntity
  8
RUNDUNGEN
100
AcDbCircle
 62
7
  6
CONTINUOUS
 10
134.5833003816
 20
81.9268827899
 40
2.0
100
AcDbArc
 50
246.2526327591
 51
318.0
  0
ARC
  5
2F6
100
AcDbEntity
  8
0
100
AcDbCircle
 62
7
  6
CONTINUOUS
 10
103.9738303078
 20
106.0777893352
 40
40.6857958969
100
AcDbArc
 50
10.796126114
 51
20.2015686573
  0
ARC
  5
2F7
100
AcDbEntity
  8
0
100
AcDbCircle
 62
7
  6
CONTINUOUS
 10
103.9738303078
 20
106.0777893352
 40
40.6857958969
100
AcDbArc
 50
341.5448035028
 51
349.203873886
  0
ARC
  5
2F8
100
AcDbEntity
  8
0
100
AcDbCircle
 62
7
  6
CONTINUOUS
 10
103.9738303078
 20
106.0777893352
 40
40.6857958969
100
AcDbArc
 50
310.796126114
 51
320.2015686573
  0
ARC
  5
2F9
100
AcDbEntity
  8
0
100
AcDbCircle
 62
7
  6
CONTINUOUS
 10
103.9738303078
 20
106.0777893352
 40
40.6857958969
100
AcDbArc
 50
281.5448035028
 51
289.203873886
  0
ARC
  5
2FA
100
AcDbEntity
  8
0
100
AcDbCircle
 62
7
  6
CONTINUOUS
 10
103.9738303078
 20
106.0777893352
 40
40.6857958969
100
AcDbArc
 50
250.796126114
 51
260.2015686573
  0
ARC
  5
2FB
100
AcDbEntity
  8
0
100
AcDbCircle
 62
7
  6
CONTINUOUS
 10
103.9738303078
 20
106.0777893352
 40
40.6857958969
100
AcDbArc
 50
221.5448035028
 51
229.203873886
  0
ARC
  5
2FC
100
AcDbEntity
  8
0
100
AcDbCircle
 62
7
  6
CONTINUOUS
 10
103.9738303078
 20
106.0777893352
 40
40.6857958969
100
AcDbArc
 50
190.796126114
 51
200.2015686573
  0
ARC
  5
2FD
100
AcDbEntity
  8
0
100
AcDbCircle
 62
7
  6
CONTINUOUS
 10
103.9738303078
 20
106.0777893352
 40
40.6857958969
100
AcDbArc
 50
161.5448035028
 51
169.203873886
  0
ARC
  5
2FE
100
AcDbEntity
  8
0
100
AcDbCircle
 62
7
  6
CONTINUOUS
 10
103.9738303078
 20
106.0777893352
 40
40.6857958969
100
AcDbArc
 50
130.796126114
 51
140.2015686573
  0
ARC
  5
2FF
100
AcDbEntity
  8
0
100
AcDbCircle
 62
7
  6
CONTINUOUS
 10
103.9738303078
 20
106.0777893352
 40
40.6857958969
100
AcDbArc
 50
101.5448035028
 51
109.203873886
  0
ARC
  5
300
100
AcDbEntity
  8
0
100
AcDbCircle
 62
7
  6
CONTINUOUS
 10
103.9738303078
 20
106.0777893352
 40
40.6857958969
100
AcDbArc
 50
70.796126114
 51
80.2015686573
  0
ARC
  5
301
100
AcDbEntity
  8
0
100
AcDbCircle
 62
7
  6
CONTINUOUS
 10
103.9738303078
 20
106.0777893352
 40
40.6857958969
100
AcDbArc
 50
41.5448035028
 51
49.203873886
  0
ARC
  5
302
100
AcDbEntity
  8
0
100
AcDbCircle
 62
7
  6
CONTINUOUS
 10
128.1400187781
 20
146.6948555909
 40
21.6666666667
100
AcDbArc
 50
191.7820691319
 51
202.1860444241
  0
ARC
  5
303
100
AcDbEntity
  8
0
100
AcDbCircle
 62
7
  6
CONTINUOUS
 10
104.2032014183
 20
154.7350717522
 40
21.6666666667
100
AcDbArc
 50
300.6802472651
 51
318.6828532772
  0
ARC
  5
304
100
AcDbEntity
  8
0
100
AcDbCircle
 62
7
  6
CONTINUOUS
 10
145.9975874049
 20
130.6050717522
 40
21.6666666667
100
AcDbArc
 50
161.3171467228
 51
178.7498366932
  0
ARC
  5
305
100
AcDbEntity
  8
0
100
AcDbCircle
 62
7
  6
CONTINUOUS
 10
127.0661472774
 20
147.3148555909
 40
21.6666666667
100
AcDbArc
 50
277.8139555759
 51
288.2179308681
  0
ARC
  5
306
100
AcDbEntity
  8
0
100
AcDbCircle
 62
7
  6
CONTINUOUS
 10
146.2269585153
 20
130.2077893352
 40
21.6666666667
100
AcDbArc
 50
240.6802472651
 51
258.6828532772
  0
ARC
  5
307
100
AcDbEntity
  8
0
100
AcDbCircle
 62
7
  6
CONTINUOUS
 10
151.2323357476
 20
106.6977893352
 40
21.6666666667
100
AcDbArc
 50
217.8139555759
 51
228.2179308681
  0
ARC
  5
308
100
AcDbEntity
  8
RUNDUNGEN
100
AcDbCircle
 62
7
  6
CONTINUOUS
 10
146.2269585153
 20
130.2077893352
 40
16.6666666666
100
AcDbArc
 50
247.2282978974
 51
264.7557727191
  0
ARC
  5
309
100
AcDbEntity
  8
RUNDUNGEN
100
AcDbCircle
 62
7
  6
CONTINUOUS
 10
127.0661472774
 20
147.3148555909
 40
16.6666666666
100
AcDbArc
 50
282.6204782948
 51
293.7473672409
  0
ARC
  5
30A
100
AcDbEntity
  8
RUNDUNGEN
100
AcDbCircle
 62
7
  6
CONTINUOUS
 10
145.9975874049
 20
130.6050717522
 40
16.6666666666
100
AcDbArc
 50
155.2442272809
 51
172.7717021026
  0
ARC
  5
30B
100
AcDbEntity
  8
RUNDUNGEN
100
AcDbCircle
 62
7
  6
CONTINUOUS
 10
104.2032014183
 20
154.7350717522
 40
16.6666666666
100
AcDbArc
 50
307.2282978974
 51
324.7557727191
  0
ARC
  5
30C
100
AcDbEntity
  8
RUNDUNGEN
100
AcDbCircle
 62
7
  6
CONTINUOUS
 10
128.1400187781
 20
146.6948555909
 40
16.6666666666
100
AcDbArc
 50
186.2526327591
 51
197.3795217052
  0
ARC
  5
30D
100
AcDbEntity
  8
RUNDUNGEN
100
AcDbCircle
 62
7
  6
CONTINUOUS
 10
151.2323357476
 20
106.6977893352
 40
16.6666666666
100
AcDbArc
 50
222.6204782948
 51
233.7473672409
  0
ARC
  5
30E
100
AcDbEntity
  8
0
100
AcDbCircle
 62
7
  6
CONTINUOUS
 10
103.9738303078
 20
106.0777893352
 40
12.5
100
AcDbArc
 50
108.6629248849
 51
71.3370751151
  0
ARC
  5
30F
100
AcDbEntity
  8
0
100
AcDbCircle
 62
7
  6
CONTINUOUS
 10
112.707308973
 20
140.4012679139
 40
5.0
100
AcDbArc
 50
202.1860444241
 51
300.6802472651
  0
ARC
  5
310
100
AcDbEntity
  8
0
100
AcDbCircle
 62
7
  6
CONTINUOUS
 10
129.3320953707
 20
130.802943012
 40
5.0
100
AcDbArc
 50
265.8910636765
 51
277.8139555759
  0
ARC
  5
311
100
AcDbEntity
  8
0
100
AcDbCircle
 62
7
  6
CONTINUOUS
 10
138.0655740358
 20
115.6761142371
 40
5.0
100
AcDbArc
 50
142.1860444241
 51
240.6802472651
  0
ARC
  5
312
100
AcDbEntity
  8
RUNDUNGEN
100
AcDbCircle
 62
7
  6
CONTINUOUS
 10
128.5923184681
 20
138.6311370614
 40
2.5
100
AcDbArc
 50
335.2442272809
 51
60.0
  0
ARC
  5
313
100
AcDbEntity
  8
RUNDUNGEN
100
AcDbCircle
 62
7
  6
CONTINUOUS
 10
119.8566123368
 20
143.6746993478
 40
2.5
100
AcDbArc
 50
60.0
 51
144.7557727191
  0
ARC
  5
314
100
AcDbEntity
  8
RUNDUNGEN
100
AcDbCircle
 62
7
  6
CONTINUOUS
 10
144.4751004971
 20
111.1213516216
 40
2.5
100
AcDbArc
 50
0.0
 51
84.7557727191
  0
ARC
  5
315
100
AcDbEntity
  8
0
100
AcDbCircle
 62
7
  6
CONTINUOUS
 10
126.9738303078
 20
129.0777893352
 40
2.0
100
AcDbArc
 50
0.0
 51
90.0
  0
ARC
  5
316
100
AcDbEntity
  8
RUNDUNGEN
100
AcDbCircle
 62
7
  6
CONTINUOUS
 10
140.1938639374
 20
120.5109147428
 40
2.0
100
AcDbArc
 50
306.2526327591
 51
18.0
  0
ARC
  5
317
100
AcDbEntity
  8
RUNDUNGEN
100
AcDbCircle
 62
7
  6
CONTINUOUS
 10
134.5833003816
 20
130.2286958805
 40
2.0
100
AcDbArc
 50
42.0
 51
113.7473672409
  0
ARC
  5
318
100
AcDbEntity
  8
RUNDUNGEN
100
AcDbCircle
 62
7
  6
CONTINUOUS
 10
109.5843938636
 20
144.6618212881
 40
2.0
100
AcDbArc
 50
6.2526327591
 51
78.0
  0
ENDSEC
  0
SECTION
  2
OBJECTS
  0
DICTIONARY
  5
C
100
AcDbDictionary
280
0
281
1
  3
ACAD_GROUP
350
D
  3
ACAD_MLINESTYLE
350
17
  3
ACAD_LAYOUT
350
1A
  3
ACAD_PLOTSETTINGS
350
19
  3
ACAD_PLOTSTYLENAME
350
E
  0
DICTIONARY
  5
D
102
{ACAD_REACTORS
330
C
102
}
100
AcDbDictionary
280
0
281
1
  0
ACDBDICTIONARYWDFLT
  5
E
102
{ACAD_REACTORS
330
C
102
}
100
AcDbDictionary
281
1
  3
Normal
350
F
100
AcDbDictionaryWithDefault
340
F
  0
DICTIONARY
  5
17
102
{ACAD_REACTORS
330
C
102
}
100
AcDbDictionary
280
0
281
1
  3
Standard
350
18
  0
DICTIONARY
  5
19
102
{ACAD_REACTORS
330
C
102
}
100
AcDbDictionary
281
1
  0
DICTIONARY
  5
1A
102
{ACAD_REACTORS
330
C
102
}
100
AcDbDictionary
281
1
  3
Model
350
319
  3
Layout1
350
31A
  0
ACDBPLACEHOLDER
  5
F
102
{ACAD_REACTORS
330
E
102
}
  0
MLINESTYLE
  5
18
102
{ACAD_REACTORS
330
17
102
}
100
AcDbMlineStyle
  2
STANDARD
 70
0
  3

 62
256
 51
90.0
 52
90.0
 71
2
 49
0.5
 62
256
  6
BYLAYER
 49
-0.5
 62
256
  6
BYLAYER
  0
LAYOUT
  5
319
102
{ACAD_REACTORS
330
1A
102
}
100
AcDbPlotSettings
  1

  2
none_device
  4
ISO_A4_(297.00_x_210.00_MM)
  6

 40
0.0
 41
0.0
 42
0.0
 43
0.0
 44
297.0
 45
210.0
 46
0.0
 47
0.0
 48
0.0
 49
0.0
140
0.0
141
0.0
142
1.0
143
1.0
 70
1024
 72
1
 73
0
 74
0
  7

 75
0
147
1.0
148
0.0
149
0.0
100
AcDbLayout
  1
Model
 70
0
 71
0
 10
0.0
 20
0.0
 11
297.0
 21
210.0
 12
0.0
 22
0.0
 32
0.0
 14
0.0
 24
0.0
 34
0.0
 15
0.0
 25
0.0
 35
0.0
146
0.0
 13
0.0
 23
0.0
 33
0.0
 16
1.0
 26
0.0
 36
0.0
 17
0.0
 27
1.0
 37
0.0
 76
0
330
210
345
0
346
0
  0
LAYOUT
  5
31A
102
{ACAD_REACTORS
330
1A
102
}
100
AcDbPlotSettings
  1

  2
none_device
  4
ISO_A4_(297.00_x_210.00_MM)
  6

 40
0.0
 41
0.0
 42
0.0
 43
0.0
 44
297.0
 45
210.0
 46
0.0
 47
0.0
 48
0.0
 49
0.0
140
0.0
141
0.0
142
1.0
143
1.0
 70
0
 72
1
 73
0
 74
0
  7

 75
0
147
1.0
148
0.0
149
0.0
100
AcDbLayout
  1
Layout1
 70
0
 71
1
 10
0.0
 20
0.0
 11
297.0
 21
210.0
 12
0.0
 22
0.0
 32
0.0
 14
0.0
 24
0.0
 34
0.0
 15
0.0
 25
0.0
 35
0.0
146
0.0
 13
0.0
 23
0.0
 33
0.0
 16
1.0
 26
0.0
 36
0.0
 17
0.0
 27
1.0
 37
0.0
 76
0
330
211
345
0
346
0
  0
ENDSEC
  0
EOF
