999
DXF file: z16.dxf
999
Pro/ENGINEER 2008490 by Parametric Technology Corporation
  0
SECTION
  2
HEADER
  9
$ACADVER
  1
AC1021
  9
$DWGCODEPAGE
  3
ANSI_1252
  9
$EXTMAX
 10
420.0
 20
297.0
 30
0.0
  9
$EXTMIN
 10
0.0
 20
0.0
 30
0.0
  9
$LIMMIN
 10
0.0
 20
0.0
  9
$LIMMAX
 10
420.0
 20
297.0
  9
$VIEWCTR
 10
210.0
 20
148.5
  9
$VIEWSIZE
 40
297.0
  9
$CLAYER
  8
0
  9
$LTSCALE
 40
23.1
  9
$CELTYPE
  6
BYLAYER
  9
$DIMSCALE
 40
1.0
  9
$DIMASZ
 40
3.5
  9
$DIMEXO
 40
2.625
  9
$DIMDLI
 40
15.96
  9
$DIMEXE
 40
7.56
  9
$DIMCEN
 40
3.78
  9
$DIMLFAC
 40
1.0
  9
$DIMBLK
  1
_FILLED
  9
$DIMTXT
 40
3.5
  9
$DIMTOL
 70
1
  9
$DIMLIM
 70
0
  9
$DIMTFAC
 40
1.0
  9
$DIMTP
 40
0.005
  9
$DIMTM
 40
0.005
  9
$PDMODE
 70
3
  9
$PDSIZE
 40
0.3125
  9
$HANDSEED
  5
45D
  9
$TILEMODE
 70
1
  9
$MEASUREMENT
 70
1
  9
$INSUNITS
 70
4
  0
ENDSEC
  0
SECTION
  2
CLASSES
  0
CLASS
  1
ACDBDICTIONARYWDFLT
  2
AcDbDictionaryWithDefault
  3
AutoCAD 2000
 90
0
 91
1
280
0
281
0
  0
CLASS
  1
ACDBPLACEHOLDER
  2
AcDbPlaceHolder
  3
AutoCAD 2000
 90
0
 91
1
280
0
281
0
  0
CLASS
  1
LAYOUT
  2
AcDbLayout
  3
AutoCAD 2000
 90
0
 91
0
280
0
281
0
  0
ENDSEC
  0
SECTION
  2
TABLES
  0
TABLE
  2
VPORT
  5
8
100
AcDbSymbolTable
 70
2
  0
VPORT
  5
1F4
100
AcDbSymbolTableRecord
100
AcDbViewportTableRecord
  2
*ACTIVE
 70
0
 10
0.0
 20
0.0
 11
1.0
 21
1.0
 12
210.0
 22
148.5
 13
0.0
 23
0.0
 14
1.0
 24
1.0
 15
0.0
 25
0.0
 16
0.0
 26
0.0
 36
1.0
 17
0.0
 27
0.0
 37
0.0
 40
297.0
 41
1.4141414141
 42
50.0
 43
0.0
 44
0.0
 50
0.0
 51
0.0
 71
0
 72
100
 73
1
 74
1
 75
0
 76
0
 77
0
 78
0
  0
ENDTAB
  0
TABLE
  2
LTYPE
  5
5
100
AcDbSymbolTable
 70
6
  0
LTYPE
  5
14
100
AcDbSymbolTableRecord
100
AcDbLinetypeTableRecord
  2
BYBLOCK
 70
0
  3

 72
65
 73
0
 40
0.0
  0
LTYPE
  5
15
100
AcDbSymbolTableRecord
100
AcDbLinetypeTableRecord
  2
BYLAYER
 70
0
  3

 72
65
 73
0
 40
0.0
  0
LTYPE
  5
16
100
AcDbSymbolTableRecord
100
AcDbLinetypeTableRecord
  2
CONTINUOUS
 70
64
  3
Solid line
 72
65
 73
0
 40
0.0
  0
LTYPE
  5
1F5
100
AcDbSymbolTableRecord
100
AcDbLinetypeTableRecord
  2
CENTER
 70
64
  3
____ _ ____ _ ____ _ ____ _ ____ _ ____ _ ____
 72
65
 73
4
 40
0.6
 49
0.375
 74
0
 49
-0.075
 74
0
 49
0.075
 74
0
 49
-0.075
 74
0
  0
LTYPE
  5
1F6
100
AcDbSymbolTableRecord
100
AcDbLinetypeTableRecord
  2
HIDDEN
 70
64
  3
- - - - - - - - - - - - - - - - - - - -
 72
65
 73
2
 40
0.2
 49
0.1
 74
0
 49
-0.1
 74
0
  0
LTYPE
  5
1F7
100
AcDbSymbolTableRecord
100
AcDbLinetypeTableRecord
  2
PHANTOM
 70
64
  3
_____ _ _ _____ _ _ _____ _ _ _____
 72
65
 73
6
 40
0.8
 49
0.45
 74
0
 49
-0.05
 74
0
 49
0.1
 74
0
 49
-0.05
 74
0
 49
0.1
 74
0
 49
-0.05
 74
0
  0
LTYPE
  5
1F8
100
AcDbSymbolTableRecord
100
AcDbLinetypeTableRecord
  2
DOT
 70
64
  3
. . . . . . . . . . . . . . . . . . . .
 72
65
 73
2
 40
0.2
 49
0.1
 74
0
 49
-0.1
 74
0
  0
LTYPE
  5
1F9
100
AcDbSymbolTableRecord
100
AcDbLinetypeTableRecord
  2
DASHED
 70
64
  3
- - - - - - - - - - - - - - - - - - - -
 72
65
 73
2
 40
0.2
 49
0.1
 74
0
 49
-0.1
 74
0
  0
ENDTAB
  0
TABLE
  2
LAYER
  5
2
100
AcDbSymbolTable
 70
36
  0
LAYER
  5
10
100
AcDbSymbolTableRecord
100
AcDbLayerTableRecord
  2
0
 70
0
 62
7
  6
CONTINUOUS
370
-3
390
F
  0
LAYER
  5
1FA
100
AcDbSymbolTableRecord
100
AcDbLayerTableRecord
  2
DEFAULT_1
 70
0
 62
7
  6
CENTER
370
-3
390
F
  0
LAYER
  5
1FB
100
AcDbSymbolTableRecord
100
AcDbLayerTableRecord
  2
DEFAULT_2
 70
0
 62
8
  6
HIDDEN
370
-3
390
F
  0
LAYER
  5
1FC
100
AcDbSymbolTableRecord
100
AcDbLayerTableRecord
  2
DEFAULT_3
 70
0
 62
7
  6
PHANTOM
370
-3
390
F
  0
LAYER
  5
1FD
100
AcDbSymbolTableRecord
100
AcDbLayerTableRecord
  2
01___PRT_ALL_DTM_PLN
 70
0
 62
7
  6
CONTINUOUS
370
-3
390
F
  0
LAYER
  5
1FE
100
AcDbSymbolTableRecord
100
AcDbLayerTableRecord
  2
01___PRT_DEF_DTM_PLN
 70
0
 62
7
  6
CONTINUOUS
370
-3
390
F
  0
LAYER
  5
1FF
100
AcDbSymbolTableRecord
100
AcDbLayerTableRecord
  2
02___PRT_ALL_AXES
 70
0
 62
7
  6
CONTINUOUS
370
-3
390
F
  0
LAYER
  5
200
100
AcDbSymbolTableRecord
100
AcDbLayerTableRecord
  2
03___PRT_ALL_CURVES
 70
0
 62
7
  6
CONTINUOUS
370
-3
390
F
  0
LAYER
  5
201
100
AcDbSymbolTableRecord
100
AcDbLayerTableRecord
  2
04___PRT_ALL_DTM_PNT
 70
0
 62
7
  6
CONTINUOUS
370
-3
390
F
  0
LAYER
  5
202
100
AcDbSymbolTableRecord
100
AcDbLayerTableRecord
  2
05___PRT_ALL_DTM_CSYS
 70
0
 62
7
  6
CONTINUOUS
370
-3
390
F
  0
LAYER
  5
203
100
AcDbSymbolTableRecord
100
AcDbLayerTableRecord
  2
05___PRT_DEF_DTM_CSYS
 70
0
 62
7
  6
CONTINUOUS
370
-3
390
F
  0
LAYER
  5
204
100
AcDbSymbolTableRecord
100
AcDbLayerTableRecord
  2
06___PRT_ALL_SURFS
 70
0
 62
7
  6
CONTINUOUS
370
-3
390
F
  0
LAYER
  5
205
100
AcDbSymbolTableRecord
100
AcDbLayerTableRecord
  2
BEZUGSACHSEN
 70
0
 62
7
  6
CONTINUOUS
370
-3
390
F
  0
LAYER
  5
206
100
AcDbSymbolTableRecord
100
AcDbLayerTableRecord
  2
BEZUGSEBENE
 70
0
 62
7
  6
CONTINUOUS
370
-3
390
F
  0
LAYER
  5
207
100
AcDbSymbolTableRecord
100
AcDbLayerTableRecord
  2
BEZUGSEBENEN
 70
0
 62
7
  6
CONTINUOUS
370
-3
390
F
  0
LAYER
  5
208
100
AcDbSymbolTableRecord
100
AcDbLayerTableRecord
  2
BEZUGSEBENEN-KES
 70
0
 62
7
  6
CONTINUOUS
370
-3
390
F
  0
LAYER
  5
209
100
AcDbSymbolTableRecord
100
AcDbLayerTableRecord
  2
KURVEN
 70
0
 62
7
  6
CONTINUOUS
370
-3
390
F
  0
LAYER
  5
20A
100
AcDbSymbolTableRecord
100
AcDbLayerTableRecord
  2
RUNDUNGEN
 70
0
 62
7
  6
CONTINUOUS
370
-3
390
F
  0
LAYER
  5
20B
100
AcDbSymbolTableRecord
100
AcDbLayerTableRecord
  2
XSEC_DATUMS
 70
0
 62
7
  6
CONTINUOUS
370
-3
390
F
  0
LAYER
  5
20C
100
AcDbSymbolTableRecord
100
AcDbLayerTableRecord
  2
ZEICHNUNGSBEMASSUNGEN
 70
0
 62
7
  6
CONTINUOUS
370
-3
390
F
  0
LAYER
  5
20D
100
AcDbSymbolTableRecord
100
AcDbLayerTableRecord
  2
ZEICHNUNGSNOTIZEN
 70
0
 62
7
  6
CONTINUOUS
370
-3
390
F
  0
ENDTAB
  0
TABLE
  2
STYLE
  5
3
100
AcDbSymbolTable
 70
1
  0
STYLE
  5
11
100
AcDbSymbolTableRecord
100
AcDbTextStyleTableRecord
  2
STANDARD
 70
0
 40
0.0
 41
0.7
 50
0.0
 71
0
 42
0.2
  3
txt
  4

  0
STYLE
  5
20E
100
AcDbSymbolTableRecord
100
AcDbTextStyleTableRecord
  2
TEXTSTYLE_1
 70
0
 40
0.0
 41
0.8
 50
0.0
 71
0
 42
0.2
  3
gdt
  4

  0
ENDTAB
  0
TABLE
  2
VIEW
  5
6
100
AcDbSymbolTable
 70
0
  0
ENDTAB
  0
TABLE
  2
UCS
  5
7
100
AcDbSymbolTable
 70
0
  0
ENDTAB
  0
TABLE
  2
APPID
  5
9
100
AcDbSymbolTable
 70
1
  0
APPID
  5
20F
100
AcDbSymbolTableRecord
100
AcDbRegAppTableRecord
  2
ACAD
 70
0
  0
ENDTAB
  0
TABLE
  2
BLOCK_RECORD
  5
1
100
AcDbSymbolTable
 70
0
  0
BLOCK_RECORD
  5
210
100
AcDbSymbolTableRecord
100
AcDbBlockTableRecord
  2
*Model_Space
  0
BLOCK_RECORD
  5
211
100
AcDbSymbolTableRecord
100
AcDbBlockTableRecord
  2
*Paper_Space
  0
ENDTAB
  0
TABLE
  2
DIMSTYLE
  5
A
100
AcDbSymbolTable
 70
1
100
AcDbDimStyleTable
 71
0
  0
DIMSTYLE
105
212
100
AcDbSymbolTableRecord
100
AcDbDimStyleTableRecord
  2
STANDARD
 70
0
  3

  4

 40
1.0
 41
3.5
 42
0.0625
 43
0.38
 44
0.18
 45
0.0
 46
0.0
 47
0.005
 48
0.005
140
3.5
141
0.09
142
0.0
143
25.4
144
1.0
145
0.0
146
1.0
147
0.09
 71
1.0
 72
0.0
 73
0
 74
0
 75
0
 76
0
 77
1
 78
8
170
0
171
2
172
0
173
0
174
0
175
0
176
0
177
0
178
5
270
2
271
3
272
3
273
2
274
2
275
0
280
0
281
0
282
0
283
1
284
8
285
0
286
0
287
3
288
0
340
11
  0
ENDTAB
  0
ENDSEC
  0
SECTION
  2
BLOCKS
  0
BLOCK
  5
20
100
AcDbEntity
  8
0
100
AcDbBlockBegin
  2
*Model_Space
 70
0
 10
0.0
 20
0.0
 30
0.0
  3
*Model_Space
  1

  0
ENDBLK
  5
21
100
AcDbEntity
  8
0
100
AcDbBlockEnd
  0
BLOCK
  5
1C
100
AcDbEntity
  8
0
100
AcDbBlockBegin
  2
*Paper_Space
 70
0
 10
0.0
 20
0.0
 30
0.0
  3
*Paper_Space
  1

  0
ENDBLK
  5
1D
100
AcDbEntity
  8
0
100
AcDbBlockEnd
  0
ENDSEC
  0
SECTION
  2
ENTITIES
  0
LINE
  5
213
100
AcDbEntity
  8
0
100
AcDbLine
 62
7
  6
CONTINUOUS
 10
377.9307083471
 20
174.5298985358
 11
337.9307083471
 21
174.5298985358
  0
LINE
  5
214
100
AcDbEntity
  8
0
100
AcDbLine
 62
7
  6
CONTINUOUS
 10
337.9307083471
 20
174.5298985358
 11
337.9307083471
 21
178.5298985358
  0
LINE
  5
215
100
AcDbEntity
  8
0
100
AcDbLine
 62
7
  6
CONTINUOUS
 10
337.9307083471
 20
178.5298985358
 11
355.4307083471
 21
178.5298985358
  0
LINE
  5
216
100
AcDbEntity
  8
0
100
AcDbLine
 62
7
  6
CONTINUOUS
 10
355.4307083471
 20
178.5298985358
 11
355.4307083471
 21
273.9133858389
  0
LINE
  5
217
100
AcDbEntity
  8
0
100
AcDbLine
 62
7
  6
CONTINUOUS
 10
355.4307083471
 20
273.9133858389
 11
347.9307083471
 21
273.9133858389
  0
LINE
  5
218
100
AcDbEntity
  8
0
100
AcDbLine
 62
7
  6
CONTINUOUS
 10
347.9307083471
 20
273.9133858389
 11
347.9307083471
 21
278.9133858389
  0
LINE
  5
219
100
AcDbEntity
  8
0
100
AcDbLine
 62
7
  6
CONTINUOUS
 10
347.9307083471
 20
278.9133858389
 11
367.9307083471
 21
278.9133858389
  0
LINE
  5
21A
100
AcDbEntity
  8
0
100
AcDbLine
 62
7
  6
CONTINUOUS
 10
367.9307083471
 20
278.9133858389
 11
367.9307083471
 21
273.9133858389
  0
LINE
  5
21B
100
AcDbEntity
  8
0
100
AcDbLine
 62
7
  6
CONTINUOUS
 10
367.9307083471
 20
273.9133858389
 11
360.4307083471
 21
273.9133858389
  0
LINE
  5
21C
100
AcDbEntity
  8
0
100
AcDbLine
 62
7
  6
CONTINUOUS
 10
360.4307083471
 20
273.9133858389
 11
360.4307083471
 21
178.5298985358
  0
LINE
  5
21D
100
AcDbEntity
  8
0
100
AcDbLine
 62
7
  6
CONTINUOUS
 10
360.4307083471
 20
178.5298985358
 11
377.9307083471
 21
178.5298985358
  0
LINE
  5
21E
100
AcDbEntity
  8
0
100
AcDbLine
 62
7
  6
CONTINUOUS
 10
377.9307083471
 20
178.5298985358
 11
377.9307083471
 21
174.5298985358
  0
HATCH
  5
21F
100
AcDbEntity
  8
0
100
AcDbHatch
 62
2
  6
CONTINUOUS
 10
0.0
 20
0.0
 30
0.0
210
0.0
220
0.0
230
1.0
  2
A
 70
0
 71
1
 91
1
 92
1
 93
12
 72
1
 10
377.9307083471
 20
174.5298985358
 11
337.9307083471
 21
174.5298985358
 72
1
 10
337.9307083471
 20
174.5298985358
 11
337.9307083471
 21
178.5298985358
 72
1
 10
337.9307083471
 20
178.5298985358
 11
355.4307083471
 21
178.5298985358
 72
1
 10
355.4307083471
 20
178.5298985358
 11
355.4307083471
 21
273.9133858389
 72
1
 10
355.4307083471
 20
273.9133858389
 11
347.9307083471
 21
273.9133858389
 72
1
 10
347.9307083471
 20
273.9133858389
 11
347.9307083471
 21
278.9133858389
 72
1
 10
347.9307083471
 20
278.9133858389
 11
367.9307083471
 21
278.9133858389
 72
1
 10
367.9307083471
 20
278.9133858389
 11
367.9307083471
 21
273.9133858389
 72
1
 10
367.9307083471
 20
273.9133858389
 11
360.4307083471
 21
273.9133858389
 72
1
 10
360.4307083471
 20
273.9133858389
 11
360.4307083471
 21
178.5298985358
 72
1
 10
360.4307083471
 20
178.5298985358
 11
377.9307083471
 21
178.5298985358
 72
1
 10
377.9307083471
 20
178.5298985358
 11
377.9307083471
 21
174.5298985358
 97
12
330
213
330
214
330
215
330
216
330
217
330
218
330
219
330
21A
330
21B
330
21C
330
21D
330
21E
 75
0
 76
0
 52
45.0
 41
7.3638909179
 77
0
 78
1
 53
45.0
 43
-1.9526464515
 44
1.9526464515
 45
-5.207057204
 46
5.207057204
 79
0
 98
1
 10
0.0
 20
0.0
  0
LINE
  5
220
100
AcDbEntity
  8
0
100
AcDbLine
 62
7
  6
CONTINUOUS
 10
0.0
 20
0.0
 11
0.0
 21
297.0
  0
LINE
  5
221
100
AcDbEntity
  8
0
100
AcDbLine
 62
7
  6
CONTINUOUS
 10
0.0
 20
0.0
 11
420.0
 21
0.0
  0
LINE
  5
222
100
AcDbEntity
  8
0
100
AcDbLine
 62
7
  6
CONTINUOUS
 10
0.0
 20
297.0
 11
420.0
 21
297.0
  0
LINE
  5
223
100
AcDbEntity
  8
0
100
AcDbLine
 62
7
  6
CONTINUOUS
 10
420.0
 20
0.0
 11
420.0
 21
297.0
  0
LINE
  5
224
100
AcDbEntity
  8
RUNDUNGEN
100
AcDbLine
 62
7
  6
CONTINUOUS
 10
51.30009968
 20
130.101514838
 11
51.9911936709
 21
121.3203330979
  0
LINE
  5
225
100
AcDbEntity
  8
RUNDUNGEN
100
AcDbLine
 62
7
  6
CONTINUOUS
 10
43.6990509776
 20
158.5734608222
 11
43.6990509776
 21
148.4863362494
  0
LINE
  5
226
100
AcDbEntity
  8
0
100
AcDbLine
 62
7
  6
CONTINUOUS
 10
48.6990509776
 20
150.6452779825
 11
48.6990509776
 21
156.414519089
  0
LINE
  5
227
100
AcDbEntity
  8
RUNDUNGEN
100
AcDbLine
 62
7
  6
CONTINUOUS
 10
51.9911936709
 20
185.7394639737
 11
51.30009968
 21
176.9582822336
  0
LINE
  5
228
100
AcDbEntity
  8
RUNDUNGEN
100
AcDbLine
 62
7
  6
CONTINUOUS
 10
51.30009968
 20
176.9582822336
 11
48.5781745047
 21
168.5810579322
  0
LINE
  5
229
100
AcDbEntity
  8
RUNDUNGEN
100
AcDbLine
 62
7
  6
CONTINUOUS
 10
55.1733883736
 20
206.1717257862
 11
51.3132129194
 21
196.8524378515
  0
LINE
  5
22A
100
AcDbEntity
  8
0
100
AcDbLine
 62
7
  6
CONTINUOUS
 10
56.7588018147
 20
196.9336227688
 11
58.9665948035
 21
202.2637065453
  0
LINE
  5
22B
100
AcDbEntity
  8
RUNDUNGEN
100
AcDbLine
 62
7
  6
CONTINUOUS
 10
73.2303086183
 20
228.0965744505
 11
69.2314082565
 21
220.2482905901
  0
LINE
  5
22C
100
AcDbEntity
  8
RUNDUNGEN
100
AcDbLine
 62
7
  6
CONTINUOUS
 10
69.2314082565
 20
220.2482905901
 11
63.5108523487
 21
213.5503801875
  0
LINE
  5
22D
100
AcDbEntity
  8
RUNDUNGEN
100
AcDbLine
 62
7
  6
CONTINUOUS
 10
83.989361254
 20
245.7557497507
 11
76.8566870658
 21
238.6230755626
  0
LINE
  5
22E
100
AcDbEntity
  8
0
100
AcDbLine
 62
7
  6
CONTINUOUS
 10
81.9188233115
 20
236.6141439964
 11
85.9982928202
 21
240.6936135051
  0
LINE
  5
22F
100
AcDbEntity
  8
RUNDUNGEN
100
AcDbLine
 62
7
  6
CONTINUOUS
 10
109.0620566291
 20
259.1015844679
 11
102.3641462265
 21
253.38102856
  0
LINE
  5
230
100
AcDbEntity
  8
RUNDUNGEN
100
AcDbLine
 62
7
  6
CONTINUOUS
 10
102.3641462265
 20
253.38102856
 11
94.5158623661
 21
249.3821281983
  0
LINE
  5
231
100
AcDbEntity
  8
RUNDUNGEN
100
AcDbLine
 62
7
  6
CONTINUOUS
 10
125.7599989651
 20
271.2992238972
 11
116.4407110303
 21
267.4390484429
  0
LINE
  5
232
100
AcDbEntity
  8
0
100
AcDbLine
 62
7
  6
CONTINUOUS
 10
120.3487302713
 20
263.6458420131
 11
125.6788140477
 21
265.8536350019
  0
LINE
  5
233
100
AcDbEntity
  8
RUNDUNGEN
100
AcDbLine
 62
7
  6
CONTINUOUS
 10
154.0313788844
 20
274.0342623118
 11
145.6541545829
 21
271.3123371365
  0
LINE
  5
234
100
AcDbEntity
  8
RUNDUNGEN
100
AcDbLine
 62
7
  6
CONTINUOUS
 10
192.5109219786
 20
35.7474599351
 11
201.2921037187
 21
36.4385539259
  0
LINE
  5
235
100
AcDbEntity
  8
RUNDUNGEN
100
AcDbLine
 62
7
  6
CONTINUOUS
 10
164.0389759943
 20
28.1464112326
 11
174.1261005672
 21
28.1464112326
  0
LINE
  5
236
100
AcDbEntity
  8
0
100
AcDbLine
 62
7
  6
CONTINUOUS
 10
171.967158834
 20
33.1464112326
 11
166.1979177275
 21
33.1464112326
  0
LINE
  5
237
100
AcDbEntity
  8
RUNDUNGEN
100
AcDbLine
 62
7
  6
CONTINUOUS
 10
136.8729728429
 20
36.4385539259
 11
145.6541545829
 21
35.7474599351
  0
LINE
  5
238
100
AcDbEntity
  8
RUNDUNGEN
100
AcDbLine
 62
7
  6
CONTINUOUS
 10
145.6541545829
 20
35.7474599351
 11
154.0313788844
 21
33.0255347598
  0
LINE
  5
239
100
AcDbEntity
  8
RUNDUNGEN
100
AcDbLine
 62
7
  6
CONTINUOUS
 10
116.4407110303
 20
39.6207486286
 11
125.7599989651
 21
35.7605731744
  0
LINE
  5
23A
100
AcDbEntity
  8
0
100
AcDbLine
 62
7
  6
CONTINUOUS
 10
125.6788140477
 20
41.2061620697
 11
120.3487302713
 21
43.4139550585
  0
LINE
  5
23B
100
AcDbEntity
  8
RUNDUNGEN
100
AcDbLine
 62
7
  6
CONTINUOUS
 10
94.5158623661
 20
57.6776688733
 11
102.3641462265
 21
53.6787685116
  0
LINE
  5
23C
100
AcDbEntity
  8
RUNDUNGEN
100
AcDbLine
 62
7
  6
CONTINUOUS
 10
102.3641462265
 20
53.6787685116
 11
109.0620566291
 21
47.9582126037
  0
LINE
  5
23D
100
AcDbEntity
  8
RUNDUNGEN
100
AcDbLine
 62
7
  6
CONTINUOUS
 10
76.8566870658
 20
68.436721509
 11
83.989361254
 21
61.3040473209
  0
LINE
  5
23E
100
AcDbEntity
  8
0
100
AcDbLine
 62
7
  6
CONTINUOUS
 10
85.9982928202
 20
66.3661835665
 11
81.9188233115
 21
70.4456530752
  0
LINE
  5
23F
100
AcDbEntity
  8
RUNDUNGEN
100
AcDbLine
 62
7
  6
CONTINUOUS
 10
63.5108523487
 20
93.5094168841
 11
69.2314082565
 21
86.8115064815
  0
LINE
  5
240
100
AcDbEntity
  8
RUNDUNGEN
100
AcDbLine
 62
7
  6
CONTINUOUS
 10
69.2314082565
 20
86.8115064815
 11
73.2303086183
 21
78.9632226211
  0
LINE
  5
241
100
AcDbEntity
  8
RUNDUNGEN
100
AcDbLine
 62
7
  6
CONTINUOUS
 10
51.3132129194
 20
110.2073592201
 11
55.1733883736
 21
100.8880712854
  0
LINE
  5
242
100
AcDbEntity
  8
0
100
AcDbLine
 62
7
  6
CONTINUOUS
 10
58.9665948035
 20
104.7960905263
 11
56.7588018147
 21
110.1261743028
  0
LINE
  5
243
100
AcDbEntity
  8
RUNDUNGEN
100
AcDbLine
 62
7
  6
CONTINUOUS
 10
48.5781745047
 20
138.4787391394
 11
51.30009968
 21
130.101514838
  0
LINE
  5
244
100
AcDbEntity
  8
0
100
AcDbLine
 62
7
  6
CONTINUOUS
 10
56.7791040467
 20
123.7699080898
 11
56.204026082
 21
131.0769664481
  0
LINE
  5
245
100
AcDbEntity
  8
0
100
AcDbLine
 62
7
  6
CONTINUOUS
 10
56.5412089302
 20
190.6616617381
 11
56.559251804
 21
188.5941531886
  0
LINE
  5
246
100
AcDbEntity
  8
0
100
AcDbLine
 62
7
  6
CONTINUOUS
 10
56.559251804
 20
118.4656438829
 11
56.5412089302
 21
116.3981353335
  0
LINE
  5
247
100
AcDbEntity
  8
0
100
AcDbLine
 62
7
  6
CONTINUOUS
 10
56.204026082
 20
175.9828306235
 11
56.7791040467
 21
183.2898889818
  0
LINE
  5
248
100
AcDbEntity
  8
0
100
AcDbLine
 62
7
  6
CONTINUOUS
 10
53.9390386702
 20
169.0119161541
 11
56.204026082
 21
175.9828306235
  0
LINE
  5
249
100
AcDbEntity
  8
0
100
AcDbLine
 62
7
  6
CONTINUOUS
 10
79.3176181242
 20
230.9028767632
 11
78.5430862979
 21
228.9858432223
  0
LINE
  5
24A
100
AcDbEntity
  8
0
100
AcDbLine
 62
7
  6
CONTINUOUS
 10
51.7060676501
 20
164.1955488292
 11
50.8981969402
 21
162.2923247059
  0
LINE
  5
24B
100
AcDbEntity
  8
0
100
AcDbLine
 62
7
  6
CONTINUOUS
 10
73.388756318
 20
217.470439425
 11
76.7163492522
 21
224.0012082756
  0
LINE
  5
24C
100
AcDbEntity
  8
0
100
AcDbLine
 62
7
  6
CONTINUOUS
 10
68.6285273309
 20
211.8969273809
 11
73.388756318
 21
217.470439425
  0
LINE
  5
24D
100
AcDbEntity
  8
0
100
AcDbLine
 62
7
  6
CONTINUOUS
 10
115.759922691
 20
259.3647572411
 11
114.3107316139
 21
257.8900496872
  0
LINE
  5
24E
100
AcDbEntity
  8
0
100
AcDbLine
 62
7
  6
CONTINUOUS
 10
64.7223871294
 20
208.3017052026
 11
63.2476795755
 21
206.8525141255
  0
LINE
  5
24F
100
AcDbEntity
  8
0
100
AcDbLine
 62
7
  6
CONTINUOUS
 10
105.1419973916
 20
249.2236804985
 11
110.7155094357
 21
253.9839094856
  0
LINE
  5
250
100
AcDbEntity
  8
0
100
AcDbLine
 62
7
  6
CONTINUOUS
 10
98.6112285409
 20
245.8960875644
 11
105.1419973916
 21
249.2236804985
  0
LINE
  5
251
100
AcDbEntity
  8
0
100
AcDbLine
 62
7
  6
CONTINUOUS
 10
160.3201121106
 20
271.7142398764
 11
158.4168879874
 21
270.9063691664
  0
LINE
  5
252
100
AcDbEntity
  8
0
100
AcDbLine
 62
7
  6
CONTINUOUS
 10
93.6265935943
 20
244.0693505187
 11
91.7095600533
 21
243.2948186923
  0
LINE
  5
253
100
AcDbEntity
  8
0
100
AcDbLine
 62
7
  6
CONTINUOUS
 10
146.629606193
 20
266.4084107345
 11
153.6005206624
 21
268.6733981464
  0
LINE
  5
254
100
AcDbEntity
  8
0
100
AcDbLine
 62
7
  6
CONTINUOUS
 10
198.8425287267
 20
41.2264643017
 11
191.5354703685
 21
40.6513863371
  0
LINE
  5
255
100
AcDbEntity
  8
0
100
AcDbLine
 62
7
  6
CONTINUOUS
 10
131.9507750785
 20
40.9885691853
 11
134.0182836279
 21
41.006612059
  0
LINE
  5
256
100
AcDbEntity
  8
0
100
AcDbLine
 62
7
  6
CONTINUOUS
 10
204.1467929336
 20
41.006612059
 11
206.2143014831
 21
40.9885691853
  0
LINE
  5
257
100
AcDbEntity
  8
0
100
AcDbLine
 62
7
  6
CONTINUOUS
 10
146.629606193
 20
40.6513863371
 11
139.3225478348
 21
41.2264643017
  0
LINE
  5
258
100
AcDbEntity
  8
0
100
AcDbLine
 62
7
  6
CONTINUOUS
 10
153.6005206624
 20
38.3863989252
 11
146.629606193
 21
40.6513863371
  0
LINE
  5
259
100
AcDbEntity
  8
0
100
AcDbLine
 62
7
  6
CONTINUOUS
 10
91.7095600533
 20
63.7649783793
 11
93.6265935943
 21
62.9904465529
  0
LINE
  5
25A
100
AcDbEntity
  8
0
100
AcDbLine
 62
7
  6
CONTINUOUS
 10
158.4168879874
 20
36.1534279051
 11
160.3201121106
 21
35.3455571952
  0
LINE
  5
25B
100
AcDbEntity
  8
0
100
AcDbLine
 62
7
  6
CONTINUOUS
 10
105.1419973916
 20
57.8361165731
 11
98.6112285409
 21
61.1637095072
  0
LINE
  5
25C
100
AcDbEntity
  8
0
100
AcDbLine
 62
7
  6
CONTINUOUS
 10
110.7155094357
 20
53.075887586
 11
105.1419973916
 21
57.8361165731
  0
LINE
  5
25D
100
AcDbEntity
  8
0
100
AcDbLine
 62
7
  6
CONTINUOUS
 10
63.2476795755
 20
100.207282946
 11
64.7223871294
 21
98.758091869
  0
LINE
  5
25E
100
AcDbEntity
  8
0
100
AcDbLine
 62
7
  6
CONTINUOUS
 10
114.3107316139
 20
49.1697473844
 11
115.759922691
 21
47.6950398305
  0
LINE
  5
25F
100
AcDbEntity
  8
0
100
AcDbLine
 62
7
  6
CONTINUOUS
 10
73.388756318
 20
89.5893576466
 11
68.6285273309
 21
95.1628696907
  0
LINE
  5
260
100
AcDbEntity
  8
0
100
AcDbLine
 62
7
  6
CONTINUOUS
 10
76.7163492522
 20
83.058588796
 11
73.388756318
 21
89.5893576466
  0
LINE
  5
261
100
AcDbEntity
  8
0
100
AcDbLine
 62
7
  6
CONTINUOUS
 10
50.8981969402
 20
144.7674723657
 11
51.7060676501
 21
142.8642482424
  0
LINE
  5
262
100
AcDbEntity
  8
0
100
AcDbLine
 62
7
  6
CONTINUOUS
 10
78.5430862979
 20
78.0739538493
 11
79.3176181242
 21
76.1569203083
  0
LINE
  5
263
100
AcDbEntity
  8
0
100
AcDbLine
 62
7
  6
CONTINUOUS
 10
56.204026082
 20
131.0769664481
 11
53.9390386702
 21
138.0478809175
  0
LINE
  5
264
100
AcDbEntity
  8
0
100
AcDbLine
 62
7
  6
CONTINUOUS
 10
144.0825382808
 20
173.5298985358
 11
144.0825382808
 21
133.5298985358
  0
LINE
  5
265
100
AcDbEntity
  8
0
100
AcDbLine
 62
7
  6
CONTINUOUS
 10
149.0825382808
 20
128.5298985358
 11
189.0825382808
 21
128.5298985358
  0
LINE
  5
266
100
AcDbEntity
  8
0
100
AcDbLine
 62
7
  6
CONTINUOUS
 10
148.0825382808
 20
163.5298985358
 11
148.0825382808
 21
143.5298985358
  0
LINE
  5
267
100
AcDbEntity
  8
RUNDUNGEN
100
AcDbLine
 62
7
  6
CONTINUOUS
 10
148.8825382808
 20
173.2298985358
 11
148.8825382808
 21
164.3298985358
  0
LINE
  5
268
100
AcDbEntity
  8
RUNDUNGEN
100
AcDbLine
 62
7
  6
CONTINUOUS
 10
148.8825382808
 20
142.7298985358
 11
148.8825382808
 21
133.8298985358
  0
LINE
  5
269
100
AcDbEntity
  8
0
100
AcDbLine
 62
7
  6
CONTINUOUS
 10
159.0825382808
 20
174.5298985358
 11
158.2825382808
 21
173.7298985358
  0
LINE
  5
26A
100
AcDbEntity
  8
0
100
AcDbLine
 62
7
  6
CONTINUOUS
 10
148.8825382808
 20
164.3298985358
 11
148.0825382808
 21
163.5298985358
  0
LINE
  5
26B
100
AcDbEntity
  8
0
100
AcDbLine
 62
7
  6
CONTINUOUS
 10
159.0825382808
 20
132.5298985358
 11
179.0825382808
 21
132.5298985358
  0
LINE
  5
26C
100
AcDbEntity
  8
RUNDUNGEN
100
AcDbLine
 62
7
  6
CONTINUOUS
 10
149.3825382808
 20
133.3298985358
 11
158.2825382808
 21
133.3298985358
  0
LINE
  5
26D
100
AcDbEntity
  8
RUNDUNGEN
100
AcDbLine
 62
7
  6
CONTINUOUS
 10
179.8825382808
 20
133.3298985358
 11
188.7825382808
 21
133.3298985358
  0
LINE
  5
26E
100
AcDbEntity
  8
0
100
AcDbLine
 62
7
  6
CONTINUOUS
 10
148.0825382808
 20
143.5298985358
 11
148.8825382808
 21
142.7298985358
  0
LINE
  5
26F
100
AcDbEntity
  8
0
100
AcDbLine
 62
7
  6
CONTINUOUS
 10
158.2825382808
 20
133.3298985358
 11
159.0825382808
 21
132.5298985358
  0
LINE
  5
270
100
AcDbEntity
  8
02___PRT_ALL_AXES
100
AcDbLine
 62
7
  6
CENTER
 10
169.0825382808
 20
153.5298985358
 11
169.0825382808
 21
103.9963431439
  0
LINE
  5
271
100
AcDbEntity
  8
02___PRT_ALL_AXES
100
AcDbLine
 62
7
  6
CENTER
 10
169.0825382808
 20
153.5298985358
 11
169.0825382808
 21
203.0634539277
  0
LINE
  5
272
100
AcDbEntity
  8
02___PRT_ALL_AXES
100
AcDbLine
 62
7
  6
CENTER
 10
169.0825382808
 20
153.5298985358
 11
119.5489828889
 21
153.5298985358
  0
LINE
  5
273
100
AcDbEntity
  8
02___PRT_ALL_AXES
100
AcDbLine
 62
7
  6
CENTER
 10
169.0825382808
 20
153.5298985358
 11
218.6160936727
 21
153.5298985358
  0
LINE
  5
274
100
AcDbEntity
  8
RUNDUNGEN
100
AcDbLine
 62
7
  6
CONTINUOUS
 10
189.2825382808
 20
133.8298985358
 11
189.2825382808
 21
142.7298985358
  0
LINE
  5
275
100
AcDbEntity
  8
RUNDUNGEN
100
AcDbLine
 62
7
  6
CONTINUOUS
 10
189.2825382808
 20
164.3298985358
 11
189.2825382808
 21
173.2298985358
  0
LINE
  5
276
100
AcDbEntity
  8
0
100
AcDbLine
 62
7
  6
CONTINUOUS
 10
190.0825382808
 20
143.5298985358
 11
190.0825382808
 21
163.5298985358
  0
LINE
  5
277
100
AcDbEntity
  8
0
100
AcDbLine
 62
7
  6
CONTINUOUS
 10
194.0825382808
 20
133.5298985358
 11
194.0825382808
 21
173.5298985358
  0
LINE
  5
278
100
AcDbEntity
  8
0
100
AcDbLine
 62
7
  6
CONTINUOUS
 10
179.0825382808
 20
132.5298985358
 11
179.8825382808
 21
133.3298985358
  0
LINE
  5
279
100
AcDbEntity
  8
0
100
AcDbLine
 62
7
  6
CONTINUOUS
 10
189.2825382808
 20
142.7298985358
 11
190.0825382808
 21
143.5298985358
  0
LINE
  5
27A
100
AcDbEntity
  8
RUNDUNGEN
100
AcDbLine
 62
7
  6
CONTINUOUS
 10
188.7825382808
 20
173.7298985358
 11
179.8825382808
 21
173.7298985358
  0
LINE
  5
27B
100
AcDbEntity
  8
RUNDUNGEN
100
AcDbLine
 62
7
  6
CONTINUOUS
 10
158.2825382808
 20
173.7298985358
 11
149.3825382808
 21
173.7298985358
  0
LINE
  5
27C
100
AcDbEntity
  8
0
100
AcDbLine
 62
7
  6
CONTINUOUS
 10
179.0825382808
 20
174.5298985358
 11
159.0825382808
 21
174.5298985358
  0
LINE
  5
27D
100
AcDbEntity
  8
0
100
AcDbLine
 62
7
  6
CONTINUOUS
 10
189.0825382808
 20
178.5298985358
 11
149.0825382808
 21
178.5298985358
  0
LINE
  5
27E
100
AcDbEntity
  8
0
100
AcDbLine
 62
7
  6
CONTINUOUS
 10
190.0825382808
 20
163.5298985358
 11
189.2825382808
 21
164.3298985358
  0
LINE
  5
27F
100
AcDbEntity
  8
0
100
AcDbLine
 62
7
  6
CONTINUOUS
 10
179.8825382808
 20
173.7298985358
 11
179.0825382808
 21
174.5298985358
  0
LINE
  5
280
100
AcDbEntity
  8
0
100
AcDbLine
 62
7
  6
CONTINUOUS
 10
281.3859725148
 20
183.2898889818
 11
281.9610504795
 21
175.9828306235
  0
LINE
  5
281
100
AcDbEntity
  8
0
100
AcDbLine
 62
7
  6
CONTINUOUS
 10
286.8649768815
 20
176.9582822336
 11
286.1738828906
 21
185.7394639737
  0
LINE
  5
282
100
AcDbEntity
  8
0
100
AcDbLine
 62
7
  6
CONTINUOUS
 10
281.6238676313
 20
116.3981353335
 11
281.6058247575
 21
118.4656438829
  0
LINE
  5
283
100
AcDbEntity
  8
0
100
AcDbLine
 62
7
  6
CONTINUOUS
 10
289.4660255839
 20
156.414519089
 11
289.4660255839
 21
150.6452779825
  0
LINE
  5
284
100
AcDbEntity
  8
0
100
AcDbLine
 62
7
  6
CONTINUOUS
 10
281.6058247575
 20
188.5941531886
 11
281.6238676313
 21
190.6616617381
  0
LINE
  5
285
100
AcDbEntity
  8
0
100
AcDbLine
 62
7
  6
CONTINUOUS
 10
281.9610504795
 20
131.0769664481
 11
281.3859725148
 21
123.7699080898
  0
LINE
  5
286
100
AcDbEntity
  8
0
100
AcDbLine
 62
7
  6
CONTINUOUS
 10
286.1738828906
 20
121.3203330979
 11
286.8649768815
 21
130.101514838
  0
LINE
  5
287
100
AcDbEntity
  8
0
100
AcDbLine
 62
7
  6
CONTINUOUS
 10
284.2260378914
 20
138.0478809175
 11
281.9610504795
 21
131.0769664481
  0
LINE
  5
288
100
AcDbEntity
  8
0
100
AcDbLine
 62
7
  6
CONTINUOUS
 10
286.8649768815
 20
130.101514838
 11
289.5869020568
 21
138.4787391394
  0
LINE
  5
289
100
AcDbEntity
  8
0
100
AcDbLine
 62
7
  6
CONTINUOUS
 10
258.8474584373
 20
76.1569203083
 11
259.6219902637
 21
78.0739538493
  0
LINE
  5
28A
100
AcDbEntity
  8
0
100
AcDbLine
 62
7
  6
CONTINUOUS
 10
281.4062747469
 20
110.1261743028
 11
279.1984817581
 21
104.7960905263
  0
LINE
  5
28B
100
AcDbEntity
  8
0
100
AcDbLine
 62
7
  6
CONTINUOUS
 10
286.4590089114
 20
142.8642482424
 11
287.2668796214
 21
144.7674723657
  0
LINE
  5
28C
100
AcDbEntity
  8
0
100
AcDbLine
 62
7
  6
CONTINUOUS
 10
264.7763202435
 20
89.5893576466
 11
261.4487273093
 21
83.058588796
  0
LINE
  5
28D
100
AcDbEntity
  8
0
100
AcDbLine
 62
7
  6
CONTINUOUS
 10
264.9347679433
 20
78.9632226211
 11
268.933668305
 21
86.8115064815
  0
LINE
  5
28E
100
AcDbEntity
  8
0
100
AcDbLine
 62
7
  6
CONTINUOUS
 10
269.5365492306
 20
95.1628696907
 11
264.7763202435
 21
89.5893576466
  0
LINE
  5
28F
100
AcDbEntity
  8
0
100
AcDbLine
 62
7
  6
CONTINUOUS
 10
268.933668305
 20
86.8115064815
 11
274.6542242129
 21
93.5094168841
  0
LINE
  5
290
100
AcDbEntity
  8
0
100
AcDbLine
 62
7
  6
CONTINUOUS
 10
222.4051538705
 20
47.6950398305
 11
223.8543449476
 21
49.1697473844
  0
LINE
  5
291
100
AcDbEntity
  8
0
100
AcDbLine
 62
7
  6
CONTINUOUS
 10
256.2462532501
 20
70.4456530752
 11
252.1667837414
 21
66.3661835665
  0
LINE
  5
292
100
AcDbEntity
  8
0
100
AcDbLine
 62
7
  6
CONTINUOUS
 10
273.4426894322
 20
98.758091869
 11
274.917396986
 21
100.207282946
  0
LINE
  5
293
100
AcDbEntity
  8
0
100
AcDbLine
 62
7
  6
CONTINUOUS
 10
233.02307917
 20
57.8361165731
 11
227.4495671258
 21
53.075887586
  0
LINE
  5
294
100
AcDbEntity
  8
RUNDUNGEN
100
AcDbLine
 62
7
  6
CONTINUOUS
 10
229.1030199324
 20
47.9582126037
 11
235.8009303351
 21
53.6787685116
  0
LINE
  5
295
100
AcDbEntity
  8
0
100
AcDbLine
 62
7
  6
CONTINUOUS
 10
239.5538480206
 20
61.1637095072
 11
233.02307917
 21
57.8361165731
  0
LINE
  5
296
100
AcDbEntity
  8
0
100
AcDbLine
 62
7
  6
CONTINUOUS
 10
235.8009303351
 20
53.6787685116
 11
243.6492141955
 21
57.6776688733
  0
LINE
  5
297
100
AcDbEntity
  8
0
100
AcDbLine
 62
7
  6
CONTINUOUS
 10
177.8449644509
 20
35.3455571952
 11
179.7481885742
 21
36.1534279051
  0
LINE
  5
298
100
AcDbEntity
  8
0
100
AcDbLine
 62
7
  6
CONTINUOUS
 10
217.8163462902
 20
43.4139550585
 11
212.4862625138
 21
41.2061620697
  0
LINE
  5
299
100
AcDbEntity
  8
0
100
AcDbLine
 62
7
  6
CONTINUOUS
 10
244.5384829672
 20
62.9904465529
 11
246.4555165082
 21
63.7649783793
  0
LINE
  5
29A
100
AcDbEntity
  8
0
100
AcDbLine
 62
7
  6
CONTINUOUS
 10
191.5354703685
 20
40.6513863371
 11
184.5645558991
 21
38.3863989252
  0
LINE
  5
29B
100
AcDbEntity
  8
RUNDUNGEN
100
AcDbLine
 62
7
  6
CONTINUOUS
 10
184.1336976771
 20
33.0255347598
 11
192.5109219786
 21
35.7474599351
  0
LINE
  5
29C
100
AcDbEntity
  8
0
100
AcDbLine
 62
7
  6
CONTINUOUS
 10
139.3225478348
 20
265.8333327699
 11
146.629606193
 21
266.4084107345
  0
LINE
  5
29D
100
AcDbEntity
  8
RUNDUNGEN
100
AcDbLine
 62
7
  6
CONTINUOUS
 10
145.6541545829
 20
271.3123371365
 11
136.8729728429
 21
270.6212431456
  0
LINE
  5
29E
100
AcDbEntity
  8
0
100
AcDbLine
 62
7
  6
CONTINUOUS
 10
206.2143014831
 20
266.0712278863
 11
204.1467929336
 21
266.0531850125
  0
LINE
  5
29F
100
AcDbEntity
  8
0
100
AcDbLine
 62
7
  6
CONTINUOUS
 10
166.1979177275
 20
273.9133858389
 11
171.967158834
 21
273.9133858389
  0
LINE
  5
2A0
100
AcDbEntity
  8
0
100
AcDbLine
 62
7
  6
CONTINUOUS
 10
134.0182836279
 20
266.0531850125
 11
131.9507750785
 21
266.0712278863
  0
LINE
  5
2A1
100
AcDbEntity
  8
0
100
AcDbLine
 62
7
  6
CONTINUOUS
 10
191.5354703685
 20
266.4084107345
 11
198.8425287267
 21
265.8333327699
  0
LINE
  5
2A2
100
AcDbEntity
  8
RUNDUNGEN
100
AcDbLine
 62
7
  6
CONTINUOUS
 10
201.2921037187
 20
270.6212431456
 11
192.5109219786
 21
271.3123371365
  0
LINE
  5
2A3
100
AcDbEntity
  8
0
100
AcDbLine
 62
7
  6
CONTINUOUS
 10
184.5645558991
 20
268.6733981464
 11
191.5354703685
 21
266.4084107345
  0
LINE
  5
2A4
100
AcDbEntity
  8
RUNDUNGEN
100
AcDbLine
 62
7
  6
CONTINUOUS
 10
192.5109219786
 20
271.3123371365
 11
184.1336976771
 21
274.0342623118
  0
LINE
  5
2A5
100
AcDbEntity
  8
0
100
AcDbLine
 62
7
  6
CONTINUOUS
 10
246.4555165082
 20
243.2948186923
 11
244.5384829672
 21
244.0693505187
  0
LINE
  5
2A6
100
AcDbEntity
  8
0
100
AcDbLine
 62
7
  6
CONTINUOUS
 10
212.4862625138
 20
265.8536350019
 11
217.8163462902
 21
263.6458420131
  0
LINE
  5
2A7
100
AcDbEntity
  8
0
100
AcDbLine
 62
7
  6
CONTINUOUS
 10
179.7481885742
 20
270.9063691664
 11
177.8449644509
 21
271.7142398764
  0
LINE
  5
2A8
100
AcDbEntity
  8
0
100
AcDbLine
 62
7
  6
CONTINUOUS
 10
233.02307917
 20
249.2236804985
 11
239.5538480206
 21
245.8960875644
  0
LINE
  5
2A9
100
AcDbEntity
  8
RUNDUNGEN
100
AcDbLine
 62
7
  6
CONTINUOUS
 10
243.6492141955
 20
249.3821281983
 11
235.8009303351
 21
253.38102856
  0
LINE
  5
2AA
100
AcDbEntity
  8
0
100
AcDbLine
 62
7
  6
CONTINUOUS
 10
227.4495671258
 20
253.9839094856
 11
233.02307917
 21
249.2236804985
  0
LINE
  5
2AB
100
AcDbEntity
  8
RUNDUNGEN
100
AcDbLine
 62
7
  6
CONTINUOUS
 10
235.8009303351
 20
253.38102856
 11
229.1030199324
 21
259.1015844679
  0
LINE
  5
2AC
100
AcDbEntity
  8
0
100
AcDbLine
 62
7
  6
CONTINUOUS
 10
274.917396986
 20
206.8525141255
 11
273.4426894322
 21
208.3017052026
  0
LINE
  5
2AD
100
AcDbEntity
  8
0
100
AcDbLine
 62
7
  6
CONTINUOUS
 10
252.1667837414
 20
240.6936135051
 11
256.2462532501
 21
236.6141439964
  0
LINE
  5
2AE
100
AcDbEntity
  8
0
100
AcDbLine
 62
7
  6
CONTINUOUS
 10
223.8543449476
 20
257.8900496872
 11
222.4051538705
 21
259.3647572411
  0
LINE
  5
2AF
100
AcDbEntity
  8
0
100
AcDbLine
 62
7
  6
CONTINUOUS
 10
264.7763202435
 20
217.470439425
 11
269.5365492306
 21
211.8969273809
  0
LINE
  5
2B0
100
AcDbEntity
  8
0
100
AcDbLine
 62
7
  6
CONTINUOUS
 10
274.6542242129
 20
213.5503801875
 11
268.933668305
 21
220.2482905901
  0
LINE
  5
2B1
100
AcDbEntity
  8
0
100
AcDbLine
 62
7
  6
CONTINUOUS
 10
261.4487273093
 20
224.0012082756
 11
264.7763202435
 21
217.470439425
  0
LINE
  5
2B2
100
AcDbEntity
  8
RUNDUNGEN
100
AcDbLine
 62
7
  6
CONTINUOUS
 10
268.933668305
 20
220.2482905901
 11
264.9347679433
 21
228.0965744505
  0
LINE
  5
2B3
100
AcDbEntity
  8
0
100
AcDbLine
 62
7
  6
CONTINUOUS
 10
287.2668796214
 20
162.2923247059
 11
286.4590089114
 21
164.1955488292
  0
LINE
  5
2B4
100
AcDbEntity
  8
0
100
AcDbLine
 62
7
  6
CONTINUOUS
 10
279.1984817581
 20
202.2637065453
 11
281.4062747469
 21
196.9336227688
  0
LINE
  5
2B5
100
AcDbEntity
  8
0
100
AcDbLine
 62
7
  6
CONTINUOUS
 10
259.6219902637
 20
228.9858432223
 11
258.8474584373
 21
230.9028767632
  0
LINE
  5
2B6
100
AcDbEntity
  8
0
100
AcDbLine
 62
7
  6
CONTINUOUS
 10
281.9610504795
 20
175.9828306235
 11
284.2260378914
 21
169.0119161541
  0
LINE
  5
2B7
100
AcDbEntity
  8
0
100
AcDbLine
 62
7
  6
CONTINUOUS
 10
289.5869020568
 20
168.5810579322
 11
286.8649768815
 21
176.9582822336
  0
LINE
  5
2B8
100
AcDbEntity
  8
0
100
AcDbLine
 62
7
  6
CONTINUOUS
 10
294.4660255839
 20
148.4863362494
 11
294.4660255839
 21
158.5734608222
  0
LINE
  5
2B9
100
AcDbEntity
  8
0
100
AcDbLine
 62
7
  6
CONTINUOUS
 10
282.9916881879
 20
100.8880712854
 11
286.8518636422
 21
110.2073592201
  0
LINE
  5
2BA
100
AcDbEntity
  8
0
100
AcDbLine
 62
7
  6
CONTINUOUS
 10
254.1757153076
 20
61.3040473209
 11
261.3083894957
 21
68.436721509
  0
LINE
  5
2BB
100
AcDbEntity
  8
RUNDUNGEN
100
AcDbLine
 62
7
  6
CONTINUOUS
 10
212.4050775965
 20
35.7605731744
 11
221.7243655312
 21
39.6207486286
  0
LINE
  5
2BC
100
AcDbEntity
  8
RUNDUNGEN
100
AcDbLine
 62
7
  6
CONTINUOUS
 10
174.1261005672
 20
278.9133858389
 11
164.0389759943
 21
278.9133858389
  0
LINE
  5
2BD
100
AcDbEntity
  8
RUNDUNGEN
100
AcDbLine
 62
7
  6
CONTINUOUS
 10
221.7243655312
 20
267.4390484429
 11
212.4050775965
 21
271.2992238972
  0
LINE
  5
2BE
100
AcDbEntity
  8
RUNDUNGEN
100
AcDbLine
 62
7
  6
CONTINUOUS
 10
261.3083894957
 20
238.6230755626
 11
254.1757153076
 21
245.7557497507
  0
LINE
  5
2BF
100
AcDbEntity
  8
0
100
AcDbLine
 62
7
  6
CONTINUOUS
 10
286.8518636422
 20
196.8524378515
 11
282.9916881879
 21
206.1717257862
  0
LINE
  5
2C0
100
AcDbEntity
  8
RUNDUNGEN
100
AcDbLine
 62
7
  6
CONTINUOUS
 10
367.9307083471
 20
28.1464112326
 11
347.9307083471
 21
28.1464112326
  0
LINE
  5
2C1
100
AcDbEntity
  8
0
100
AcDbLine
 62
7
  6
CONTINUOUS
 10
357.1807083471
 20
32.6465058984
 11
358.6807083471
 21
32.6465058984
  0
LINE
  5
2C2
100
AcDbEntity
  8
RUNDUNGEN
100
AcDbLine
 62
7
  6
CONTINUOUS
 10
367.9307083471
 20
32.9276477923
 11
347.9307083471
 21
32.9276477923
  0
LINE
  5
2C3
100
AcDbEntity
  8
RUNDUNGEN
100
AcDbLine
 62
7
  6
CONTINUOUS
 10
367.9307083471
 20
35.5702720057
 11
347.9307083471
 21
35.5702720057
  0
LINE
  5
2C4
100
AcDbEntity
  8
0
100
AcDbLine
 62
7
  6
CONTINUOUS
 10
357.1807083471
 20
44.8680141531
 11
358.6807083471
 21
44.8680141531
  0
LINE
  5
2C5
100
AcDbEntity
  8
RUNDUNGEN
100
AcDbLine
 62
7
  6
CONTINUOUS
 10
367.9307083471
 20
47.4790245349
 11
347.9307083471
 21
47.4790245349
  0
LINE
  5
2C6
100
AcDbEntity
  8
0
100
AcDbLine
 62
7
  6
CONTINUOUS
 10
347.9307083471
 20
53.6787685116
 11
367.9307083471
 21
53.6787685116
  0
LINE
  5
2C7
100
AcDbEntity
  8
0
100
AcDbLine
 62
7
  6
CONTINUOUS
 10
358.6807083471
 20
58.8433282123
 11
357.1807083471
 21
58.8433282123
  0
LINE
  5
2C8
100
AcDbEntity
  8
RUNDUNGEN
100
AcDbLine
 62
7
  6
CONTINUOUS
 10
367.9307083471
 20
60.5718142738
 11
347.9307083471
 21
60.5718142738
  0
LINE
  5
2C9
100
AcDbEntity
  8
0
100
AcDbLine
 62
7
  6
CONTINUOUS
 10
357.1807083471
 20
73.6323092827
 11
358.6807083471
 21
73.6323092827
  0
LINE
  5
2CA
100
AcDbEntity
  8
0
100
AcDbLine
 62
7
  6
CONTINUOUS
 10
347.9307083471
 20
76.1569203083
 11
356.7213589808
 21
76.1569203083
  0
LINE
  5
2CB
100
AcDbEntity
  8
0
100
AcDbLine
 62
7
  6
CONTINUOUS
 10
359.1400577134
 20
76.1569203083
 11
367.9307083471
 21
76.1569203083
  0
LINE
  5
2CC
100
AcDbEntity
  8
RUNDUNGEN
100
AcDbLine
 62
7
  6
CONTINUOUS
 10
367.9307083471
 20
77.8712036206
 11
358.7540854664
 21
77.8712036206
  0
LINE
  5
2CD
100
AcDbEntity
  8
RUNDUNGEN
100
AcDbLine
 62
7
  6
CONTINUOUS
 10
357.1073312278
 20
77.8712036206
 11
347.9307083471
 21
77.8712036206
  0
LINE
  5
2CE
100
AcDbEntity
  8
0
100
AcDbLine
 62
7
  6
CONTINUOUS
 10
358.6807083471
 20
77.9685454524
 11
357.1807083471
 21
77.9685454524
  0
LINE
  5
2CF
100
AcDbEntity
  8
0
100
AcDbLine
 62
7
  6
CONTINUOUS
 10
347.9307083471
 20
86.8115064815
 11
367.9307083471
 21
86.8115064815
  0
LINE
  5
2D0
100
AcDbEntity
  8
0
100
AcDbLine
 62
7
  6
CONTINUOUS
 10
358.6807083471
 20
94.9669921623
 11
357.1807083471
 21
94.9669921623
  0
LINE
  5
2D1
100
AcDbEntity
  8
0
100
AcDbLine
 62
7
  6
CONTINUOUS
 10
347.9307083471
 20
98.758091869
 11
356.6081469387
 21
98.758091869
  0
LINE
  5
2D2
100
AcDbEntity
  8
0
100
AcDbLine
 62
7
  6
CONTINUOUS
 10
359.2532697555
 20
98.758091869
 11
367.9307083471
 21
98.758091869
  0
LINE
  5
2D3
100
AcDbEntity
  8
RUNDUNGEN
100
AcDbLine
 62
7
  6
CONTINUOUS
 10
367.9307083471
 20
99.3447798663
 11
347.9307083471
 21
99.3447798663
  0
LINE
  5
2D4
100
AcDbEntity
  8
0
100
AcDbLine
 62
7
  6
CONTINUOUS
 10
357.1807083471
 20
114.5602881025
 11
358.6807083471
 21
114.5602881025
  0
LINE
  5
2D5
100
AcDbEntity
  8
0
100
AcDbLine
 62
7
  6
CONTINUOUS
 10
347.9307083471
 20
116.3981353335
 11
356.7213589808
 21
116.3981353335
  0
LINE
  5
2D6
100
AcDbEntity
  8
0
100
AcDbLine
 62
7
  6
CONTINUOUS
 10
359.1400577134
 20
116.3981353335
 11
367.9307083471
 21
116.3981353335
  0
LINE
  5
2D7
100
AcDbEntity
  8
0
100
AcDbLine
 62
7
  6
CONTINUOUS
 10
347.9307083471
 20
118.4656438829
 11
356.6081469387
 21
118.4656438829
  0
LINE
  5
2D8
100
AcDbEntity
  8
0
100
AcDbLine
 62
7
  6
CONTINUOUS
 10
359.2532697555
 20
118.4656438829
 11
367.9307083471
 21
118.4656438829
  0
LINE
  5
2D9
100
AcDbEntity
  8
0
100
AcDbLine
 62
7
  6
CONTINUOUS
 10
358.6807083471
 20
119.9552927035
 11
357.1807083471
 21
119.9552927035
  0
LINE
  5
2DA
100
AcDbEntity
  8
0
100
AcDbLine
 62
7
  6
CONTINUOUS
 10
337.9307083471
 20
128.5298985358
 11
347.9307083471
 21
128.5298985358
  0
LINE
  5
2DB
100
AcDbEntity
  8
0
100
AcDbLine
 62
7
  6
CONTINUOUS
 10
367.9307083471
 20
128.5298985358
 11
377.9307083471
 21
128.5298985358
  0
LINE
  5
2DC
100
AcDbEntity
  8
0
100
AcDbLine
 62
7
  6
CONTINUOUS
 10
337.9307083471
 20
128.5298985358
 11
337.9307083471
 21
164.3298985358
  0
LINE
  5
2DD
100
AcDbEntity
  8
RUNDUNGEN
100
AcDbLine
 62
7
  6
CONTINUOUS
 10
337.9307083471
 20
164.3298985358
 11
337.9307083471
 21
173.7298985358
  0
LINE
  5
2DE
100
AcDbEntity
  8
0
100
AcDbLine
 62
7
  6
CONTINUOUS
 10
337.9307083471
 20
173.7298985358
 11
337.9307083471
 21
178.5298985358
  0
LINE
  5
2DF
100
AcDbEntity
  8
0
100
AcDbLine
 62
7
  6
CONTINUOUS
 10
347.9307083471
 20
130.101514838
 11
367.9307083471
 21
130.101514838
  0
LINE
  5
2E0
100
AcDbEntity
  8
0
100
AcDbLine
 62
7
  6
CONTINUOUS
 10
357.1807083471
 20
44.8680141531
 11
357.0238984028
 21
45.8062423039
  0
LINE
  5
2E1
100
AcDbEntity
  8
0
100
AcDbLine
 62
7
  6
CONTINUOUS
 10
357.0238984028
 20
45.8062423039
 11
356.870581404
 21
46.7496740885
  0
LINE
  5
2E2
100
AcDbEntity
  8
0
100
AcDbLine
 62
7
  6
CONTINUOUS
 10
356.870581404
 20
46.7496740885
 11
356.7552186248
 21
47.4790245349
  0
LINE
  5
2E3
100
AcDbEntity
  8
0
100
AcDbLine
 62
7
  6
CONTINUOUS
 10
347.9307083471
 20
144.7674723657
 11
347.9307083471
 21
142.8642482424
  0
LINE
  5
2E4
100
AcDbEntity
  8
0
100
AcDbLine
 62
7
  6
CONTINUOUS
 10
347.9307083471
 20
118.4656438829
 11
347.9307083471
 21
116.3981353335
  0
LINE
  5
2E5
100
AcDbEntity
  8
0
100
AcDbLine
 62
7
  6
CONTINUOUS
 10
347.9307083471
 20
99.3447820785
 11
347.9307083471
 21
98.758091869
  0
LINE
  5
2E6
100
AcDbEntity
  8
0
100
AcDbLine
 62
7
  6
CONTINUOUS
 10
347.9307083471
 20
77.8716646119
 11
347.9307083471
 21
76.1569203083
  0
LINE
  5
2E7
100
AcDbEntity
  8
RUNDUNGEN
100
AcDbLine
 62
7
  6
CONTINUOUS
 10
347.9307083471
 20
28.1464112326
 11
347.9307083471
 21
76.1569203083
  0
LINE
  5
2E8
100
AcDbEntity
  8
RUNDUNGEN
100
AcDbLine
 62
7
  6
CONTINUOUS
 10
347.9307083471
 20
77.8716646119
 11
347.9307083471
 21
98.758091869
  0
LINE
  5
2E9
100
AcDbEntity
  8
RUNDUNGEN
100
AcDbLine
 62
7
  6
CONTINUOUS
 10
347.9307083471
 20
99.3447820785
 11
347.9307083471
 21
116.3981353335
  0
LINE
  5
2EA
100
AcDbEntity
  8
RUNDUNGEN
100
AcDbLine
 62
7
  6
CONTINUOUS
 10
347.9307083471
 20
118.4656438829
 11
347.9307083471
 21
142.8642482424
  0
LINE
  5
2EB
100
AcDbEntity
  8
RUNDUNGEN
100
AcDbLine
 62
7
  6
CONTINUOUS
 10
347.9307083471
 20
144.7674723657
 11
347.9307083471
 21
153.5298985366
  0
LINE
  5
2EC
100
AcDbEntity
  8
0
100
AcDbLine
 62
7
  6
CONTINUOUS
 10
347.9307083471
 20
178.5298985358
 11
347.9307083471
 21
278.9133858389
  0
LINE
  5
2ED
100
AcDbEntity
  8
0
100
AcDbLine
 62
7
  6
CONTINUOUS
 10
358.6807083471
 20
140.0063277336
 11
357.1807083471
 21
140.0063277336
  0
LINE
  5
2EE
100
AcDbEntity
  8
0
100
AcDbLine
 62
7
  6
CONTINUOUS
 10
347.9307083471
 20
142.8642482424
 11
356.6081469387
 21
142.8642482424
  0
LINE
  5
2EF
100
AcDbEntity
  8
0
100
AcDbLine
 62
7
  6
CONTINUOUS
 10
359.2532697555
 20
142.8642482424
 11
367.9307083471
 21
142.8642482424
  0
LINE
  5
2F0
100
AcDbEntity
  8
0
100
AcDbLine
 62
7
  6
CONTINUOUS
 10
347.9307083471
 20
144.7674723657
 11
356.7213589808
 21
144.7674723657
  0
LINE
  5
2F1
100
AcDbEntity
  8
0
100
AcDbLine
 62
7
  6
CONTINUOUS
 10
359.1400577134
 20
144.7674723657
 11
367.9307083471
 21
144.7674723657
  0
LINE
  5
2F2
100
AcDbEntity
  8
0
100
AcDbLine
 62
7
  6
CONTINUOUS
 10
357.1807083471
 20
145.6387602211
 11
358.6807083471
 21
145.6387602211
  0
LWPOLYLINE
  5
2F3
100
AcDbEntity
  8
0
100
AcDbPolyline
 62
7
  6
CONTINUOUS
 90
7
 70
0
 10
358.7979262857
 20
119.5345889952
 10
358.7749013578
 20
119.5774822809
 10
358.7532124828
 20
119.6318275205
 10
358.7328039835
 20
119.6972599308
 10
358.7138428916
 20
119.773332439
 10
358.6964962385
 20
119.8595287404
 10
358.6807083471
 20
119.9552927035
  0
LWPOLYLINE
  5
2F4
100
AcDbEntity
  8
0
100
AcDbPolyline
 62
7
  6
CONTINUOUS
 90
7
 70
0
 10
359.2532697555
 20
118.4656438829
 10
359.1824816643
 20
118.6842757621
 10
359.1096020315
 20
118.8870256001
 10
359.0345834695
 20
119.0736465843
 10
358.957568141
 20
119.2439177625
 10
358.878698209
 20
119.3976319497
 10
358.7979262857
 20
119.5345889952
  0
LWPOLYLINE
  5
2F5
100
AcDbEntity
  8
0
100
AcDbPolyline
 62
7
  6
CONTINUOUS
 90
7
 70
0
 10
357.1807083471
 20
114.5602881025
 10
357.1018667568
 20
114.8408808374
 10
357.0238984028
 20
115.1321056731
 10
356.9467656833
 20
115.4337255839
 10
356.870581404
 20
115.7454602036
 10
356.7954583705
 20
116.0670179651
 10
356.7213589808
 20
116.3981353335
  0
LWPOLYLINE
  5
2F6
100
AcDbEntity
  8
0
100
AcDbPolyline
 62
7
  6
CONTINUOUS
 90
5
 70
0
 10
357.1807083471
 20
73.6323092827
 10
357.1018667568
 20
74.037592524
 10
357.0238984028
 20
74.4495401381
 10
356.9467656833
 20
74.8678249882
 10
356.870581404
 20
75.2920668206
  0
LWPOLYLINE
  5
2F7
100
AcDbEntity
  8
0
100
AcDbPolyline
 62
7
  6
CONTINUOUS
 90
7
 70
0
 10
357.0634904086
 20
95.8457809291
 10
356.982729023
 20
96.3121906081
 10
356.9038614068
 20
96.786900986
 10
356.8268364159
 20
97.2694156374
 10
356.7518074823
 20
97.7591624324
 10
356.6789280379
 20
98.2555602028
 10
356.6081469387
 20
98.758091869
  0
LINE
  5
2F8
100
AcDbEntity
  8
0
100
AcDbLine
 62
7
  6
CONTINUOUS
 10
356.870581404
 20
75.2920668206
 11
356.7213589808
 21
76.1569203083
  0
LINE
  5
2F9
100
AcDbEntity
  8
0
100
AcDbLine
 62
7
  6
CONTINUOUS
 10
357.0634904086
 20
59.7638378627
 11
356.9426834105
 21
60.5718142738
  0
LINE
  5
2FA
100
AcDbEntity
  8
0
100
AcDbLine
 62
7
  6
CONTINUOUS
 10
359.2532697555
 20
98.758091869
 11
359.2080809063
 21
99.3447798663
  0
LINE
  5
2FB
100
AcDbEntity
  8
0
100
AcDbLine
 62
7
  6
CONTINUOUS
 10
359.2532697555
 20
142.8642482424
 11
359.1400577134
 21
144.7674723657
  0
LINE
  5
2FC
100
AcDbEntity
  8
0
100
AcDbLine
 62
7
  6
CONTINUOUS
 10
356.7213589808
 20
76.1569203083
 11
356.6198948134
 21
77.8712036206
  0
LINE
  5
2FD
100
AcDbEntity
  8
0
100
AcDbLine
 62
7
  6
CONTINUOUS
 10
356.7213589808
 20
116.3981353335
 11
356.6081469387
 21
118.4656438829
  0
LINE
  5
2FE
100
AcDbEntity
  8
0
100
AcDbLine
 62
7
  6
CONTINUOUS
 10
355.4307083471
 20
178.5298985358
 11
355.4307083471
 21
273.9133858389
  0
LINE
  5
2FF
100
AcDbEntity
  8
0
100
AcDbLine
 62
7
  6
CONTINUOUS
 10
357.1807083471
 20
32.6465058984
 11
357.1807083471
 21
32.9276477923
  0
LINE
  5
300
100
AcDbEntity
  8
0
100
AcDbLine
 62
7
  6
CONTINUOUS
 10
357.1807083471
 20
44.8680141531
 11
357.1807083471
 21
47.4853292429
  0
LINE
  5
301
100
AcDbEntity
  8
0
100
AcDbLine
 62
7
  6
CONTINUOUS
 10
357.1807083471
 20
58.8433282123
 11
357.1807083471
 21
60.5718142738
  0
LINE
  5
302
100
AcDbEntity
  8
0
100
AcDbLine
 62
7
  6
CONTINUOUS
 10
357.1807083471
 20
73.6323092827
 11
357.1807083471
 21
77.9685454524
  0
LINE
  5
303
100
AcDbEntity
  8
0
100
AcDbLine
 62
7
  6
CONTINUOUS
 10
357.1807083471
 20
94.9669921623
 11
357.1807083471
 21
99.3447798663
  0
LINE
  5
304
100
AcDbEntity
  8
0
100
AcDbLine
 62
7
  6
CONTINUOUS
 10
357.1807083471
 20
114.5602881025
 11
357.1807083471
 21
119.9552927035
  0
LINE
  5
305
100
AcDbEntity
  8
0
100
AcDbLine
 62
7
  6
CONTINUOUS
 10
357.1807083471
 20
140.0063277336
 11
357.1807083471
 21
145.6387602211
  0
LINE
  5
306
100
AcDbEntity
  8
0
100
AcDbLine
 62
7
  6
CONTINUOUS
 10
358.6807083471
 20
32.6465058984
 11
358.6807083471
 21
32.9276477923
  0
LINE
  5
307
100
AcDbEntity
  8
0
100
AcDbLine
 62
7
  6
CONTINUOUS
 10
358.6807083471
 20
44.8680141531
 11
358.6807083471
 21
47.4853292429
  0
LINE
  5
308
100
AcDbEntity
  8
0
100
AcDbLine
 62
7
  6
CONTINUOUS
 10
358.6807083471
 20
58.8433282123
 11
358.6807083471
 21
60.5718142738
  0
LINE
  5
309
100
AcDbEntity
  8
0
100
AcDbLine
 62
7
  6
CONTINUOUS
 10
358.6807083471
 20
73.6323092827
 11
358.6807083471
 21
77.9685454524
  0
LINE
  5
30A
100
AcDbEntity
  8
0
100
AcDbLine
 62
7
  6
CONTINUOUS
 10
358.6807083471
 20
94.9669921623
 11
358.6807083471
 21
99.3447798663
  0
LINE
  5
30B
100
AcDbEntity
  8
0
100
AcDbLine
 62
7
  6
CONTINUOUS
 10
358.6807083471
 20
114.5602881025
 11
358.6807083471
 21
119.9552927035
  0
LINE
  5
30C
100
AcDbEntity
  8
0
100
AcDbLine
 62
7
  6
CONTINUOUS
 10
358.6807083471
 20
140.0063277336
 11
358.6807083471
 21
145.6387602211
  0
LINE
  5
30D
100
AcDbEntity
  8
0
100
AcDbLine
 62
7
  6
CONTINUOUS
 10
356.6081469387
 20
142.8642482424
 11
356.7213589808
 21
144.7674723657
  0
LINE
  5
30E
100
AcDbEntity
  8
02___PRT_ALL_AXES
100
AcDbLine
 62
7
  6
CENTER
 10
388.0833504383
 20
153.5298985358
 11
330.7393177853
 21
153.5298985358
  0
LINE
  5
30F
100
AcDbEntity
  8
0
100
AcDbLine
 62
2
  6
CONTINUOUS
 10
337.9307083471
 20
153.5298985366
 11
377.9307083471
 21
153.5298985366
  0
LWPOLYLINE
  5
310
100
AcDbEntity
  8
0
100
AcDbPolyline
 62
7
  6
CONTINUOUS
 90
7
 70
0
 10
359.1400577134
 20
144.7674723657
 10
359.0659554425
 20
144.9442627423
 10
358.9908331592
 20
145.1086097171
 10
358.9146555856
 20
145.260365379
 10
358.8375285552
 20
145.3993924314
 10
358.7595579017
 20
145.5255633996
 10
358.6807083471
 20
145.6387602211
  0
LWPOLYLINE
  5
311
100
AcDbEntity
  8
0
100
AcDbPolyline
 62
7
  6
CONTINUOUS
 90
7
 70
0
 10
357.0634904086
 20
140.7096079933
 10
356.982729023
 20
141.0361370412
 10
356.9038614068
 20
141.3762341825
 10
356.8268364159
 20
141.7295300882
 10
356.7518074823
 20
142.0955916124
 10
356.6789280379
 20
142.4739680053
 10
356.6081469387
 20
142.8642482424
  0
LWPOLYLINE
  5
312
100
AcDbEntity
  8
0
100
AcDbPolyline
 62
7
  6
CONTINUOUS
 90
7
 70
0
 10
357.1807083471
 20
140.0063277336
 10
357.1649156836
 20
140.1413523546
 10
357.1475686231
 20
140.2702725754
 10
357.1286137909
 20
140.3922836804
 10
357.1082113113
 20
140.5066437506
 10
357.0865213088
 20
140.6126471268
 10
357.0634904086
 20
140.7096079933
  0
LINE
  5
313
100
AcDbEntity
  8
0
100
AcDbLine
 62
7
  6
CONTINUOUS
 10
360.4307083471
 20
178.5298985358
 11
360.4307083471
 21
273.9133858389
  0
LINE
  5
314
100
AcDbEntity
  8
0
100
AcDbLine
 62
7
  6
CONTINUOUS
 10
359.1400577134
 20
116.3981353335
 11
359.2532697555
 21
118.4656438829
  0
LINE
  5
315
100
AcDbEntity
  8
0
100
AcDbLine
 62
7
  6
CONTINUOUS
 10
359.1400577134
 20
76.1569203083
 11
359.2415218808
 21
77.8712036206
  0
LINE
  5
316
100
AcDbEntity
  8
0
100
AcDbLine
 62
7
  6
CONTINUOUS
 10
356.6081469387
 20
98.758091869
 11
356.653335788
 21
99.3447798663
  0
LWPOLYLINE
  5
317
100
AcDbEntity
  8
0
100
AcDbPolyline
 62
7
  6
CONTINUOUS
 90
7
 70
0
 10
358.6807083471
 20
140.0063277336
 10
358.6965010107
 20
140.1413523546
 10
358.7138480712
 20
140.2702725754
 10
358.7328029034
 20
140.3922836804
 10
358.753205383
 20
140.5066437506
 10
358.7748953855
 20
140.6126471268
 10
358.7979262857
 20
140.7096079933
  0
LWPOLYLINE
  5
318
100
AcDbEntity
  8
0
100
AcDbPolyline
 62
7
  6
CONTINUOUS
 90
7
 70
0
 10
358.7979262857
 20
140.7096079933
 10
358.8786876712
 20
141.0361370412
 10
358.9575552875
 20
141.3762341825
 10
359.0345802783
 20
141.7295300882
 10
359.109609212
 20
142.0955916124
 10
359.1824886564
 20
142.4739680053
 10
359.2532697555
 20
142.8642482424
  0
LWPOLYLINE
  5
319
100
AcDbEntity
  8
0
100
AcDbPolyline
 62
7
  6
CONTINUOUS
 90
7
 70
0
 10
356.6081469387
 20
118.4656438829
 10
356.6789350299
 20
118.6842757621
 10
356.7518146628
 20
118.8870256001
 10
356.8268332248
 20
119.0736465843
 10
356.9038485533
 20
119.2439177625
 10
356.9827184853
 20
119.3976319497
 10
357.0634904086
 20
119.5345889952
  0
LWPOLYLINE
  5
31A
100
AcDbEntity
  8
0
100
AcDbPolyline
 62
7
  6
CONTINUOUS
 90
7
 70
0
 10
356.7213589808
 20
144.7674723657
 10
356.7954612518
 20
144.9442627423
 10
356.8705835351
 20
145.1086097171
 10
356.9467611087
 20
145.260365379
 10
357.0238881391
 20
145.3993924314
 10
357.1018587926
 20
145.5255633996
 10
357.1807083471
 20
145.6387602211
  0
LINE
  5
31B
100
AcDbEntity
  8
RUNDUNGEN
100
AcDbLine
 62
7
  6
CONTINUOUS
 10
367.9307083471
 20
153.5298985366
 11
367.9307083471
 21
144.7674723657
  0
LINE
  5
31C
100
AcDbEntity
  8
0
100
AcDbLine
 62
7
  6
CONTINUOUS
 10
367.9307083471
 20
144.7674723657
 11
367.9307083471
 21
142.8642482424
  0
LINE
  5
31D
100
AcDbEntity
  8
RUNDUNGEN
100
AcDbLine
 62
7
  6
CONTINUOUS
 10
367.9307083471
 20
142.8642482424
 11
367.9307083471
 21
118.4656438829
  0
LINE
  5
31E
100
AcDbEntity
  8
0
100
AcDbLine
 62
7
  6
CONTINUOUS
 10
367.9307083471
 20
118.4656438829
 11
367.9307083471
 21
116.3981353335
  0
LINE
  5
31F
100
AcDbEntity
  8
RUNDUNGEN
100
AcDbLine
 62
7
  6
CONTINUOUS
 10
367.9307083471
 20
116.3981353335
 11
367.9307083471
 21
99.3447820785
  0
LINE
  5
320
100
AcDbEntity
  8
0
100
AcDbLine
 62
7
  6
CONTINUOUS
 10
367.9307083471
 20
99.3447798663
 11
367.9307083471
 21
98.758091869
  0
LINE
  5
321
100
AcDbEntity
  8
RUNDUNGEN
100
AcDbLine
 62
7
  6
CONTINUOUS
 10
367.9307083471
 20
98.758091869
 11
367.9307083471
 21
77.8716646119
  0
LINE
  5
322
100
AcDbEntity
  8
0
100
AcDbLine
 62
7
  6
CONTINUOUS
 10
367.9307083471
 20
77.8712036206
 11
367.9307083471
 21
76.1569203083
  0
LINE
  5
323
100
AcDbEntity
  8
RUNDUNGEN
100
AcDbLine
 62
7
  6
CONTINUOUS
 10
367.9307083471
 20
76.1569203083
 11
367.9307083471
 21
28.1464112326
  0
LINE
  5
324
100
AcDbEntity
  8
0
100
AcDbLine
 62
7
  6
CONTINUOUS
 10
367.9307083471
 20
178.5298985358
 11
367.9307083471
 21
278.9133858389
  0
LINE
  5
325
100
AcDbEntity
  8
0
100
AcDbLine
 62
7
  6
CONTINUOUS
 10
358.7979262857
 20
59.7638378627
 11
358.9187332838
 21
60.5718142738
  0
LINE
  5
326
100
AcDbEntity
  8
0
100
AcDbLine
 62
7
  6
CONTINUOUS
 10
358.9908352903
 20
46.7496740885
 11
359.1061980694
 21
47.4790245349
  0
LINE
  5
327
100
AcDbEntity
  8
0
100
AcDbLine
 62
7
  6
CONTINUOUS
 10
358.8375182915
 20
45.8062423039
 11
358.9908352903
 21
46.7496740885
  0
LWPOLYLINE
  5
328
100
AcDbEntity
  8
0
100
AcDbPolyline
 62
7
  6
CONTINUOUS
 90
7
 70
0
 10
358.7979262857
 20
95.8457809291
 10
358.8786876712
 20
96.3121906081
 10
358.9575552875
 20
96.786900986
 10
359.0345802783
 20
97.2694156374
 10
359.109609212
 20
97.7591624324
 10
359.1824886564
 20
98.2555602028
 10
359.2532697555
 20
98.758091869
  0
LWPOLYLINE
  5
329
100
AcDbEntity
  8
0
100
AcDbPolyline
 62
7
  6
CONTINUOUS
 90
6
 70
0
 10
358.6807083471
 20
73.6323092827
 10
358.7595499375
 20
74.037592524
 10
358.8375182915
 20
74.4495401381
 10
358.9146510109
 20
74.8678249882
 10
358.9908352903
 20
75.2920668206
 10
359.1400577134
 20
76.1569203083
  0
LWPOLYLINE
  5
32A
100
AcDbEntity
  8
0
100
AcDbPolyline
 62
7
  6
CONTINUOUS
 90
7
 70
0
 10
358.6807083471
 20
114.5602881025
 10
358.7595499375
 20
114.8408808374
 10
358.8375182915
 20
115.1321056731
 10
358.9146510109
 20
115.4337255839
 10
358.9908352903
 20
115.7454602036
 10
359.0659583238
 20
116.0670179651
 10
359.1400577134
 20
116.3981353335
  0
LWPOLYLINE
  5
32B
100
AcDbEntity
  8
0
100
AcDbPolyline
 62
7
  6
CONTINUOUS
 90
7
 70
0
 10
357.0634904086
 20
119.5345889952
 10
357.0865153365
 20
119.5774822809
 10
357.1082042115
 20
119.6318275205
 10
357.1286127108
 20
119.6972599308
 10
357.1475738027
 20
119.773332439
 10
357.1649204558
 20
119.8595287404
 10
357.1807083471
 20
119.9552927035
  0
LINE
  5
32C
100
AcDbEntity
  8
0
100
AcDbLine
 62
7
  6
CONTINUOUS
 10
337.9307083471
 20
163.5298985358
 11
377.9307083471
 21
163.5298985358
  0
LINE
  5
32D
100
AcDbEntity
  8
0
100
AcDbLine
 62
7
  6
CONTINUOUS
 10
337.9307083471
 20
164.3298985358
 11
377.9307083471
 21
164.3298985358
  0
LINE
  5
32E
100
AcDbEntity
  8
0
100
AcDbLine
 62
7
  6
CONTINUOUS
 10
377.9307083471
 20
128.5298985358
 11
377.9307083471
 21
164.3298985358
  0
LINE
  5
32F
100
AcDbEntity
  8
RUNDUNGEN
100
AcDbLine
 62
7
  6
CONTINUOUS
 10
377.9307083471
 20
164.3298985358
 11
377.9307083471
 21
173.7298985358
  0
LINE
  5
330
100
AcDbEntity
  8
0
100
AcDbLine
 62
7
  6
CONTINUOUS
 10
377.9307083471
 20
173.7298985358
 11
377.9307083471
 21
178.5298985358
  0
LINE
  5
331
100
AcDbEntity
  8
0
100
AcDbLine
 62
7
  6
CONTINUOUS
 10
358.6807083471
 20
44.8680141531
 11
358.8375182915
 21
45.8062423039
  0
LINE
  5
332
100
AcDbEntity
  8
0
100
AcDbLine
 62
7
  6
CONTINUOUS
 10
337.9307083471
 20
173.7298985358
 11
377.9307083471
 21
173.7298985358
  0
LINE
  5
333
100
AcDbEntity
  8
0
100
AcDbLine
 62
7
  6
CONTINUOUS
 10
337.9307083471
 20
174.5298985358
 11
377.9307083471
 21
174.5298985358
  0
LINE
  5
334
100
AcDbEntity
  8
0
100
AcDbLine
 62
7
  6
CONTINUOUS
 10
337.9307083471
 20
178.5298985358
 11
355.4307083471
 21
178.5298985358
  0
LINE
  5
335
100
AcDbEntity
  8
0
100
AcDbLine
 62
7
  6
CONTINUOUS
 10
360.4307083471
 20
178.5298985358
 11
377.9307083471
 21
178.5298985358
  0
LINE
  5
336
100
AcDbEntity
  8
0
100
AcDbLine
 62
7
  6
CONTINUOUS
 10
347.9307083471
 20
183.2898889818
 11
355.4307083471
 21
183.2898889818
  0
LINE
  5
337
100
AcDbEntity
  8
0
100
AcDbLine
 62
7
  6
CONTINUOUS
 10
360.4307083471
 20
183.2898889818
 11
367.9307083471
 21
183.2898889818
  0
LINE
  5
338
100
AcDbEntity
  8
0
100
AcDbLine
 62
7
  6
CONTINUOUS
 10
347.9307083471
 20
196.9336227688
 11
355.4307083471
 21
196.9336227688
  0
LINE
  5
339
100
AcDbEntity
  8
0
100
AcDbLine
 62
7
  6
CONTINUOUS
 10
360.4307083471
 20
196.9336227688
 11
367.9307083471
 21
196.9336227688
  0
LINE
  5
33A
100
AcDbEntity
  8
0
100
AcDbLine
 62
7
  6
CONTINUOUS
 10
347.9307083471
 20
201.8523267302
 11
355.4307083471
 21
201.8523267302
  0
LINE
  5
33B
100
AcDbEntity
  8
0
100
AcDbLine
 62
7
  6
CONTINUOUS
 10
360.4307083471
 20
201.8523267302
 11
367.9307083471
 21
201.8523267302
  0
LINE
  5
33C
100
AcDbEntity
  8
0
100
AcDbLine
 62
7
  6
CONTINUOUS
 10
347.9307083471
 20
211.8969273809
 11
355.4307083471
 21
211.8969273809
  0
LINE
  5
33D
100
AcDbEntity
  8
0
100
AcDbLine
 62
7
  6
CONTINUOUS
 10
360.4307083471
 20
211.8969273809
 11
367.9307083471
 21
211.8969273809
  0
LINE
  5
33E
100
AcDbEntity
  8
0
100
AcDbLine
 62
7
  6
CONTINUOUS
 10
347.9307083471
 20
217.470439425
 11
355.4307083471
 21
217.470439425
  0
LINE
  5
33F
100
AcDbEntity
  8
0
100
AcDbLine
 62
7
  6
CONTINUOUS
 10
360.4307083471
 20
217.470439425
 11
367.9307083471
 21
217.470439425
  0
LINE
  5
340
100
AcDbEntity
  8
0
100
AcDbLine
 62
7
  6
CONTINUOUS
 10
347.9307083471
 20
223.9714721091
 11
355.4307083471
 21
223.9714721091
  0
LINE
  5
341
100
AcDbEntity
  8
0
100
AcDbLine
 62
7
  6
CONTINUOUS
 10
360.4307083471
 20
223.9714721091
 11
367.9307083471
 21
223.9714721091
  0
LINE
  5
342
100
AcDbEntity
  8
0
100
AcDbLine
 62
7
  6
CONTINUOUS
 10
347.9307083471
 20
236.6141439964
 11
355.4307083471
 21
236.6141439964
  0
LINE
  5
343
100
AcDbEntity
  8
0
100
AcDbLine
 62
7
  6
CONTINUOUS
 10
360.4307083471
 20
236.6141439964
 11
367.9307083471
 21
236.6141439964
  0
LINE
  5
344
100
AcDbEntity
  8
0
100
AcDbLine
 62
7
  6
CONTINUOUS
 10
347.9307083471
 20
237.676466705
 11
355.4307083471
 21
237.676466705
  0
LINE
  5
345
100
AcDbEntity
  8
0
100
AcDbLine
 62
7
  6
CONTINUOUS
 10
360.4307083471
 20
237.676466705
 11
367.9307083471
 21
237.676466705
  0
LINE
  5
346
100
AcDbEntity
  8
0
100
AcDbLine
 62
7
  6
CONTINUOUS
 10
347.9307083471
 20
245.8960875644
 11
355.4307083471
 21
245.8960875644
  0
LINE
  5
347
100
AcDbEntity
  8
0
100
AcDbLine
 62
7
  6
CONTINUOUS
 10
360.4307083471
 20
245.8960875644
 11
367.9307083471
 21
245.8960875644
  0
LINE
  5
348
100
AcDbEntity
  8
0
100
AcDbLine
 62
7
  6
CONTINUOUS
 10
347.9307083471
 20
249.2236804985
 11
355.4307083471
 21
249.2236804985
  0
LINE
  5
349
100
AcDbEntity
  8
0
100
AcDbLine
 62
7
  6
CONTINUOUS
 10
360.4307083471
 20
249.2236804985
 11
367.9307083471
 21
249.2236804985
  0
LINE
  5
34A
100
AcDbEntity
  8
0
100
AcDbLine
 62
7
  6
CONTINUOUS
 10
347.9307083471
 20
252.4646871097
 11
355.4307083471
 21
252.4646871097
  0
LINE
  5
34B
100
AcDbEntity
  8
0
100
AcDbLine
 62
7
  6
CONTINUOUS
 10
360.4307083471
 20
252.4646871097
 11
367.9307083471
 21
252.4646871097
  0
LINE
  5
34C
100
AcDbEntity
  8
0
100
AcDbLine
 62
7
  6
CONTINUOUS
 10
347.9307083471
 20
259.8109269466
 11
355.4307083471
 21
259.8109269466
  0
LINE
  5
34D
100
AcDbEntity
  8
0
100
AcDbLine
 62
7
  6
CONTINUOUS
 10
360.4307083471
 20
259.8109269466
 11
367.9307083471
 21
259.8109269466
  0
LINE
  5
34E
100
AcDbEntity
  8
0
100
AcDbLine
 62
7
  6
CONTINUOUS
 10
347.9307083471
 20
265.0038593777
 11
355.4307083471
 21
265.0038593777
  0
LINE
  5
34F
100
AcDbEntity
  8
0
100
AcDbLine
 62
7
  6
CONTINUOUS
 10
360.4307083471
 20
265.0038593777
 11
367.9307083471
 21
265.0038593777
  0
LINE
  5
350
100
AcDbEntity
  8
0
100
AcDbLine
 62
7
  6
CONTINUOUS
 10
347.9307083471
 20
273.9133858389
 11
355.4307083471
 21
273.9133858389
  0
LINE
  5
351
100
AcDbEntity
  8
0
100
AcDbLine
 62
7
  6
CONTINUOUS
 10
360.4307083471
 20
273.9133858389
 11
367.9307083471
 21
273.9133858389
  0
LINE
  5
352
100
AcDbEntity
  8
0
100
AcDbLine
 62
7
  6
CONTINUOUS
 10
347.9307083471
 20
278.9133858389
 11
367.9307083471
 21
278.9133858389
  0
ARC
  5
353
100
AcDbEntity
  8
0
100
AcDbCircle
 62
7
  6
CONTINUOUS
 10
63.1686449338
 20
83.5408036747
 40
21.6666666666
100
AcDbArc
 50
83.1802472651
 51
101.1828532772
  0
ARC
  5
354
100
AcDbEntity
  8
0
100
AcDbCircle
 62
7
  6
CONTINUOUS
 10
77.8511104494
 20
61.4216582958
 40
21.6666666667
100
AcDbArc
 50
82.8139555759
 51
93.0021594301
  0
ARC
  5
355
100
AcDbEntity
  8
0
100
AcDbCircle
 62
7
  6
CONTINUOUS
 10
63.8895537984
 20
82.4618873135
 40
21.6666666666
100
AcDbArc
 50
326.3171467228
 51
344.3197527349
  0
ARC
  5
356
100
AcDbEntity
  8
0
100
AcDbCircle
 62
7
  6
CONTINUOUS
 10
98.0145270585
 20
48.3369140535
 40
21.6666666666
100
AcDbArc
 50
105.6802472651
 51
123.6828532772
  0
ARC
  5
357
100
AcDbEntity
  8
0
100
AcDbCircle
 62
7
  6
CONTINUOUS
 10
76.9742980408
 20
62.2984707045
 40
21.6666666666
100
AcDbArc
 50
356.9978405699
 51
7.1860444241
  0
ARC
  5
358
100
AcDbEntity
  8
0
100
AcDbCircle
 62
7
  6
CONTINUOUS
 10
99.0934434197
 20
47.6160051888
 40
21.6666666666
100
AcDbArc
 50
348.8171467228
 51
6.8197527349
  0
ARC
  5
359
100
AcDbEntity
  8
RUNDUNGEN
100
AcDbCircle
 62
7
  6
CONTINUOUS
 10
63.1686449338
 20
83.5408036747
 40
16.6666666666
100
AcDbArc
 50
89.7282978974
 51
107.2557727191
  0
ARC
  5
35A
100
AcDbEntity
  8
RUNDUNGEN
100
AcDbCircle
 62
7
  6
CONTINUOUS
 10
77.8511104494
 20
61.4216582958
 40
16.6666666666
100
AcDbArc
 50
87.6204782948
 51
98.7473672409
  0
ARC
  5
35B
100
AcDbEntity
  8
RUNDUNGEN
100
AcDbCircle
 62
7
  6
CONTINUOUS
 10
63.8895537984
 20
82.4618873135
 40
16.6666666667
100
AcDbArc
 50
320.2442272809
 51
337.7717021026
  0
ARC
  5
35C
100
AcDbEntity
  8
RUNDUNGEN
100
AcDbCircle
 62
7
  6
CONTINUOUS
 10
98.0145270585
 20
48.3369140535
 40
16.6666666666
100
AcDbArc
 50
112.2282978974
 51
129.7557727191
  0
ARC
  5
35D
100
AcDbEntity
  8
RUNDUNGEN
100
AcDbCircle
 62
7
  6
CONTINUOUS
 10
76.9742980408
 20
62.2984707045
 40
16.6666666666
100
AcDbArc
 50
351.2526327591
 51
2.3795217052
  0
ARC
  5
35E
100
AcDbEntity
  8
RUNDUNGEN
100
AcDbCircle
 62
7
  6
CONTINUOUS
 10
99.0934434197
 20
47.6160051888
 40
16.6666666667
100
AcDbArc
 50
342.7442272809
 51
0.2717021026
  0
ARC
  5
35F
100
AcDbEntity
  8
0
100
AcDbCircle
 62
7
  6
CONTINUOUS
 10
79.9359701116
 20
77.957411619
 40
5.0
100
AcDbArc
 50
344.3197527349
 51
82.8139555759
  0
ARC
  5
360
100
AcDbEntity
  8
0
100
AcDbCircle
 62
7
  6
CONTINUOUS
 10
93.510051364
 20
64.3833303666
 40
5.0
100
AcDbArc
 50
7.1860444241
 51
105.6802472651
  0
ARC
  5
361
100
AcDbEntity
  8
RUNDUNGEN
100
AcDbCircle
 62
7
  6
CONTINUOUS
 10
78.6244540188
 20
70.204488462
 40
2.5
100
AcDbArc
 50
140.2442272809
 51
225.0
  0
ARC
  5
362
100
AcDbEntity
  8
RUNDUNGEN
100
AcDbCircle
 62
7
  6
CONTINUOUS
 10
85.7571282069
 20
63.0718142738
 40
2.5
100
AcDbArc
 50
225.0
 51
309.7557727191
  0
ARC
  5
363
100
AcDbEntity
  8
RUNDUNGEN
100
AcDbCircle
 62
7
  6
CONTINUOUS
 10
75.0123216666
 20
79.8712036206
 40
2.0
100
AcDbArc
 50
207.0
 51
278.7473672409
  0
ARC
  5
364
100
AcDbEntity
  8
RUNDUNGEN
100
AcDbCircle
 62
7
  6
CONTINUOUS
 10
95.4238433655
 20
59.4596819217
 40
2.0
100
AcDbArc
 50
171.2526327591
 51
243.0
  0
ARC
  5
365
100
AcDbEntity
  8
0
100
AcDbCircle
 62
7
  6
CONTINUOUS
 10
39.441815727
 20
152.9098985358
 40
21.6666666667
100
AcDbArc
 50
37.8139555759
 51
48.0021594301
  0
ARC
  5
366
100
AcDbEntity
  8
0
100
AcDbCircle
 62
7
  6
CONTINUOUS
 10
44.4471929594
 20
129.3998985358
 40
21.6666666666
100
AcDbArc
 50
60.6802472651
 51
78.6828532772
  0
ARC
  5
367
100
AcDbEntity
  8
0
100
AcDbCircle
 62
7
  6
CONTINUOUS
 10
49.5473918615
 20
103.3457365445
 40
21.6666666667
100
AcDbArc
 50
60.3139555759
 51
70.5021594301
  0
ARC
  5
368
100
AcDbEntity
  8
0
100
AcDbCircle
 62
7
  6
CONTINUOUS
 10
44.7003424879
 20
128.1272299137
 40
21.6666666666
100
AcDbArc
 50
303.8171467228
 51
321.8197527349
  0
ARC
  5
369
100
AcDbEntity
  8
0
100
AcDbCircle
 62
7
  6
CONTINUOUS
 10
49.0728644053
 20
104.4913471648
 40
21.6666666666
100
AcDbArc
 50
334.4978405699
 51
344.6860444241
  0
ARC
  5
36A
100
AcDbEntity
  8
RUNDUNGEN
100
AcDbCircle
 62
7
  6
CONTINUOUS
 10
39.441815727
 20
152.9098985358
 40
16.6666666666
100
AcDbArc
 50
42.6204782948
 51
53.7473672409
  0
ARC
  5
36B
100
AcDbEntity
  8
RUNDUNGEN
100
AcDbCircle
 62
7
  6
CONTINUOUS
 10
44.4471929594
 20
129.3998985358
 40
16.6666666666
100
AcDbArc
 50
67.2282978974
 51
84.7557727191
  0
ARC
  5
36C
100
AcDbEntity
  8
RUNDUNGEN
100
AcDbCircle
 62
7
  6
CONTINUOUS
 10
49.5473918615
 20
103.3457365445
 40
16.6666666666
100
AcDbArc
 50
65.1204782948
 51
76.2473672409
  0
ARC
  5
36D
100
AcDbEntity
  8
RUNDUNGEN
100
AcDbCircle
 62
7
  6
CONTINUOUS
 10
44.7003424879
 20
128.1272299137
 40
16.6666666667
100
AcDbArc
 50
297.7442272809
 51
315.2717021026
  0
ARC
  5
36E
100
AcDbEntity
  8
RUNDUNGEN
100
AcDbCircle
 62
7
  6
CONTINUOUS
 10
49.0728644053
 20
104.4913471648
 40
16.6666666666
100
AcDbArc
 50
328.7526327591
 51
339.8795217052
  0
ARC
  5
36F
100
AcDbEntity
  8
0
100
AcDbCircle
 62
7
  6
CONTINUOUS
 10
52.6085774388
 20
143.9315736338
 40
5.0
100
AcDbArc
 50
322.1860444241
 51
60.6802472651
  0
ARC
  5
370
100
AcDbEntity
  8
0
100
AcDbCircle
 62
7
  6
CONTINUOUS
 10
57.80150987
 20
117.824939343
 40
5.0
100
AcDbArc
 50
321.8197527349
 51
60.3139555759
  0
ARC
  5
371
100
AcDbEntity
  8
0
100
AcDbCircle
 62
7
  6
CONTINUOUS
 10
65.1477497068
 20
100.0895474963
 40
5.0
100
AcDbArc
 50
344.6860444241
 51
83.1802472651
  0
ARC
  5
372
100
AcDbEntity
  8
RUNDUNGEN
100
AcDbCircle
 62
7
  6
CONTINUOUS
 10
46.1990509776
 20
148.4863362494
 40
2.5
100
AcDbArc
 50
180.0
 51
264.7557727191
  0
ARC
  5
373
100
AcDbEntity
  8
RUNDUNGEN
100
AcDbCircle
 62
7
  6
CONTINUOUS
 10
53.6229117507
 20
111.164067801
 40
2.5
100
AcDbArc
 50
117.7442272809
 51
202.5
  0
ARC
  5
374
100
AcDbEntity
  8
RUNDUNGEN
100
AcDbCircle
 62
7
  6
CONTINUOUS
 10
57.4830872049
 20
101.8447798663
 40
2.5
100
AcDbArc
 50
202.5
 51
287.2557727191
  0
ARC
  5
375
100
AcDbEntity
  8
RUNDUNGEN
100
AcDbCircle
 62
7
  6
CONTINUOUS
 10
50.4802875373
 20
139.0967731282
 40
2.0
100
AcDbArc
 50
126.2526327591
 51
198.0
  0
ARC
  5
376
100
AcDbEntity
  8
RUNDUNGEN
100
AcDbCircle
 62
7
  6
CONTINUOUS
 10
53.9850283384
 20
121.4772512893
 40
2.0
100
AcDbArc
 50
184.5
 51
256.2473672409
  0
ARC
  5
377
100
AcDbEntity
  8
RUNDUNGEN
100
AcDbCircle
 62
7
  6
CONTINUOUS
 10
65.0316642799
 20
94.8083129808
 40
2.0
100
AcDbArc
 50
148.7526327591
 51
220.5
  0
ARC
  5
378
100
AcDbEntity
  8
0
100
AcDbCircle
 62
7
  6
CONTINUOUS
 10
120.0439869098
 20
33.5202246604
 40
21.6666666667
100
AcDbArc
 50
105.3139555759
 51
115.5021594301
  0
ARC
  5
379
100
AcDbEntity
  8
0
100
AcDbCircle
 62
7
  6
CONTINUOUS
 10
143.6798696587
 20
29.1477027429
 40
21.6666666666
100
AcDbArc
 50
128.1802472651
 51
146.1828532772
  0
ARC
  5
37A
100
AcDbEntity
  8
0
100
AcDbCircle
 62
7
  6
CONTINUOUS
 10
118.8983762895
 20
33.9947521165
 40
21.6666666666
100
AcDbArc
 50
19.4978405699
 51
29.6860444241
  0
ARC
  5
37B
100
AcDbEntity
  8
0
100
AcDbCircle
 62
7
  6
CONTINUOUS
 10
144.9525382808
 20
28.8945532144
 40
21.6666666666
100
AcDbArc
 50
11.3171467228
 51
29.3197527349
  0
ARC
  5
37C
100
AcDbEntity
  8
0
100
AcDbCircle
 62
7
  6
CONTINUOUS
 10
168.4625382808
 20
23.8891759821
 40
21.6666666666
100
AcDbArc
 50
41.9978405699
 51
52.1860444241
  0
ARC
  5
37D
100
AcDbEntity
  8
RUNDUNGEN
100
AcDbCircle
 62
7
  6
CONTINUOUS
 10
120.0439869098
 20
33.5202246604
 40
16.6666666666
100
AcDbArc
 50
110.1204782948
 51
121.2473672409
  0
ARC
  5
37E
100
AcDbEntity
  8
RUNDUNGEN
100
AcDbCircle
 62
7
  6
CONTINUOUS
 10
143.6798696587
 20
29.1477027429
 40
16.6666666666
100
AcDbArc
 50
134.7282978974
 51
152.2557727191
  0
ARC
  5
37F
100
AcDbEntity
  8
RUNDUNGEN
100
AcDbCircle
 62
7
  6
CONTINUOUS
 10
118.8983762895
 20
33.9947521165
 40
16.6666666666
100
AcDbArc
 50
13.7526327591
 51
24.8795217052
  0
ARC
  5
380
100
AcDbEntity
  8
RUNDUNGEN
100
AcDbCircle
 62
7
  6
CONTINUOUS
 10
144.9525382808
 20
28.8945532144
 40
16.6666666667
100
AcDbArc
 50
5.2442272809
 51
22.7717021026
  0
ARC
  5
381
100
AcDbEntity
  8
RUNDUNGEN
100
AcDbCircle
 62
7
  6
CONTINUOUS
 10
168.4625382808
 20
23.8891759821
 40
16.6666666666
100
AcDbArc
 50
36.2526327591
 51
47.3795217052
  0
ARC
  5
382
100
AcDbEntity
  8
0
100
AcDbCircle
 62
7
  6
CONTINUOUS
 10
115.6421872413
 20
49.5951099619
 40
5.0
100
AcDbArc
 50
6.8197527349
 51
105.3139555759
  0
ARC
  5
383
100
AcDbEntity
  8
0
100
AcDbCircle
 62
7
  6
CONTINUOUS
 10
133.3775790879
 20
42.248870125
 40
5.0
100
AcDbArc
 50
29.6860444241
 51
128.1802472651
  0
ARC
  5
384
100
AcDbEntity
  8
0
100
AcDbCircle
 62
7
  6
CONTINUOUS
 10
159.4842133788
 20
37.0559376939
 40
5.0
100
AcDbArc
 50
29.3197527349
 51
127.8139555759
  0
ARC
  5
385
100
AcDbEntity
  8
RUNDUNGEN
100
AcDbCircle
 62
7
  6
CONTINUOUS
 10
117.3974196112
 20
41.9304474599
 40
2.5
100
AcDbArc
 50
162.7442272809
 51
247.5
  0
ARC
  5
386
100
AcDbEntity
  8
RUNDUNGEN
100
AcDbCircle
 62
7
  6
CONTINUOUS
 10
126.716707546
 20
38.0702720057
 40
2.5
100
AcDbArc
 50
247.5
 51
332.2557727191
  0
ARC
  5
387
100
AcDbEntity
  8
RUNDUNGEN
100
AcDbCircle
 62
7
  6
CONTINUOUS
 10
164.0389759943
 20
30.6464112326
 40
2.5
100
AcDbArc
 50
185.2442272809
 51
270.0
  0
ARC
  5
388
100
AcDbEntity
  8
RUNDUNGEN
100
AcDbCircle
 62
7
  6
CONTINUOUS
 10
110.3609527258
 20
49.4790245349
 40
2.0
100
AcDbArc
 50
229.5
 51
301.2473672409
  0
ARC
  5
389
100
AcDbEntity
  8
RUNDUNGEN
100
AcDbCircle
 62
7
  6
CONTINUOUS
 10
137.0298910343
 20
38.4323885934
 40
2.0
100
AcDbArc
 50
193.7526327591
 51
265.5
  0
ARC
  5
38A
100
AcDbEntity
  8
RUNDUNGEN
100
AcDbCircle
 62
7
  6
CONTINUOUS
 10
154.6494128731
 20
34.9276477923
 40
2.0
100
AcDbArc
 50
252.0
 51
323.7473672409
  0
ARC
  5
38B
100
AcDbEntity
  8
0
100
AcDbCircle
 62
7
  6
CONTINUOUS
 10
149.0825382808
 20
133.5298985358
 40
5.0
100
AcDbArc
 50
180.0
 51
270.0
  0
ARC
  5
38C
100
AcDbEntity
  8
RUNDUNGEN
100
AcDbCircle
 62
7
  6
CONTINUOUS
 10
149.3825382808
 20
133.8298985358
 40
0.5
100
AcDbArc
 50
180.0
 51
270.0
  0
ARC
  5
38D
100
AcDbEntity
  8
0
100
AcDbCircle
 62
7
  6
CONTINUOUS
 10
49.0728644053
 20
202.5684499068
 40
21.6666666667
100
AcDbArc
 50
15.3139555759
 51
25.5021594301
  0
ARC
  5
38E
100
AcDbEntity
  8
0
100
AcDbCircle
 62
7
  6
CONTINUOUS
 10
44.7003424879
 20
178.9325671579
 40
21.6666666666
100
AcDbArc
 50
38.1802472651
 51
56.1828532772
  0
ARC
  5
38F
100
AcDbEntity
  8
0
100
AcDbCircle
 62
7
  6
CONTINUOUS
 10
49.5473918615
 20
203.7140605271
 40
21.6666666666
100
AcDbArc
 50
289.4978405699
 51
299.6860444241
  0
ARC
  5
390
100
AcDbEntity
  8
0
100
AcDbCircle
 62
7
  6
CONTINUOUS
 10
44.4471929594
 20
177.6598985358
 40
21.6666666666
100
AcDbArc
 50
281.3171467228
 51
299.3197527349
  0
ARC
  5
391
100
AcDbEntity
  8
0
100
AcDbCircle
 62
7
  6
CONTINUOUS
 10
39.441815727
 20
154.1498985358
 40
21.6666666666
100
AcDbArc
 50
311.9978405699
 51
322.1860444241
  0
ARC
  5
392
100
AcDbEntity
  8
RUNDUNGEN
100
AcDbCircle
 62
7
  6
CONTINUOUS
 10
44.7003424879
 20
178.9325671579
 40
16.6666666666
100
AcDbArc
 50
44.7282978974
 51
62.2557727191
  0
ARC
  5
393
100
AcDbEntity
  8
RUNDUNGEN
100
AcDbCircle
 62
7
  6
CONTINUOUS
 10
49.5473918615
 20
203.7140605271
 40
16.6666666666
100
AcDbArc
 50
283.7526327591
 51
294.8795217052
  0
ARC
  5
394
100
AcDbEntity
  8
RUNDUNGEN
100
AcDbCircle
 62
7
  6
CONTINUOUS
 10
44.4471929594
 20
177.6598985358
 40
16.6666666667
100
AcDbArc
 50
275.2442272809
 51
292.7717021026
  0
ARC
  5
395
100
AcDbEntity
  8
RUNDUNGEN
100
AcDbCircle
 62
7
  6
CONTINUOUS
 10
39.441815727
 20
154.1498985358
 40
16.6666666666
100
AcDbArc
 50
306.2526327591
 51
317.3795217052
  0
ARC
  5
396
100
AcDbEntity
  8
RUNDUNGEN
100
AcDbCircle
 62
7
  6
CONTINUOUS
 10
49.0728644053
 20
202.5684499068
 40
16.6666666666
100
AcDbArc
 50
20.1204782948
 51
31.2473672409
  0
ARC
  5
397
100
AcDbEntity
  8
0
100
AcDbCircle
 62
7
  6
CONTINUOUS
 10
65.1477497068
 20
206.9702495752
 40
5.0
100
AcDbArc
 50
276.8197527349
 51
15.3139555759
  0
ARC
  5
398
100
AcDbEntity
  8
0
100
AcDbCircle
 62
7
  6
CONTINUOUS
 10
57.80150987
 20
189.2348577286
 40
5.0
100
AcDbArc
 50
299.6860444241
 51
38.1802472651
  0
ARC
  5
399
100
AcDbEntity
  8
0
100
AcDbCircle
 62
7
  6
CONTINUOUS
 10
52.6085774388
 20
163.1282234377
 40
5.0
100
AcDbArc
 50
299.3197527349
 51
37.8139555759
  0
ARC
  5
39A
100
AcDbEntity
  8
RUNDUNGEN
100
AcDbCircle
 62
7
  6
CONTINUOUS
 10
46.1990509776
 20
158.5734608222
 40
2.5
100
AcDbArc
 50
95.2442272809
 51
180.0
  0
ARC
  5
39B
100
AcDbEntity
  8
RUNDUNGEN
100
AcDbCircle
 62
7
  6
CONTINUOUS
 10
53.6229117507
 20
195.8957292706
 40
2.5
100
AcDbArc
 50
157.5
 51
242.2557727191
  0
ARC
  5
39C
100
AcDbEntity
  8
RUNDUNGEN
100
AcDbCircle
 62
7
  6
CONTINUOUS
 10
57.4830872049
 20
205.2150172053
 40
2.5
100
AcDbArc
 50
72.7442272809
 51
157.5
  0
ARC
  5
39D
100
AcDbEntity
  8
RUNDUNGEN
100
AcDbCircle
 62
7
  6
CONTINUOUS
 10
53.9850283384
 20
185.5825457823
 40
2.0
100
AcDbArc
 50
103.7526327591
 51
175.5
  0
ARC
  5
39E
100
AcDbEntity
  8
RUNDUNGEN
100
AcDbCircle
 62
7
  6
CONTINUOUS
 10
50.4802875373
 20
167.9630239434
 40
2.0
100
AcDbArc
 50
162.0
 51
233.7473672409
  0
ARC
  5
39F
100
AcDbEntity
  8
RUNDUNGEN
100
AcDbCircle
 62
7
  6
CONTINUOUS
 10
65.0316642799
 20
212.2514840908
 40
2.0
100
AcDbArc
 50
139.5
 51
211.2473672409
  0
ARC
  5
3A0
100
AcDbEntity
  8
0
100
AcDbCircle
 62
7
  6
CONTINUOUS
 10
63.1686449338
 20
223.5189933969
 40
21.6666666666
100
AcDbArc
 50
258.8171467228
 51
276.8197527349
  0
ARC
  5
3A1
100
AcDbEntity
  8
0
100
AcDbCircle
 62
7
  6
CONTINUOUS
 10
99.0934434197
 20
259.4437918828
 40
21.6666666666
100
AcDbArc
 50
353.1802472651
 51
11.1828532772
  0
ARC
  5
3A2
100
AcDbEntity
  8
0
100
AcDbCircle
 62
7
  6
CONTINUOUS
 10
76.9742980408
 20
244.7613263671
 40
21.6666666667
100
AcDbArc
 50
352.8139555759
 51
3.0021594301
  0
ARC
  5
3A3
100
AcDbEntity
  8
0
100
AcDbCircle
 62
7
  6
CONTINUOUS
 10
98.0145270585
 20
258.7228830181
 40
21.6666666666
100
AcDbArc
 50
236.3171467228
 51
254.3197527349
  0
ARC
  5
3A4
100
AcDbEntity
  8
0
100
AcDbCircle
 62
7
  6
CONTINUOUS
 10
63.8895537984
 20
224.5979097581
 40
21.6666666666
100
AcDbArc
 50
15.6802472651
 51
33.6828532772
  0
ARC
  5
3A5
100
AcDbEntity
  8
0
100
AcDbCircle
 62
7
  6
CONTINUOUS
 10
77.8511104494
 20
245.6381387758
 40
21.6666666666
100
AcDbArc
 50
266.9978405699
 51
277.1860444241
  0
ARC
  5
3A6
100
AcDbEntity
  8
RUNDUNGEN
100
AcDbCircle
 62
7
  6
CONTINUOUS
 10
63.1686449338
 20
223.5189933969
 40
16.6666666667
100
AcDbArc
 50
252.7442272809
 51
270.2717021026
  0
ARC
  5
3A7
100
AcDbEntity
  8
RUNDUNGEN
100
AcDbCircle
 62
7
  6
CONTINUOUS
 10
77.8511104494
 20
245.6381387758
 40
16.6666666666
100
AcDbArc
 50
261.2526327591
 51
272.3795217052
  0
ARC
  5
3A8
100
AcDbEntity
  8
RUNDUNGEN
100
AcDbCircle
 62
7
  6
CONTINUOUS
 10
63.8895537984
 20
224.5979097581
 40
16.6666666666
100
AcDbArc
 50
22.2282978974
 51
39.7557727191
  0
ARC
  5
3A9
100
AcDbEntity
  8
RUNDUNGEN
100
AcDbCircle
 62
7
  6
CONTINUOUS
 10
98.0145270585
 20
258.7228830181
 40
16.6666666667
100
AcDbArc
 50
230.2442272809
 51
247.7717021026
  0
ARC
  5
3AA
100
AcDbEntity
  8
RUNDUNGEN
100
AcDbCircle
 62
7
  6
CONTINUOUS
 10
76.9742980408
 20
244.7613263671
 40
16.6666666666
100
AcDbArc
 50
357.6204782948
 51
8.7473672409
  0
ARC
  5
3AB
100
AcDbEntity
  8
RUNDUNGEN
100
AcDbCircle
 62
7
  6
CONTINUOUS
 10
99.0934434197
 20
259.4437918828
 40
16.6666666666
100
AcDbArc
 50
359.7282978974
 51
17.2557727191
  0
ARC
  5
3AC
100
AcDbEntity
  8
0
100
AcDbCircle
 62
7
  6
CONTINUOUS
 10
93.510051364
 20
242.676466705
 40
5.0
100
AcDbArc
 50
254.3197527349
 51
352.8139555759
  0
ARC
  5
3AD
100
AcDbEntity
  8
0
100
AcDbCircle
 62
7
  6
CONTINUOUS
 10
79.9359701116
 20
229.1023854526
 40
5.0
100
AcDbArc
 50
277.1860444241
 51
15.6802472651
  0
ARC
  5
3AE
100
AcDbEntity
  8
RUNDUNGEN
100
AcDbCircle
 62
7
  6
CONTINUOUS
 10
78.6244540188
 20
236.8553086096
 40
2.5
100
AcDbArc
 50
135.0
 51
219.7557727191
  0
ARC
  5
3AF
100
AcDbEntity
  8
RUNDUNGEN
100
AcDbCircle
 62
7
  6
CONTINUOUS
 10
85.7571282069
 20
243.9879827978
 40
2.5
100
AcDbArc
 50
50.2442272809
 51
135.0
  0
ARC
  5
3B0
100
AcDbEntity
  8
RUNDUNGEN
100
AcDbCircle
 62
7
  6
CONTINUOUS
 10
75.0123216666
 20
227.188593451
 40
2.0
100
AcDbArc
 50
81.2526327591
 51
153.0
  0
ARC
  5
3B1
100
AcDbEntity
  8
RUNDUNGEN
100
AcDbCircle
 62
7
  6
CONTINUOUS
 10
95.4238433655
 20
247.6001151499
 40
2.0
100
AcDbArc
 50
117.0
 51
188.7473672409
  0
ARC
  5
3B2
100
AcDbEntity
  8
0
100
AcDbCircle
 62
7
  6
CONTINUOUS
 10
149.0825382808
 20
173.5298985358
 40
5.0
100
AcDbArc
 50
90.0
 51
180.0
  0
ARC
  5
3B3
100
AcDbEntity
  8
RUNDUNGEN
100
AcDbCircle
 62
7
  6
CONTINUOUS
 10
149.3825382808
 20
173.2298985358
 40
0.5
100
AcDbArc
 50
90.0
 51
180.0
  0
ARC
  5
3B4
100
AcDbEntity
  8
0
100
AcDbCircle
 62
7
  6
CONTINUOUS
 10
168.4625382808
 20
283.1706210895
 40
21.6666666667
100
AcDbArc
 50
307.8139555759
 51
318.0021594301
  0
ARC
  5
3B5
100
AcDbEntity
  8
0
100
AcDbCircle
 62
7
  6
CONTINUOUS
 10
144.9525382808
 20
278.1652438572
 40
21.6666666666
100
AcDbArc
 50
330.6802472651
 51
348.6828532772
  0
ARC
  5
3B6
100
AcDbEntity
  8
0
100
AcDbCircle
 62
7
  6
CONTINUOUS
 10
118.8983762895
 20
273.0650449551
 40
21.6666666667
100
AcDbArc
 50
330.3139555759
 51
340.5021594301
  0
ARC
  5
3B7
100
AcDbEntity
  8
0
100
AcDbCircle
 62
7
  6
CONTINUOUS
 10
143.6798696587
 20
277.9120943287
 40
21.6666666666
100
AcDbArc
 50
213.8171467228
 51
231.8197527349
  0
ARC
  5
3B8
100
AcDbEntity
  8
0
100
AcDbCircle
 62
7
  6
CONTINUOUS
 10
120.0439869098
 20
273.5395724112
 40
21.6666666666
100
AcDbArc
 50
244.4978405699
 51
254.6860444241
  0
ARC
  5
3B9
100
AcDbEntity
  8
RUNDUNGEN
100
AcDbCircle
 62
7
  6
CONTINUOUS
 10
168.4625382808
 20
283.1706210895
 40
16.6666666666
100
AcDbArc
 50
312.6204782948
 51
323.7473672409
  0
ARC
  5
3BA
100
AcDbEntity
  8
RUNDUNGEN
100
AcDbCircle
 62
7
  6
CONTINUOUS
 10
144.9525382808
 20
278.1652438572
 40
16.6666666666
100
AcDbArc
 50
337.2282978974
 51
354.7557727191
  0
ARC
  5
3BB
100
AcDbEntity
  8
RUNDUNGEN
100
AcDbCircle
 62
7
  6
CONTINUOUS
 10
120.0439869098
 20
273.5395724112
 40
16.6666666666
100
AcDbArc
 50
238.7526327591
 51
249.8795217052
  0
ARC
  5
3BC
100
AcDbEntity
  8
RUNDUNGEN
100
AcDbCircle
 62
7
  6
CONTINUOUS
 10
143.6798696587
 20
277.9120943287
 40
16.6666666667
100
AcDbArc
 50
207.7442272809
 51
225.2717021026
  0
ARC
  5
3BD
100
AcDbEntity
  8
RUNDUNGEN
100
AcDbCircle
 62
7
  6
CONTINUOUS
 10
118.8983762895
 20
273.0650449551
 40
16.6666666666
100
AcDbArc
 50
335.1204782948
 51
346.2473672409
  0
ARC
  5
3BE
100
AcDbEntity
  8
0
100
AcDbCircle
 62
7
  6
CONTINUOUS
 10
159.4842133788
 20
270.0038593777
 40
5.0
100
AcDbArc
 50
232.1860444241
 51
330.6802472651
  0
ARC
  5
3BF
100
AcDbEntity
  8
0
100
AcDbCircle
 62
7
  6
CONTINUOUS
 10
133.3775790879
 20
264.8109269466
 40
5.0
100
AcDbArc
 50
231.8197527349
 51
330.3139555759
  0
ARC
  5
3C0
100
AcDbEntity
  8
0
100
AcDbCircle
 62
7
  6
CONTINUOUS
 10
115.6421872413
 20
257.4646871097
 40
5.0
100
AcDbArc
 50
254.6860444241
 51
353.1802472651
  0
ARC
  5
3C1
100
AcDbEntity
  8
RUNDUNGEN
100
AcDbCircle
 62
7
  6
CONTINUOUS
 10
164.0389759943
 20
276.4133858389
 40
2.5
100
AcDbArc
 50
90.0
 51
174.7557727191
  0
ARC
  5
3C2
100
AcDbEntity
  8
RUNDUNGEN
100
AcDbCircle
 62
7
  6
CONTINUOUS
 10
117.3974196112
 20
265.1293496117
 40
2.5
100
AcDbArc
 50
112.5
 51
197.2557727191
  0
ARC
  5
3C3
100
AcDbEntity
  8
RUNDUNGEN
100
AcDbCircle
 62
7
  6
CONTINUOUS
 10
126.716707546
 20
268.9895250659
 40
2.5
100
AcDbArc
 50
27.7442272809
 51
112.5
  0
ARC
  5
3C4
100
AcDbEntity
  8
RUNDUNGEN
100
AcDbCircle
 62
7
  6
CONTINUOUS
 10
154.6494128731
 20
272.1321492792
 40
2.0
100
AcDbArc
 50
36.2526327591
 51
108.0
  0
ARC
  5
3C5
100
AcDbEntity
  8
RUNDUNGEN
100
AcDbCircle
 62
7
  6
CONTINUOUS
 10
137.0298910343
 20
268.6274084782
 40
2.0
100
AcDbArc
 50
94.5
 51
166.2473672409
  0
ARC
  5
3C6
100
AcDbEntity
  8
RUNDUNGEN
100
AcDbCircle
 62
7
  6
CONTINUOUS
 10
110.3609527258
 20
257.5807725367
 40
2.0
100
AcDbArc
 50
58.7526327591
 51
130.5
  0
ARC
  5
3C7
100
AcDbEntity
  8
0
100
AcDbCircle
 62
7
  6
CONTINUOUS
 10
169.7025382808
 20
23.8891759821
 40
21.6666666667
100
AcDbArc
 50
127.8139555759
 51
138.0021594301
  0
ARC
  5
3C8
100
AcDbEntity
  8
0
100
AcDbCircle
 62
7
  6
CONTINUOUS
 10
193.2125382808
 20
28.8945532144
 40
21.6666666666
100
AcDbArc
 50
150.6802472651
 51
168.6828532772
  0
ARC
  5
3C9
100
AcDbEntity
  8
0
100
AcDbCircle
 62
7
  6
CONTINUOUS
 10
219.2667002721
 20
33.9947521165
 40
21.6666666667
100
AcDbArc
 50
150.3139555759
 51
160.5021594301
  0
ARC
  5
3CA
100
AcDbEntity
  8
0
100
AcDbCircle
 62
7
  6
CONTINUOUS
 10
194.4852069029
 20
29.1477027429
 40
21.6666666666
100
AcDbArc
 50
33.8171467228
 51
51.8197527349
  0
ARC
  5
3CB
100
AcDbEntity
  8
0
100
AcDbCircle
 62
7
  6
CONTINUOUS
 10
218.1210896518
 20
33.5202246604
 40
21.6666666666
100
AcDbArc
 50
64.4978405699
 51
74.6860444241
  0
ARC
  5
3CC
100
AcDbEntity
  8
RUNDUNGEN
100
AcDbCircle
 62
7
  6
CONTINUOUS
 10
169.7025382808
 20
23.8891759821
 40
16.6666666666
100
AcDbArc
 50
132.6204782948
 51
143.7473672409
  0
ARC
  5
3CD
100
AcDbEntity
  8
RUNDUNGEN
100
AcDbCircle
 62
7
  6
CONTINUOUS
 10
193.2125382808
 20
28.8945532144
 40
16.6666666666
100
AcDbArc
 50
157.2282978974
 51
174.7557727191
  0
ARC
  5
3CE
100
AcDbEntity
  8
RUNDUNGEN
100
AcDbCircle
 62
7
  6
CONTINUOUS
 10
219.2667002721
 20
33.9947521165
 40
16.6666666666
100
AcDbArc
 50
155.1204782948
 51
166.2473672409
  0
ARC
  5
3CF
100
AcDbEntity
  8
RUNDUNGEN
100
AcDbCircle
 62
7
  6
CONTINUOUS
 10
194.4852069029
 20
29.1477027429
 40
16.6666666667
100
AcDbArc
 50
27.7442272809
 51
45.2717021026
  0
ARC
  5
3D0
100
AcDbEntity
  8
RUNDUNGEN
100
AcDbCircle
 62
7
  6
CONTINUOUS
 10
218.1210896518
 20
33.5202246604
 40
16.6666666666
100
AcDbArc
 50
58.7526327591
 51
69.8795217052
  0
ARC
  5
3D1
100
AcDbEntity
  8
0
100
AcDbCircle
 62
7
  6
CONTINUOUS
 10
178.6808631827
 20
37.0559376939
 40
5.0
100
AcDbArc
 50
52.1860444241
 51
150.6802472651
  0
ARC
  5
3D2
100
AcDbEntity
  8
0
100
AcDbCircle
 62
7
  6
CONTINUOUS
 10
204.7874974736
 20
42.248870125
 40
5.0
100
AcDbArc
 50
51.8197527349
 51
150.3139555759
  0
ARC
  5
3D3
100
AcDbEntity
  8
0
100
AcDbCircle
 62
7
  6
CONTINUOUS
 10
222.5228893202
 20
49.5951099619
 40
5.0
100
AcDbArc
 50
74.6860444241
 51
173.1802472651
  0
ARC
  5
3D4
100
AcDbEntity
  8
RUNDUNGEN
100
AcDbCircle
 62
7
  6
CONTINUOUS
 10
174.1261005672
 20
30.6464112326
 40
2.5
100
AcDbArc
 50
270.0
 51
354.7557727191
  0
ARC
  5
3D5
100
AcDbEntity
  8
RUNDUNGEN
100
AcDbCircle
 62
7
  6
CONTINUOUS
 10
211.4483690156
 20
38.0702720057
 40
2.5
100
AcDbArc
 50
207.7442272809
 51
292.5
  0
ARC
  5
3D6
100
AcDbEntity
  8
RUNDUNGEN
100
AcDbCircle
 62
7
  6
CONTINUOUS
 10
220.7676569503
 20
41.9304474599
 40
2.5
100
AcDbArc
 50
292.5
 51
17.2557727191
  0
ARC
  5
3D7
100
AcDbEntity
  8
RUNDUNGEN
100
AcDbCircle
 62
7
  6
CONTINUOUS
 10
183.5156636884
 20
34.9276477923
 40
2.0
100
AcDbArc
 50
216.2526327591
 51
288.0
  0
ARC
  5
3D8
100
AcDbEntity
  8
RUNDUNGEN
100
AcDbCircle
 62
7
  6
CONTINUOUS
 10
201.1351855272
 20
38.4323885934
 40
2.0
100
AcDbArc
 50
274.5
 51
346.2473672409
  0
ARC
  5
3D9
100
AcDbEntity
  8
RUNDUNGEN
100
AcDbCircle
 62
7
  6
CONTINUOUS
 10
227.8041238358
 20
49.4790245349
 40
2.0
100
AcDbArc
 50
238.7526327591
 51
310.5
  0
ARC
  5
3DA
100
AcDbEntity
  8
0
100
AcDbCircle
 62
7
  6
CONTINUOUS
 10
189.0825382808
 20
133.5298985358
 40
5.0
100
AcDbArc
 50
270.0
 51
360.0
  0
ARC
  5
3DB
100
AcDbEntity
  8
RUNDUNGEN
100
AcDbCircle
 62
7
  6
CONTINUOUS
 10
188.7825382808
 20
133.8298985358
 40
0.5
100
AcDbArc
 50
270.0
 51
360.0
  0
ARC
  5
3DC
100
AcDbEntity
  8
0
100
AcDbCircle
 62
7
  6
CONTINUOUS
 10
239.0716331419
 20
47.6160051888
 40
21.6666666666
100
AcDbArc
 50
173.1802472651
 51
191.1828532772
  0
ARC
  5
3DD
100
AcDbEntity
  8
0
100
AcDbCircle
 62
7
  6
CONTINUOUS
 10
261.1907785208
 20
62.2984707045
 40
21.6666666667
100
AcDbArc
 50
172.8139555759
 51
183.0021594301
  0
ARC
  5
3DE
100
AcDbEntity
  8
0
100
AcDbCircle
 62
7
  6
CONTINUOUS
 10
240.150549503
 20
48.3369140535
 40
21.6666666666
100
AcDbArc
 50
56.3171467228
 51
74.3197527349
  0
ARC
  5
3DF
100
AcDbEntity
  8
0
100
AcDbCircle
 62
7
  6
CONTINUOUS
 10
274.2755227631
 20
82.4618873135
 40
21.6666666666
100
AcDbArc
 50
195.6802472651
 51
213.6828532772
  0
ARC
  5
3E0
100
AcDbEntity
  8
0
100
AcDbCircle
 62
7
  6
CONTINUOUS
 10
260.3139661121
 20
61.4216582958
 40
21.6666666666
100
AcDbArc
 50
86.9978405699
 51
97.1860444241
  0
ARC
  5
3E1
100
AcDbEntity
  8
0
100
AcDbCircle
 62
7
  6
CONTINUOUS
 10
274.9964316277
 20
83.5408036747
 40
21.6666666666
100
AcDbArc
 50
78.8171467228
 51
96.8197527349
  0
ARC
  5
3E2
100
AcDbEntity
  8
RUNDUNGEN
100
AcDbCircle
 62
7
  6
CONTINUOUS
 10
239.0716331419
 20
47.6160051888
 40
16.6666666666
100
AcDbArc
 50
179.7282978974
 51
197.2557727191
  0
ARC
  5
3E3
100
AcDbEntity
  8
0
100
AcDbCircle
 62
7
  6
CONTINUOUS
 10
261.1907785208
 20
62.2984707045
 40
16.6666666666
100
AcDbArc
 50
177.6204782948
 51
188.7473672409
  0
ARC
  5
3E4
100
AcDbEntity
  8
0
100
AcDbCircle
 62
7
  6
CONTINUOUS
 10
240.150549503
 20
48.3369140535
 40
16.6666666667
100
AcDbArc
 50
50.2442272809
 51
67.7717021026
  0
ARC
  5
3E5
100
AcDbEntity
  8
0
100
AcDbCircle
 62
7
  6
CONTINUOUS
 10
274.2755227631
 20
82.4618873135
 40
16.6666666666
100
AcDbArc
 50
202.2282978974
 51
219.7557727191
  0
ARC
  5
3E6
100
AcDbEntity
  8
0
100
AcDbCircle
 62
7
  6
CONTINUOUS
 10
260.3139661121
 20
61.4216582958
 40
16.6666666666
100
AcDbArc
 50
81.2526327591
 51
92.3795217052
  0
ARC
  5
3E7
100
AcDbEntity
  8
0
100
AcDbCircle
 62
7
  6
CONTINUOUS
 10
274.9964316277
 20
83.5408036747
 40
16.6666666667
100
AcDbArc
 50
72.7442272809
 51
90.2717021026
  0
ARC
  5
3E8
100
AcDbEntity
  8
0
100
AcDbCircle
 62
7
  6
CONTINUOUS
 10
244.6550251975
 20
64.3833303666
 40
5.0
100
AcDbArc
 50
74.3197527349
 51
172.8139555759
  0
ARC
  5
3E9
100
AcDbEntity
  8
0
100
AcDbCircle
 62
7
  6
CONTINUOUS
 10
258.22910645
 20
77.957411619
 40
5.0
100
AcDbArc
 50
97.1860444241
 51
195.6802472651
  0
ARC
  5
3EA
100
AcDbEntity
  8
0
100
AcDbCircle
 62
7
  6
CONTINUOUS
 10
252.4079483546
 20
63.0718142738
 40
2.5
100
AcDbArc
 50
230.2442272809
 51
315.0
  0
ARC
  5
3EB
100
AcDbEntity
  8
0
100
AcDbCircle
 62
7
  6
CONTINUOUS
 10
259.5406225427
 20
70.204488462
 40
2.5
100
AcDbArc
 50
315.0
 51
39.7557727191
  0
ARC
  5
3EC
100
AcDbEntity
  8
0
100
AcDbCircle
 62
7
  6
CONTINUOUS
 10
242.741233196
 20
59.4596819217
 40
2.0
100
AcDbArc
 50
297.0
 51
8.7473672409
  0
ARC
  5
3ED
100
AcDbEntity
  8
0
100
AcDbCircle
 62
7
  6
CONTINUOUS
 10
263.1527548949
 20
79.8712036206
 40
2.0
100
AcDbArc
 50
261.2526327591
 51
333.0
  0
ARC
  5
3EE
100
AcDbEntity
  8
0
100
AcDbCircle
 62
7
  6
CONTINUOUS
 10
289.0922121562
 20
104.4913471648
 40
21.6666666667
100
AcDbArc
 50
195.3139555759
 51
205.5021594301
  0
ARC
  5
3EF
100
AcDbEntity
  8
0
100
AcDbCircle
 62
7
  6
CONTINUOUS
 10
293.4647340737
 20
128.1272299137
 40
21.6666666666
100
AcDbArc
 50
218.1802472651
 51
236.1828532772
  0
ARC
  5
3F0
100
AcDbEntity
  8
0
100
AcDbCircle
 62
7
  6
CONTINUOUS
 10
288.6176847001
 20
103.3457365445
 40
21.6666666666
100
AcDbArc
 50
109.4978405699
 51
119.6860444241
  0
ARC
  5
3F1
100
AcDbEntity
  8
0
100
AcDbCircle
 62
7
  6
CONTINUOUS
 10
293.7178836022
 20
129.3998985358
 40
21.6666666666
100
AcDbArc
 50
101.3171467228
 51
119.3197527349
  0
ARC
  5
3F2
100
AcDbEntity
  8
0
100
AcDbCircle
 62
7
  6
CONTINUOUS
 10
298.7232608345
 20
152.9098985358
 40
21.6666666666
100
AcDbArc
 50
131.9978405699
 51
142.1860444241
  0
ARC
  5
3F3
100
AcDbEntity
  8
0
100
AcDbCircle
 62
7
  6
CONTINUOUS
 10
289.0922121562
 20
104.4913471648
 40
16.6666666666
100
AcDbArc
 50
200.1204782948
 51
211.2473672409
  0
ARC
  5
3F4
100
AcDbEntity
  8
0
100
AcDbCircle
 62
7
  6
CONTINUOUS
 10
293.4647340737
 20
128.1272299137
 40
16.6666666666
100
AcDbArc
 50
224.7282978974
 51
242.2557727191
  0
ARC
  5
3F5
100
AcDbEntity
  8
0
100
AcDbCircle
 62
7
  6
CONTINUOUS
 10
288.6176847001
 20
103.3457365445
 40
16.6666666666
100
AcDbArc
 50
103.7526327591
 51
114.8795217052
  0
ARC
  5
3F6
100
AcDbEntity
  8
0
100
AcDbCircle
 62
7
  6
CONTINUOUS
 10
293.7178836022
 20
129.3998985358
 40
16.6666666667
100
AcDbArc
 50
95.2442272809
 51
112.7717021026
  0
ARC
  5
3F7
100
AcDbEntity
  8
0
100
AcDbCircle
 62
7
  6
CONTINUOUS
 10
298.7232608345
 20
152.9098985358
 40
16.6666666666
100
AcDbArc
 50
126.2526327591
 51
137.3795217052
  0
ARC
  5
3F8
100
AcDbEntity
  8
0
100
AcDbCircle
 62
7
  6
CONTINUOUS
 10
273.0173268547
 20
100.0895474963
 40
5.0
100
AcDbArc
 50
96.8197527349
 51
195.3139555759
  0
ARC
  5
3F9
100
AcDbEntity
  8
0
100
AcDbCircle
 62
7
  6
CONTINUOUS
 10
280.3635666916
 20
117.824939343
 40
5.0
100
AcDbArc
 50
119.6860444241
 51
218.1802472651
  0
ARC
  5
3FA
100
AcDbEntity
  8
0
100
AcDbCircle
 62
7
  6
CONTINUOUS
 10
285.5564991227
 20
143.9315736338
 40
5.0
100
AcDbArc
 50
119.3197527349
 51
217.8139555759
  0
ARC
  5
3FB
100
AcDbEntity
  8
0
100
AcDbCircle
 62
7
  6
CONTINUOUS
 10
280.6819893566
 20
101.8447798663
 40
2.5
100
AcDbArc
 50
252.7442272809
 51
337.5
  0
ARC
  5
3FC
100
AcDbEntity
  8
0
100
AcDbCircle
 62
7
  6
CONTINUOUS
 10
284.5421648109
 20
111.164067801
 40
2.5
100
AcDbArc
 50
337.5
 51
62.2557727191
  0
ARC
  5
3FD
100
AcDbEntity
  8
0
100
AcDbCircle
 62
7
  6
CONTINUOUS
 10
291.9660255839
 20
148.4863362494
 40
2.5
100
AcDbArc
 50
275.2442272809
 51
360.0
  0
ARC
  5
3FE
100
AcDbEntity
  8
0
100
AcDbCircle
 62
7
  6
CONTINUOUS
 10
273.1334122817
 20
94.8083129808
 40
2.0
100
AcDbArc
 50
319.5
 51
31.2473672409
  0
ARC
  5
3FF
100
AcDbEntity
  8
0
100
AcDbCircle
 62
7
  6
CONTINUOUS
 10
284.1800482232
 20
121.4772512893
 40
2.0
100
AcDbArc
 50
283.7526327591
 51
355.5
  0
ARC
  5
400
100
AcDbEntity
  8
0
100
AcDbCircle
 62
7
  6
CONTINUOUS
 10
287.6847890242
 20
139.0967731282
 40
2.0
100
AcDbArc
 50
342.0
 51
53.7473672409
  0
ARC
  5
401
100
AcDbEntity
  8
0
100
AcDbCircle
 62
7
  6
CONTINUOUS
 10
169.0825382808
 20
153.5298985358
 40
121.1406813561
100
AcDbArc
 50
161.2349078596
 51
163.9095894211
  0
ARC
  5
402
100
AcDbEntity
  8
0
100
AcDbCircle
 62
7
  6
CONTINUOUS
 10
169.0825382808
 20
153.5298985358
 40
121.1406813561
100
AcDbArc
 50
151.0904105789
 51
153.7650921404
  0
ARC
  5
403
100
AcDbEntity
  8
0
100
AcDbCircle
 62
7
  6
CONTINUOUS
 10
169.0825382808
 20
153.5298985358
 40
121.1406813561
100
AcDbArc
 50
138.7349078596
 51
141.4095894211
  0
ARC
  5
404
100
AcDbEntity
  8
0
100
AcDbCircle
 62
7
  6
CONTINUOUS
 10
169.0825382808
 20
153.5298985358
 40
121.1406813561
100
AcDbArc
 50
128.5904105789
 51
131.2650921404
  0
ARC
  5
405
100
AcDbEntity
  8
0
100
AcDbCircle
 62
7
  6
CONTINUOUS
 10
169.0825382808
 20
153.5298985358
 40
121.1406813561
100
AcDbArc
 50
116.2349078596
 51
118.9095894211
  0
ARC
  5
406
100
AcDbEntity
  8
0
100
AcDbCircle
 62
7
  6
CONTINUOUS
 10
169.0825382808
 20
153.5298985358
 40
121.1406813561
100
AcDbArc
 50
106.0904105789
 51
108.7650921404
  0
ARC
  5
407
100
AcDbEntity
  8
0
100
AcDbCircle
 62
7
  6
CONTINUOUS
 10
169.0825382808
 20
153.5298985358
 40
121.1406813561
100
AcDbArc
 50
93.7349078596
 51
96.4095894211
  0
ARC
  5
408
100
AcDbEntity
  8
0
100
AcDbCircle
 62
7
  6
CONTINUOUS
 10
169.0825382808
 20
153.5298985358
 40
121.1406813561
100
AcDbArc
 50
83.5904105789
 51
86.2650921404
  0
ARC
  5
409
100
AcDbEntity
  8
0
100
AcDbCircle
 62
7
  6
CONTINUOUS
 10
169.0825382808
 20
153.5298985358
 40
121.1406813561
100
AcDbArc
 50
71.2349078596
 51
73.9095894211
  0
ARC
  5
40A
100
AcDbEntity
  8
0
100
AcDbCircle
 62
7
  6
CONTINUOUS
 10
169.0825382808
 20
153.5298985358
 40
121.1406813561
100
AcDbArc
 50
61.0904105789
 51
63.7650921404
  0
ARC
  5
40B
100
AcDbEntity
  8
0
100
AcDbCircle
 62
7
  6
CONTINUOUS
 10
169.0825382808
 20
153.5298985358
 40
121.1406813561
100
AcDbArc
 50
48.7349078596
 51
51.4095894211
  0
ARC
  5
40C
100
AcDbEntity
  8
0
100
AcDbCircle
 62
7
  6
CONTINUOUS
 10
169.0825382808
 20
153.5298985358
 40
121.1406813561
100
AcDbArc
 50
38.5904105789
 51
41.2650921404
  0
ARC
  5
40D
100
AcDbEntity
  8
0
100
AcDbCircle
 62
7
  6
CONTINUOUS
 10
169.0825382808
 20
153.5298985358
 40
121.1406813561
100
AcDbArc
 50
26.2349078596
 51
28.9095894211
  0
ARC
  5
40E
100
AcDbEntity
  8
0
100
AcDbCircle
 62
7
  6
CONTINUOUS
 10
169.0825382808
 20
153.5298985358
 40
121.1406813561
100
AcDbArc
 50
16.0904105789
 51
18.7650921404
  0
ARC
  5
40F
100
AcDbEntity
  8
0
100
AcDbCircle
 62
7
  6
CONTINUOUS
 10
169.0825382808
 20
153.5298985358
 40
121.1406813561
100
AcDbArc
 50
3.7349078596
 51
6.4095894211
  0
ARC
  5
410
100
AcDbEntity
  8
0
100
AcDbCircle
 62
7
  6
CONTINUOUS
 10
169.0825382808
 20
153.5298985358
 40
121.1406813561
100
AcDbArc
 50
353.5904105789
 51
356.2650921404
  0
ARC
  5
411
100
AcDbEntity
  8
0
100
AcDbCircle
 62
7
  6
CONTINUOUS
 10
169.0825382808
 20
153.5298985358
 40
121.1406813561
100
AcDbArc
 50
341.2349078596
 51
343.9095894211
  0
ARC
  5
412
100
AcDbEntity
  8
0
100
AcDbCircle
 62
7
  6
CONTINUOUS
 10
169.0825382808
 20
153.5298985358
 40
121.1406813561
100
AcDbArc
 50
331.0904105789
 51
333.7650921404
  0
ARC
  5
413
100
AcDbEntity
  8
0
100
AcDbCircle
 62
7
  6
CONTINUOUS
 10
169.0825382808
 20
153.5298985358
 40
121.1406813561
100
AcDbArc
 50
318.7349078596
 51
321.4095894211
  0
ARC
  5
414
100
AcDbEntity
  8
0
100
AcDbCircle
 62
7
  6
CONTINUOUS
 10
169.0825382808
 20
153.5298985358
 40
121.1406813561
100
AcDbArc
 50
308.5904105789
 51
311.2650921404
  0
ARC
  5
415
100
AcDbEntity
  8
0
100
AcDbCircle
 62
7
  6
CONTINUOUS
 10
169.0825382808
 20
153.5298985358
 40
121.1406813561
100
AcDbArc
 50
296.2349078596
 51
298.9095894211
  0
ARC
  5
416
100
AcDbEntity
  8
0
100
AcDbCircle
 62
7
  6
CONTINUOUS
 10
169.0825382808
 20
153.5298985358
 40
121.1406813561
100
AcDbArc
 50
286.0904105789
 51
288.7650921404
  0
ARC
  5
417
100
AcDbEntity
  8
0
100
AcDbCircle
 62
7
  6
CONTINUOUS
 10
169.0825382808
 20
153.5298985358
 40
121.1406813561
100
AcDbArc
 50
273.7349078596
 51
276.4095894211
  0
ARC
  5
418
100
AcDbEntity
  8
0
100
AcDbCircle
 62
7
  6
CONTINUOUS
 10
169.0825382808
 20
153.5298985358
 40
121.1406813561
100
AcDbArc
 50
263.5904105789
 51
266.2650921404
  0
ARC
  5
419
100
AcDbEntity
  8
0
100
AcDbCircle
 62
7
  6
CONTINUOUS
 10
169.0825382808
 20
153.5298985358
 40
121.1406813561
100
AcDbArc
 50
251.2349078596
 51
253.9095894211
  0
ARC
  5
41A
100
AcDbEntity
  8
0
100
AcDbCircle
 62
7
  6
CONTINUOUS
 10
169.0825382808
 20
153.5298985358
 40
121.1406813561
100
AcDbArc
 50
241.0904105789
 51
243.7650921404
  0
ARC
  5
41B
100
AcDbEntity
  8
0
100
AcDbCircle
 62
7
  6
CONTINUOUS
 10
169.0825382808
 20
153.5298985358
 40
121.1406813561
100
AcDbArc
 50
228.7349078596
 51
231.4095894211
  0
ARC
  5
41C
100
AcDbEntity
  8
0
100
AcDbCircle
 62
7
  6
CONTINUOUS
 10
169.0825382808
 20
153.5298985358
 40
121.1406813561
100
AcDbArc
 50
218.5904105789
 51
221.2650921404
  0
ARC
  5
41D
100
AcDbEntity
  8
0
100
AcDbCircle
 62
7
  6
CONTINUOUS
 10
169.0825382808
 20
153.5298985358
 40
121.1406813561
100
AcDbArc
 50
206.2349078596
 51
208.9095894211
  0
ARC
  5
41E
100
AcDbEntity
  8
0
100
AcDbCircle
 62
7
  6
CONTINUOUS
 10
169.0825382808
 20
153.5298985358
 40
121.1406813561
100
AcDbArc
 50
196.0904105789
 51
198.7650921404
  0
ARC
  5
41F
100
AcDbEntity
  8
0
100
AcDbCircle
 62
7
  6
CONTINUOUS
 10
169.0825382808
 20
153.5298985358
 40
121.1406813561
100
AcDbArc
 50
183.7349078596
 51
186.4095894211
  0
ARC
  5
420
100
AcDbEntity
  8
0
100
AcDbCircle
 62
7
  6
CONTINUOUS
 10
169.0825382808
 20
153.5298985358
 40
121.1406813561
100
AcDbArc
 50
173.5904105789
 51
176.2650921404
  0
ARC
  5
421
100
AcDbEntity
  8
0
100
AcDbCircle
 62
7
  6
CONTINUOUS
 10
189.0825382808
 20
173.5298985358
 40
5.0
100
AcDbArc
 50
0.0
 51
90.0
  0
ARC
  5
422
100
AcDbEntity
  8
RUNDUNGEN
100
AcDbCircle
 62
7
  6
CONTINUOUS
 10
188.7825382808
 20
173.2298985358
 40
0.5
100
AcDbArc
 50
0.0
 51
90.0
  0
ARC
  5
423
100
AcDbEntity
  8
0
100
AcDbCircle
 62
7
  6
CONTINUOUS
 10
218.1210896518
 20
273.5395724112
 40
21.6666666667
100
AcDbArc
 50
285.3139555759
 51
295.5021594301
  0
ARC
  5
424
100
AcDbEntity
  8
0
100
AcDbCircle
 62
7
  6
CONTINUOUS
 10
194.4852069029
 20
277.9120943287
 40
21.6666666666
100
AcDbArc
 50
308.1802472651
 51
326.1828532772
  0
ARC
  5
425
100
AcDbEntity
  8
0
100
AcDbCircle
 62
7
  6
CONTINUOUS
 10
219.2667002721
 20
273.0650449551
 40
21.6666666666
100
AcDbArc
 50
199.4978405699
 51
209.6860444241
  0
ARC
  5
426
100
AcDbEntity
  8
0
100
AcDbCircle
 62
7
  6
CONTINUOUS
 10
193.2125382808
 20
278.1652438572
 40
21.6666666666
100
AcDbArc
 50
191.3171467228
 51
209.3197527349
  0
ARC
  5
427
100
AcDbEntity
  8
0
100
AcDbCircle
 62
7
  6
CONTINUOUS
 10
169.7025382808
 20
283.1706210895
 40
21.6666666666
100
AcDbArc
 50
221.9978405699
 51
232.1860444241
  0
ARC
  5
428
100
AcDbEntity
  8
RUNDUNGEN
100
AcDbCircle
 62
7
  6
CONTINUOUS
 10
218.1210896518
 20
273.5395724112
 40
16.6666666666
100
AcDbArc
 50
290.1204782948
 51
301.2473672409
  0
ARC
  5
429
100
AcDbEntity
  8
RUNDUNGEN
100
AcDbCircle
 62
7
  6
CONTINUOUS
 10
194.4852069029
 20
277.9120943287
 40
16.6666666666
100
AcDbArc
 50
314.7282978974
 51
332.2557727191
  0
ARC
  5
42A
100
AcDbEntity
  8
RUNDUNGEN
100
AcDbCircle
 62
7
  6
CONTINUOUS
 10
219.2667002721
 20
273.0650449551
 40
16.6666666666
100
AcDbArc
 50
193.7526327591
 51
204.8795217052
  0
ARC
  5
42B
100
AcDbEntity
  8
RUNDUNGEN
100
AcDbCircle
 62
7
  6
CONTINUOUS
 10
193.2125382808
 20
278.1652438572
 40
16.6666666667
100
AcDbArc
 50
185.2442272809
 51
202.7717021026
  0
ARC
  5
42C
100
AcDbEntity
  8
RUNDUNGEN
100
AcDbCircle
 62
7
  6
CONTINUOUS
 10
169.7025382808
 20
283.1706210895
 40
16.6666666666
100
AcDbArc
 50
216.2526327591
 51
227.3795217052
  0
ARC
  5
42D
100
AcDbEntity
  8
0
100
AcDbCircle
 62
7
  6
CONTINUOUS
 10
222.5228893202
 20
257.4646871097
 40
5.0
100
AcDbArc
 50
186.8197527349
 51
285.3139555759
  0
ARC
  5
42E
100
AcDbEntity
  8
0
100
AcDbCircle
 62
7
  6
CONTINUOUS
 10
204.7874974736
 20
264.8109269466
 40
5.0
100
AcDbArc
 50
209.6860444241
 51
308.1802472651
  0
ARC
  5
42F
100
AcDbEntity
  8
0
100
AcDbCircle
 62
7
  6
CONTINUOUS
 10
178.6808631827
 20
270.0038593777
 40
5.0
100
AcDbArc
 50
209.3197527349
 51
307.8139555759
  0
ARC
  5
430
100
AcDbEntity
  8
RUNDUNGEN
100
AcDbCircle
 62
7
  6
CONTINUOUS
 10
220.7676569503
 20
265.1293496117
 40
2.5
100
AcDbArc
 50
342.7442272809
 51
67.5
  0
ARC
  5
431
100
AcDbEntity
  8
RUNDUNGEN
100
AcDbCircle
 62
7
  6
CONTINUOUS
 10
211.4483690156
 20
268.9895250659
 40
2.5
100
AcDbArc
 50
67.5
 51
152.2557727191
  0
ARC
  5
432
100
AcDbEntity
  8
RUNDUNGEN
100
AcDbCircle
 62
7
  6
CONTINUOUS
 10
174.1261005672
 20
276.4133858389
 40
2.5
100
AcDbArc
 50
5.2442272809
 51
90.0
  0
ARC
  5
433
100
AcDbEntity
  8
RUNDUNGEN
100
AcDbCircle
 62
7
  6
CONTINUOUS
 10
227.8041238358
 20
257.5807725367
 40
2.0
100
AcDbArc
 50
49.5
 51
121.2473672409
  0
ARC
  5
434
100
AcDbEntity
  8
RUNDUNGEN
100
AcDbCircle
 62
7
  6
CONTINUOUS
 10
201.1351855272
 20
268.6274084782
 40
2.0
100
AcDbArc
 50
13.7526327591
 51
85.5
  0
ARC
  5
435
100
AcDbEntity
  8
RUNDUNGEN
100
AcDbCircle
 62
7
  6
CONTINUOUS
 10
183.5156636884
 20
272.1321492792
 40
2.0
100
AcDbArc
 50
72.0
 51
143.7473672409
  0
ARC
  5
436
100
AcDbEntity
  8
0
100
AcDbCircle
 62
7
  6
CONTINUOUS
 10
298.7232608345
 20
154.1498985358
 40
21.6666666667
100
AcDbArc
 50
217.8139555759
 51
228.0021594301
  0
ARC
  5
437
100
AcDbEntity
  8
0
100
AcDbCircle
 62
7
  6
CONTINUOUS
 10
293.7178836022
 20
177.6598985358
 40
21.6666666666
100
AcDbArc
 50
240.6802472651
 51
258.6828532772
  0
ARC
  5
438
100
AcDbEntity
  8
0
100
AcDbCircle
 62
7
  6
CONTINUOUS
 10
288.6176847001
 20
203.7140605271
 40
21.6666666667
100
AcDbArc
 50
240.3139555759
 51
250.5021594301
  0
ARC
  5
439
100
AcDbEntity
  8
0
100
AcDbCircle
 62
7
  6
CONTINUOUS
 10
293.4647340737
 20
178.9325671579
 40
21.6666666666
100
AcDbArc
 50
123.8171467228
 51
141.8197527349
  0
ARC
  5
43A
100
AcDbEntity
  8
0
100
AcDbCircle
 62
7
  6
CONTINUOUS
 10
289.0922121562
 20
202.5684499068
 40
21.6666666666
100
AcDbArc
 50
154.4978405699
 51
164.6860444241
  0
ARC
  5
43B
100
AcDbEntity
  8
0
100
AcDbCircle
 62
7
  6
CONTINUOUS
 10
298.7232608345
 20
154.1498985358
 40
16.6666666666
100
AcDbArc
 50
222.6204782948
 51
233.7473672409
  0
ARC
  5
43C
100
AcDbEntity
  8
0
100
AcDbCircle
 62
7
  6
CONTINUOUS
 10
293.7178836022
 20
177.6598985358
 40
16.6666666666
100
AcDbArc
 50
247.2282978974
 51
264.7557727191
  0
ARC
  5
43D
100
AcDbEntity
  8
0
100
AcDbCircle
 62
7
  6
CONTINUOUS
 10
288.6176847001
 20
203.7140605271
 40
16.6666666666
100
AcDbArc
 50
245.1204782948
 51
256.2473672409
  0
ARC
  5
43E
100
AcDbEntity
  8
0
100
AcDbCircle
 62
7
  6
CONTINUOUS
 10
293.4647340737
 20
178.9325671579
 40
16.6666666667
100
AcDbArc
 50
117.7442272809
 51
135.2717021026
  0
ARC
  5
43F
100
AcDbEntity
  8
0
100
AcDbCircle
 62
7
  6
CONTINUOUS
 10
289.0922121562
 20
202.5684499068
 40
16.6666666666
100
AcDbArc
 50
148.7526327591
 51
159.8795217052
  0
ARC
  5
440
100
AcDbEntity
  8
0
100
AcDbCircle
 62
7
  6
CONTINUOUS
 10
285.5564991227
 20
163.1282234377
 40
5.0
100
AcDbArc
 50
142.1860444241
 51
240.6802472651
  0
ARC
  5
441
100
AcDbEntity
  8
0
100
AcDbCircle
 62
7
  6
CONTINUOUS
 10
280.3635666916
 20
189.2348577286
 40
5.0
100
AcDbArc
 50
141.8197527349
 51
240.3139555759
  0
ARC
  5
442
100
AcDbEntity
  8
0
100
AcDbCircle
 62
7
  6
CONTINUOUS
 10
273.0173268547
 20
206.9702495752
 40
5.0
100
AcDbArc
 50
164.6860444241
 51
263.1802472651
  0
ARC
  5
443
100
AcDbEntity
  8
0
100
AcDbCircle
 62
7
  6
CONTINUOUS
 10
291.9660255839
 20
158.5734608222
 40
2.5
100
AcDbArc
 50
0.0
 51
84.7557727191
  0
ARC
  5
444
100
AcDbEntity
  8
0
100
AcDbCircle
 62
7
  6
CONTINUOUS
 10
284.5421648109
 20
195.8957292706
 40
2.5
100
AcDbArc
 50
297.7442272809
 51
22.5
  0
ARC
  5
445
100
AcDbEntity
  8
0
100
AcDbCircle
 62
7
  6
CONTINUOUS
 10
280.6819893566
 20
205.2150172053
 40
2.5
100
AcDbArc
 50
22.5
 51
107.2557727191
  0
ARC
  5
446
100
AcDbEntity
  8
0
100
AcDbCircle
 62
7
  6
CONTINUOUS
 10
287.6847890242
 20
167.9630239434
 40
2.0
100
AcDbArc
 50
306.2526327591
 51
18.0
  0
ARC
  5
447
100
AcDbEntity
  8
0
100
AcDbCircle
 62
7
  6
CONTINUOUS
 10
284.1800482232
 20
185.5825457823
 40
2.0
100
AcDbArc
 50
4.5
 51
76.2473672409
  0
ARC
  5
448
100
AcDbEntity
  8
0
100
AcDbCircle
 62
7
  6
CONTINUOUS
 10
273.1334122817
 20
212.2514840908
 40
2.0
100
AcDbArc
 50
328.7526327591
 51
40.5
  0
ARC
  5
449
100
AcDbEntity
  8
0
100
AcDbCircle
 62
7
  6
CONTINUOUS
 10
274.9964316277
 20
223.5189933969
 40
21.6666666666
100
AcDbArc
 50
263.1802472651
 51
281.1828532772
  0
ARC
  5
44A
100
AcDbEntity
  8
0
100
AcDbCircle
 62
7
  6
CONTINUOUS
 10
260.3139661121
 20
245.6381387758
 40
21.6666666667
100
AcDbArc
 50
262.8139555759
 51
273.0021594301
  0
ARC
  5
44B
100
AcDbEntity
  8
0
100
AcDbCircle
 62
7
  6
CONTINUOUS
 10
274.2755227631
 20
224.5979097581
 40
21.6666666666
100
AcDbArc
 50
146.3171467228
 51
164.3197527349
  0
ARC
  5
44C
100
AcDbEntity
  8
0
100
AcDbCircle
 62
7
  6
CONTINUOUS
 10
240.150549503
 20
258.7228830181
 40
21.6666666666
100
AcDbArc
 50
285.6802472651
 51
303.6828532772
  0
ARC
  5
44D
100
AcDbEntity
  8
0
100
AcDbCircle
 62
7
  6
CONTINUOUS
 10
261.1907785208
 20
244.7613263671
 40
21.6666666666
100
AcDbArc
 50
176.9978405699
 51
187.1860444241
  0
ARC
  5
44E
100
AcDbEntity
  8
0
100
AcDbCircle
 62
7
  6
CONTINUOUS
 10
239.0716331419
 20
259.4437918828
 40
21.6666666666
100
AcDbArc
 50
168.8171467228
 51
186.8197527349
  0
ARC
  5
44F
100
AcDbEntity
  8
0
100
AcDbCircle
 62
7
  6
CONTINUOUS
 10
274.9964316277
 20
223.5189933969
 40
16.6666666666
100
AcDbArc
 50
269.7282978974
 51
287.2557727191
  0
ARC
  5
450
100
AcDbEntity
  8
RUNDUNGEN
100
AcDbCircle
 62
7
  6
CONTINUOUS
 10
260.3139661121
 20
245.6381387758
 40
16.6666666666
100
AcDbArc
 50
267.6204782948
 51
278.7473672409
  0
ARC
  5
451
100
AcDbEntity
  8
RUNDUNGEN
100
AcDbCircle
 62
7
  6
CONTINUOUS
 10
274.2755227631
 20
224.5979097581
 40
16.6666666667
100
AcDbArc
 50
140.2442272809
 51
157.7717021026
  0
ARC
  5
452
100
AcDbEntity
  8
RUNDUNGEN
100
AcDbCircle
 62
7
  6
CONTINUOUS
 10
240.150549503
 20
258.7228830181
 40
16.6666666666
100
AcDbArc
 50
292.2282978974
 51
309.7557727191
  0
ARC
  5
453
100
AcDbEntity
  8
RUNDUNGEN
100
AcDbCircle
 62
7
  6
CONTINUOUS
 10
261.1907785208
 20
244.7613263671
 40
16.6666666666
100
AcDbArc
 50
171.2526327591
 51
182.3795217052
  0
ARC
  5
454
100
AcDbEntity
  8
RUNDUNGEN
100
AcDbCircle
 62
7
  6
CONTINUOUS
 10
239.0716331419
 20
259.4437918828
 40
16.6666666667
100
AcDbArc
 50
162.7442272809
 51
180.2717021026
  0
ARC
  5
455
100
AcDbEntity
  8
0
100
AcDbCircle
 62
7
  6
CONTINUOUS
 10
258.22910645
 20
229.1023854526
 40
5.0
100
AcDbArc
 50
164.3197527349
 51
262.8139555759
  0
ARC
  5
456
100
AcDbEntity
  8
0
100
AcDbCircle
 62
7
  6
CONTINUOUS
 10
244.6550251975
 20
242.676466705
 40
5.0
100
AcDbArc
 50
187.1860444241
 51
285.6802472651
  0
ARC
  5
457
100
AcDbEntity
  8
RUNDUNGEN
100
AcDbCircle
 62
7
  6
CONTINUOUS
 10
259.5406225427
 20
236.8553086096
 40
2.5
100
AcDbArc
 50
320.2442272809
 51
45.0
  0
ARC
  5
458
100
AcDbEntity
  8
RUNDUNGEN
100
AcDbCircle
 62
7
  6
CONTINUOUS
 10
252.4079483546
 20
243.9879827978
 40
2.5
100
AcDbArc
 50
45.0
 51
129.7557727191
  0
ARC
  5
459
100
AcDbEntity
  8
RUNDUNGEN
100
AcDbCircle
 62
7
  6
CONTINUOUS
 10
263.1527548949
 20
227.188593451
 40
2.0
100
AcDbArc
 50
27.0
 51
98.7473672409
  0
ARC
  5
45A
100
AcDbEntity
  8
RUNDUNGEN
100
AcDbCircle
 62
7
  6
CONTINUOUS
 10
242.741233196
 20
247.6001151499
 40
2.0
100
AcDbArc
 50
351.2526327591
 51
63.0
  0
ENDSEC
  0
SECTION
  2
OBJECTS
  0
DICTIONARY
  5
C
100
AcDbDictionary
280
0
281
1
  3
ACAD_GROUP
350
D
  3
ACAD_MLINESTYLE
350
17
  3
ACAD_LAYOUT
350
1A
  3
ACAD_PLOTSETTINGS
350
19
  3
ACAD_PLOTSTYLENAME
350
E
  0
DICTIONARY
  5
D
102
{ACAD_REACTORS
330
C
102
}
100
AcDbDictionary
280
0
281
1
  0
ACDBDICTIONARYWDFLT
  5
E
102
{ACAD_REACTORS
330
C
102
}
100
AcDbDictionary
281
1
  3
Normal
350
F
100
AcDbDictionaryWithDefault
340
F
  0
DICTIONARY
  5
17
102
{ACAD_REACTORS
330
C
102
}
100
AcDbDictionary
280
0
281
1
  3
Standard
350
18
  0
DICTIONARY
  5
19
102
{ACAD_REACTORS
330
C
102
}
100
AcDbDictionary
281
1
  0
DICTIONARY
  5
1A
102
{ACAD_REACTORS
330
C
102
}
100
AcDbDictionary
281
1
  3
Model
350
45B
  3
Layout1
350
45C
  0
ACDBPLACEHOLDER
  5
F
102
{ACAD_REACTORS
330
E
102
}
  0
MLINESTYLE
  5
18
102
{ACAD_REACTORS
330
17
102
}
100
AcDbMlineStyle
  2
STANDARD
 70
0
  3

 62
256
 51
90.0
 52
90.0
 71
2
 49
0.5
 62
256
  6
BYLAYER
 49
-0.5
 62
256
  6
BYLAYER
  0
LAYOUT
  5
45B
102
{ACAD_REACTORS
330
1A
102
}
100
AcDbPlotSettings
  1

  2
none_device
  4
ISO_A3_(420.00_x_297.00_MM)
  6

 40
0.0
 41
0.0
 42
0.0
 43
0.0
 44
420.0
 45
297.0
 46
0.0
 47
0.0
 48
0.0
 49
0.0
140
0.0
141
0.0
142
1.0
143
1.0
 70
1024
 72
1
 73
0
 74
0
  7

 75
0
147
1.0
148
0.0
149
0.0
100
AcDbLayout
  1
Model
 70
0
 71
0
 10
0.0
 20
0.0
 11
420.0
 21
297.0
 12
0.0
 22
0.0
 32
0.0
 14
0.0
 24
0.0
 34
0.0
 15
0.0
 25
0.0
 35
0.0
146
0.0
 13
0.0
 23
0.0
 33
0.0
 16
1.0
 26
0.0
 36
0.0
 17
0.0
 27
1.0
 37
0.0
 76
0
330
210
345
0
346
0
  0
LAYOUT
  5
45C
102
{ACAD_REACTORS
330
1A
102
}
100
AcDbPlotSettings
  1

  2
none_device
  4
ISO_A3_(420.00_x_297.00_MM)
  6

 40
0.0
 41
0.0
 42
0.0
 43
0.0
 44
420.0
 45
297.0
 46
0.0
 47
0.0
 48
0.0
 49
0.0
140
0.0
141
0.0
142
1.0
143
1.0
 70
0
 72
1
 73
0
 74
0
  7

 75
0
147
1.0
148
0.0
149
0.0
100
AcDbLayout
  1
Layout1
 70
0
 71
1
 10
0.0
 20
0.0
 11
420.0
 21
297.0
 12
0.0
 22
0.0
 32
0.0
 14
0.0
 24
0.0
 34
0.0
 15
0.0
 25
0.0
 35
0.0
146
0.0
 13
0.0
 23
0.0
 33
0.0
 16
1.0
 26
0.0
 36
0.0
 17
0.0
 27
1.0
 37
0.0
 76
0
330
211
345
0
346
0
  0
ENDSEC
  0
EOF
