  0
SECTION
  2
HEADER
  9
$ACADVER
  1
AC1018
  9
$ACADMAINTVER
 70
     0
  9
$DWGCODEPAGE
  3
ANSI_1252
  9
$INSBASE
 10
0.0
 20
0.0
 30
0.0
  9
$EXTMIN
 10
-7.89406792122107
 20
72.53864662736633
 30
0.0
  9
$EXTMAX
 10
300.5639747411189
 20
290.6402929542734
 30
0.0
  9
$LIMMIN
 10
-7.89406792122107
 20
72.53864662736633
  9
$LIMMAX
 10
300.5639747411189
 20
290.6402929542734
  9
$ORTHOMODE
 70
     1
  9
$REGENMODE
 70
     1
  9
$FILLMODE
 70
     1
  9
$QTEXTMODE
 70
     0
  9
$MIRRTEXT
 70
     0
  9
$LTSCALE
 40
1.0
  9
$ATTMODE
 70
     1
  9
$TEXTSIZE
 40
2.5
  9
$TRACEWID
 40
1.0
  9
$TEXTSTYLE
  7
Standard
  9
$CLAYER
  8
0
  9
$CELTYPE
  6
ByLayer
  9
$CECOLOR
 62
     7
  9
$CELTSCALE
 40
1.0
  9
$DISPSILH
 70
     0
  9
$DIMSCALE
 40
1.0
  9
$DIMASZ
 40
0.18
  9
$DIMEXO
 40
0.0625
  9
$DIMDLI
 40
0.38
  9
$DIMRND
 40
0.0000001
  9
$DIMDLE
 40
0.0
  9
$DIMEXE
 40
0.18
  9
$DIMTP
 40
0.0
  9
$DIMTM
 40
0.0
  9
$DIMTXT
 40
0.18
  9
$DIMCEN
 40
0.09
  9
$DIMTSZ
 40
0.0
  9
$DIMTOL
 70
     0
  9
$DIMLIM
 70
     0
  9
$DIMTIH
 70
     1
  9
$DIMTOH
 70
     1
  9
$DIMSE1
 70
     0
  9
$DIMSE2
 70
     0
  9
$DIMTAD
 70
     0
  9
$DIMZIN
 70
     0
  9
$DIMBLK
  1

  9
$DIMASO
 70
     1
  9
$DIMSHO
 70
     1
  9
$DIMPOST
  1

  9
$DIMAPOST
  1

  9
$DIMALT
 70
     0
  9
$DIMALTD
 70
     2
  9
$DIMALTF
 40
25.4
  9
$DIMLFAC
 40
1.0
  9
$DIMTOFL
 70
     0
  9
$DIMTVP
 40
0.0
  9
$DIMTIX
 70
     0
  9
$DIMSOXD
 70
     0
  9
$DIMSAH
 70
     0
  9
$DIMBLK1
  1

  9
$DIMBLK2
  1

  9
$DIMSTYLE
  2
Standard
  9
$DIMCLRD
 70
     0
  9
$DIMCLRE
 70
     0
  9
$DIMCLRT
 70
     0
  9
$DIMTFAC
 40
1.0
  9
$DIMGAP
 40
0.09
  9
$DIMJUST
 70
     0
  9
$DIMSD1
 70
     0
  9
$DIMSD2
 70
     0
  9
$DIMTOLJ
 70
     1
  9
$DIMTZIN
 70
     0
  9
$DIMALTZ
 70
     0
  9
$DIMALTTZ
 70
     0
  9
$DIMUPT
 70
     0
  9
$DIMDEC
 70
     4
  9
$DIMTDEC
 70
     4
  9
$DIMALTU
 70
     2
  9
$DIMALTTD
 70
     2
  9
$DIMTXSTY
  7
_TCW_TXTSTY_1
  9
$DIMAUNIT
 70
     0
  9
$DIMADEC
 70
     4
  9
$DIMALTRND
 40
0.01
  9
$DIMAZIN
 70
     0
  9
$DIMDSEP
 70
    46
  9
$DIMATFIT
 70
     3
  9
$DIMFRAC
 70
     0
  9
$DIMLDRBLK
  1

  9
$DIMLUNIT
 70
     2
  9
$DIMLWD
 70
    -2
  9
$DIMLWE
 70
    -2
  9
$DIMTMOVE
 70
     0
  9
$LUNITS
 70
     2
  9
$LUPREC
 70
     4
  9
$SKETCHINC
 40
1.0
  9
$FILLETRAD
 40
0.0
  9
$AUNITS
 70
     0
  9
$AUPREC
 70
     0
  9
$MENU
  1
.
  9
$ELEVATION
 40
0.0
  9
$PELEVATION
 40
0.0
  9
$THICKNESS
 40
0.0
  9
$LIMCHECK
 70
     0
  9
$CHAMFERA
 40
0.5
  9
$CHAMFERB
 40
0.5
  9
$CHAMFERC
 40
1.0
  9
$CHAMFERD
 40
0.0
  9
$SKPOLY
 70
     0
  9
$TDCREATE
 40
2454839.562143993
  9
$TDUCREATE
 40
2454839.520477327
  9
$TDUPDATE
 40
2454839.562144005
  9
$TDUUPDATE
 40
2454839.520477338
  9
$TDINDWG
 40
0.0
  9
$TDUSRTIMER
 40
0.0
  9
$USRTIMER
 70
     1
  9
$ANGBASE
 50
0.0
  9
$ANGDIR
 70
     0
  9
$PDMODE
 70
     0
  9
$PDSIZE
 40
0.0
  9
$PLINEWID
 40
0.0
  9
$SPLFRAME
 70
     0
  9
$SPLINETYPE
 70
     6
  9
$SPLINESEGS
 70
     8
  9
$HANDSEED
  5
4D8
  9
$SURFTAB1
 70
     6
  9
$SURFTAB2
 70
     6
  9
$SURFTYPE
 70
     6
  9
$SURFU
 70
     6
  9
$SURFV
 70
     6
  9
$UCSBASE
  2

  9
$UCSNAME
  2

  9
$UCSORG
 10
0.0
 20
0.0
 30
0.0
  9
$UCSXDIR
 10
1.0
 20
0.0
 30
0.0
  9
$UCSYDIR
 10
0.0
 20
1.0
 30
0.0
  9
$UCSORTHOREF
  2

  9
$UCSORTHOVIEW
 70
     0
  9
$UCSORGTOP
 10
0.0
 20
0.0
 30
0.0
  9
$UCSORGBOTTOM
 10
0.0
 20
0.0
 30
0.0
  9
$UCSORGLEFT
 10
0.0
 20
0.0
 30
0.0
  9
$UCSORGRIGHT
 10
0.0
 20
0.0
 30
0.0
  9
$UCSORGFRONT
 10
0.0
 20
0.0
 30
0.0
  9
$UCSORGBACK
 10
0.0
 20
0.0
 30
0.0
  9
$PUCSBASE
  2

  9
$PUCSNAME
  2

  9
$PUCSORG
 10
0.0
 20
0.0
 30
0.0
  9
$PUCSXDIR
 10
1.0
 20
0.0
 30
0.0
  9
$PUCSYDIR
 10
0.0
 20
1.0
 30
0.0
  9
$PUCSORTHOREF
  2

  9
$PUCSORTHOVIEW
 70
     0
  9
$PUCSORGTOP
 10
0.0
 20
0.0
 30
0.0
  9
$PUCSORGBOTTOM
 10
0.0
 20
0.0
 30
0.0
  9
$PUCSORGLEFT
 10
0.0
 20
0.0
 30
0.0
  9
$PUCSORGRIGHT
 10
0.0
 20
0.0
 30
0.0
  9
$PUCSORGFRONT
 10
0.0
 20
0.0
 30
0.0
  9
$PUCSORGBACK
 10
0.0
 20
0.0
 30
0.0
  9
$USERI1
 70
     0
  9
$USERI2
 70
     0
  9
$USERI3
 70
     0
  9
$USERI4
 70
     0
  9
$USERI5
 70
     0
  9
$USERR1
 40
0.0
  9
$USERR2
 40
0.0
  9
$USERR3
 40
0.0
  9
$USERR4
 40
0.0
  9
$USERR5
 40
0.0
  9
$WORLDVIEW
 70
     1
  9
$SHADEDGE
 70
     3
  9
$SHADEDIF
 70
    70
  9
$TILEMODE
 70
     1
  9
$MAXACTVP
 70
    64
  9
$PINSBASE
 10
0.0
 20
0.0
 30
0.0
  9
$PLIMCHECK
 70
     0
  9
$PEXTMIN
 10
-2.97407440810383
 20
-13.33206671995879
 30
0.0
  9
$PEXTMAX
 10
294.0259255918962
 20
196.6679332800412
 30
0.0
  9
$PLIMMIN
 10
-2.97407440810383
 20
-13.33206671995879
  9
$PLIMMAX
 10
294.0259255918962
 20
196.6679332800412
  9
$UNITMODE
 70
     0
  9
$VISRETAIN
 70
     1
  9
$PLINEGEN
 70
     0
  9
$PSLTSCALE
 70
     1
  9
$TREEDEPTH
 70
  3020
  9
$CMLSTYLE
  2
Standard
  9
$CMLJUST
 70
     0
  9
$CMLSCALE
 40
1.0
  9
$PROXYGRAPHICS
 70
     1
  9
$MEASUREMENT
 70
     0
  9
$CELWEIGHT
370
    -1
  9
$ENDCAPS
280
     0
  9
$JOINSTYLE
280
     0
  9
$LWDISPLAY
290
     0
  9
$INSUNITS
 70
     1
  9
$HYPERLINKBASE
  1

  9
$STYLESHEET
  1

  9
$XEDIT
290
     1
  9
$CEPSNTYPE
380
     0
  9
$PSTYLEMODE
290
     1
  9
$FINGERPRINTGUID
  2
{D6DC7E16-3D5B-4B46-83DF-7BF29FA10C4B}
  9
$VERSIONGUID
  2
{FAEB1C32-E019-11D5-929B-00C0DF256EC4}
  9
$EXTNAMES
290
     1
  9
$PSVPSCALE
 40
0.0
  9
$OLESTARTUP
290
     0
  9
$SORTENTS
280
   127
  9
$INDEXCTL
280
     0
  9
$HIDETEXT
280
     1
  9
$XCLIPFRAME
290
     0
  9
$HALOGAP
280
     0
  9
$OBSCOLOR
 70
   257
  9
$OBSLTYPE
280
     0
  9
$INTERSECTIONDISPLAY
280
     0
  9
$INTERSECTIONCOLOR
 70
   257
  9
$DIMASSOC
280
     2
  9
$PROJECTNAME
  1

  0
ENDSEC
  0
SECTION
  2
CLASSES
  0
CLASS
  1
ACDBDICTIONARYWDFLT
  2
AcDbDictionaryWithDefault
  3
ObjectDBX Classes
 90
        0
 91
        3
280
     0
281
     0
  0
CLASS
  1
VISUALSTYLE
  2
AcDbVisualStyle
  3
ObjectDBX Classes
 90
     4095
 91
        3
280
     0
281
     0
  0
CLASS
  1
TCOPTIONALDATA
  2
TcOptionalData
  3
ExTcadCustObjs|Description: TurboCAD extension data object
 90
        0
 91
        3
280
     0
281
     0
  0
ENDSEC
  0
SECTION
  2
TABLES
  0
TABLE
  2
VPORT
  5
8
330
0
100
AcDbSymbolTable
 70
     1
  0
VPORT
  5
29
330
8
100
AcDbSymbolTableRecord
100
AcDbViewportTableRecord
  2
*Active
 70
     0
 10
0.0
 20
0.0
 11
1.0
 21
1.0
 12
0.0
 22
0.0
 13
0.0
 23
0.0
 14
10.0
 24
10.0
 15
10.0
 25
10.0
 16
0.0
 26
0.0
 36
1.0
 17
244.0135037545942
 27
284.8144478412117
 37
0.0
 40
156.3630077898403
 41
1.972704714640199
 42
50.0
 43
0.0
 44
0.0
 50
0.0
 51
0.0
 71
     0
 72
   100
 73
     1
 74
     3
 75
     0
 76
     0
 77
     0
 78
     0
281
     0
 65
     1
110
0.0
120
0.0
130
0.0
111
1.0
121
0.0
131
0.0
112
0.0
122
1.0
132
0.0
 79
     0
146
0.0
  0
ENDTAB
  0
TABLE
  2
LTYPE
  5
5
330
0
100
AcDbSymbolTable
 70
    17
  0
LTYPE
  5
14
330
5
100
AcDbSymbolTableRecord
100
AcDbLinetypeTableRecord
  2
ByBlock
 70
     0
  3

 72
    65
 73
     0
 40
0.0
  0
LTYPE
  5
15
330
5
100
AcDbSymbolTableRecord
100
AcDbLinetypeTableRecord
  2
ByLayer
 70
     0
  3

 72
    65
 73
     0
 40
0.0
  0
LTYPE
  5
16
330
5
100
AcDbSymbolTableRecord
100
AcDbLinetypeTableRecord
  2
Continuous
 70
     0
  3
Solid line
 72
    65
 73
     0
 40
0.0
  0
LTYPE
  5
40
330
5
100
AcDbSymbolTableRecord
100
AcDbLinetypeTableRecord
  2
Durchgehend
 70
     0
  3
Durchgehend
 72
    65
 73
     0
 40
0.0
  0
LTYPE
  5
41
330
5
100
AcDbSymbolTableRecord
100
AcDbLinetypeTableRecord
  2
Rand
 70
     0
  3
Rand
 72
    65
 73
     6
 40
1.75
 49
0.5
 74
     0
 49
-0.25
 74
     0
 49
0.5
 74
     0
 49
-0.25
 74
     0
 49
0.0
 74
     0
 49
-0.25
 74
     0
  0
LTYPE
  5
42
330
5
100
AcDbSymbolTableRecord
100
AcDbLinetypeTableRecord
  2
Mitte
 70
     0
  3
Mitte
 72
    65
 73
     4
 40
2.0
 49
1.25
 74
     0
 49
-0.25
 74
     0
 49
0.25
 74
     0
 49
-0.25
 74
     0
  0
LTYPE
  5
43
330
5
100
AcDbSymbolTableRecord
100
AcDbLinetypeTableRecord
  2
Strichpunkt
 70
     0
  3
Strichpunkt
 72
    65
 73
     4
 40
1.0
 49
0.5
 74
     0
 49
-0.25
 74
     0
 49
0.0
 74
     0
 49
-0.25
 74
     0
  0
LTYPE
  5
44
330
5
100
AcDbSymbolTableRecord
100
AcDbLinetypeTableRecord
  2
Gestrichelt
 70
     0
  3
Gestrichelt
 72
    65
 73
     2
 40
0.75
 49
0.5
 74
     0
 49
-0.25
 74
     0
  0
LTYPE
  5
45
330
5
100
AcDbSymbolTableRecord
100
AcDbLinetypeTableRecord
  2
Teilen
 70
     0
  3
Teilen
 72
    65
 73
     6
 40
1.25
 49
0.5
 74
     0
 49
-0.25
 74
     0
 49
0.0
 74
     0
 49
-0.25
 74
     0
 49
0.0
 74
     0
 49
-0.25
 74
     0
  0
LTYPE
  5
46
330
5
100
AcDbSymbolTableRecord
100
AcDbLinetypeTableRecord
  2
Punkt
 70
     0
  3
Punkt
 72
    65
 73
     2
 40
0.25
 49
0.0
 74
     0
 49
-0.25
 74
     0
  0
LTYPE
  5
47
330
5
100
AcDbSymbolTableRecord
100
AcDbLinetypeTableRecord
  2
Verdeckt
 70
     0
  3
Verdeckt
 72
    65
 73
     2
 40
0.375
 49
0.25
 74
     0
 49
-0.125
 74
     0
  0
LTYPE
  5
48
330
5
100
AcDbSymbolTableRecord
100
AcDbLinetypeTableRecord
  2
$INVISIBLE
 70
     0
  3
$INVISIBLE
 72
    65
 73
     2
 40
200.0
 49
-100.0
 74
     0
 49
-100.0
 74
     0
  0
LTYPE
  5
49
330
5
100
AcDbSymbolTableRecord
100
AcDbLinetypeTableRecord
  2
HIDDEN
 70
     0
  3
HIDDEN
 72
    65
 73
     2
 40
9.524999999999999
 49
6.35
 74
     0
 49
-3.175
 74
     0
  0
LTYPE
  5
4A
330
5
100
AcDbSymbolTableRecord
100
AcDbLinetypeTableRecord
  2
DOT
 70
     0
  3
DOT
 72
    65
 73
     2
 40
0.25
 49
0.0
 74
     0
 49
-0.25
 74
     0
  0
LTYPE
  5
4B
330
5
100
AcDbSymbolTableRecord
100
AcDbLinetypeTableRecord
  2
CENTER
 70
     0
  3
CENTER
 72
    65
 73
     4
 40
50.8
 49
31.75
 74
     0
 49
-6.35
 74
     0
 49
6.35
 74
     0
 49
-6.35
 74
     0
  0
LTYPE
  5
4C
330
5
100
AcDbSymbolTableRecord
100
AcDbLinetypeTableRecord
  2
DASHDOT
 70
     0
  3
DASHDOT
 72
    65
 73
     4
 40
1.0
 49
0.5
 74
     0
 49
-0.25
 74
     0
 49
0.0
 74
     0
 49
-0.25
 74
     0
  0
LTYPE
  5
4D
330
5
100
AcDbSymbolTableRecord
100
AcDbLinetypeTableRecord
  2
DASHED
 70
     0
  3
DASHED
 72
    65
 73
     2
 40
0.75
 49
0.5
 74
     0
 49
-0.25
 74
     0
  0
LTYPE
  5
4E
330
5
100
AcDbSymbolTableRecord
100
AcDbLinetypeTableRecord
  2
$SNAPEXT
 70
     0
  3
$SNAPEXT
 72
    65
 73
     2
 40
0.04
 49
0.02
 74
     0
 49
-0.02
 74
     0
  0
LTYPE
  5
4F
330
5
100
AcDbSymbolTableRecord
100
AcDbLinetypeTableRecord
  2
$AUXILIARY
 70
     0
  3
$AUXILIARY
 72
    65
 73
     2
 40
0.1
 49
0.05
 74
     0
 49
-0.05
 74
     0
  0
ENDTAB
  0
TABLE
  2
LAYER
  5
2
330
0
100
AcDbSymbolTable
 70
     2
  0
LAYER
  5
10
330
2
100
AcDbSymbolTableRecord
100
AcDbLayerTableRecord
  2
0
 70
     0
 62
     7
  6
Continuous
370
     0
390
F
  0
LAYER
  5
50
330
2
100
AcDbSymbolTableRecord
100
AcDbLayerTableRecord
  2
Main lines
 70
     0
 62
     1
420
 16711680
  6
Continuous
370
    50
390
F
  0
ENDTAB
  0
TABLE
  2
STYLE
  5
3
330
0
100
AcDbSymbolTable
 70
     5
  0
STYLE
  5
11
330
3
100
AcDbSymbolTableRecord
100
AcDbTextStyleTableRecord
  2
Standard
 70
     0
 40
0.0
 41
1.0
 50
0.0
 71
     0
 42
0.2
  3
txt
  4

  0
STYLE
  5
54
330
3
100
AcDbSymbolTableRecord
100
AcDbTextStyleTableRecord
  2
ISO Proportional
 70
     0
 40
0.0
 41
1.0
 50
0.0
 71
     0
 42
2.5
  3
ISOCP.SHX
  4

  0
STYLE
  5
55
330
3
100
AcDbSymbolTableRecord
100
AcDbTextStyleTableRecord
  2

 70
     1
 40
0.0
 41
1.0
 50
0.0
 71
     0
 42
2.5
  3
LTYPESHP.SHX
  4

  0
STYLE
  5
56
330
3
100
AcDbSymbolTableRecord
100
AcDbTextStyleTableRecord
  2
YUSIMPLE
 70
     0
 40
0.0
 41
1.0
 50
0.0
 71
     0
 42
2.5
  3
YUSIMPLE.SHX
  4

  0
STYLE
  5
57
330
3
100
AcDbSymbolTableRecord
100
AcDbTextStyleTableRecord
  2
_TCW_TXTSTY_1
 70
     0
 40
0.0
 41
1.0
 50
0.0
 71
     0
 42
0.6000000238418579
  3
TXT.SHX
  4

  0
ENDTAB
  0
TABLE
  2
VIEW
  5
6
330
0
100
AcDbSymbolTable
 70
     3
  0
VIEW
  5
51
330
6
100
AcDbSymbolTableRecord
100
AcDbViewTableRecord
  2
Ansicht_0
 70
     0
 40
210.0
 10
148.5
 20
105.0
 41
297.0
 11
0.0
 21
0.0
 31
1.0
 12
0.0
 22
0.0
 32
0.0
 42
50.0
 43
0.0
 44
0.0
 50
0.0
 71
     0
281
     0
 72
     0
  0
VIEW
  5
52
330
6
100
AcDbSymbolTableRecord
100
AcDbViewTableRecord
  2
View_1
 70
     0
 40
201.3931070680139
 10
717.1860183610022
 20
392.4295019556221
 41
280.2283967588442
 11
0.0
 21
0.0
 31
1.0
 12
0.0
 22
0.0
 32
0.0
 42
50.0
 43
0.0
 44
0.0
 50
0.0
 71
     0
281
     0
 72
     0
  0
VIEW
  5
53
330
6
100
AcDbSymbolTableRecord
100
AcDbViewTableRecord
  2
View_2
 70
     0
 40
201.393107068014
 10
717.186022139866
 20
392.4295042396324
 41
280.2283967588442
 11
0.0
 21
0.0
 31
1.0
 12
0.0
 22
0.0
 32
0.0
 42
50.0
 43
0.0
 44
0.0
 50
0.0
 71
     0
281
     0
 72
     0
  0
ENDTAB
  0
TABLE
  2
UCS
  5
7
330
0
100
AcDbSymbolTable
 70
     0
  0
ENDTAB
  0
TABLE
  2
APPID
  5
9
330
0
100
AcDbSymbolTable
 70
     2
  0
APPID
  5
12
330
9
100
AcDbSymbolTableRecord
100
AcDbRegAppTableRecord
  2
ACAD
 70
     0
  0
APPID
  5
3F
330
9
100
AcDbSymbolTableRecord
100
AcDbRegAppTableRecord
  2
TCAD
 70
     0
  0
ENDTAB
  0
TABLE
  2
DIMSTYLE
  5
A
330
0
100
AcDbSymbolTable
 70
     2
100
AcDbDimStyleTable
  0
DIMSTYLE
105
27
330
A
100
AcDbSymbolTableRecord
100
AcDbDimStyleTableRecord
  2
Standard
 70
     0
 45
0.0000001
148
0.01
179
     4
340
57
  0
DIMSTYLE
105
58
330
A
100
AcDbSymbolTableRecord
100
AcDbDimStyleTableRecord
  2
ISO-25
 70
     0
 41
2.5
 42
0.625
 43
3.75
 44
1.25
 45
0.0000001
 73
     0
 74
     0
 77
     1
 78
     8
140
2.5
143
0.03937007874016
147
0.625
148
0.0000001
171
     3
172
     1
178
     1
179
     2
271
     2
272
     2
274
     3
283
     0
284
     8
340
57
  0
ENDTAB
  0
TABLE
  2
BLOCK_RECORD
  5
1
330
0
100
AcDbSymbolTable
 70
     2
  0
BLOCK_RECORD
  5
1F
330
1
100
AcDbSymbolTableRecord
100
AcDbBlockTableRecord
  2
*Model_Space
340
22
  0
BLOCK_RECORD
  5
1B
330
1
100
AcDbSymbolTableRecord
100
AcDbBlockTableRecord
  2
*Paper_Space
340
1E
  0
BLOCK_RECORD
  5
3B
330
1
100
AcDbSymbolTableRecord
100
AcDbBlockTableRecord
  2
*Paper_Space1
340
3C
  0
ENDTAB
  0
ENDSEC
  0
SECTION
  2
BLOCKS
  0
BLOCK
  5
20
330
1F
100
AcDbEntity
  8
0
100
AcDbBlockBegin
  2
*Model_Space
 70
     0
 71
     0
 10
0.0
 20
0.0
 30
0.0
  3
*Model_Space
  1

  0
ENDBLK
  5
21
330
1F
100
AcDbEntity
  8
0
100
AcDbBlockEnd
  0
BLOCK
  5
1C
330
1B
100
AcDbEntity
 67
     1
  8
0
100
AcDbBlockBegin
  2
*Paper_Space
 70
     0
 71
     0
 10
0.0
 20
0.0
 30
0.0
  3
*Paper_Space
  1

  0
ENDBLK
  5
1D
330
1B
100
AcDbEntity
 67
     1
  8
0
100
AcDbBlockEnd
  0
BLOCK
  5
3D
330
3B
100
AcDbEntity
  8
0
100
AcDbBlockBegin
  2
*Paper_Space1
 70
     0
 71
     0
 10
0.0
 20
0.0
 30
0.0
  3
*Paper_Space1
  1

  0
VIEWPORT
  5
4D6
330
3B
100
AcDbEntity
  8
0
100
AcDbViewport
 10
140.0218848823794
 20
101.9028953504165
 30
0.0
 40
280.2283957583874
 41
201.3931063490108
 68
     1
 69
     1
 12
140.0218848823794
 22
101.9028953504165
 13
0.0
 23
0.0
 14
5.0
 24
5.0
 15
5.0
 25
5.0
 16
0.0
 26
0.0
 36
1.0
 17
0.0
 27
0.0
 37
0.0
 42
50.0
 43
0.0
 44
0.0
 45
201.3931063490108
 50
0.0
 51
0.0
 72
  1000
 90
    32800
  1

281
     0
 71
     1
 74
     0
110
0.0
120
0.0
130
0.0
111
1.0
121
0.0
131
0.0
112
0.0
122
1.0
132
0.0
 79
     0
146
0.0
170
     0
  0
ENDBLK
  5
3E
330
3B
100
AcDbEntity
  8
0
100
AcDbBlockEnd
  0
ENDSEC
  0
SECTION
  2
ENTITIES
  0
ARC
  5
5B
102
{ACAD_XDICTIONARY
360
59
102
}
330
1F
100
AcDbEntity
  8
Main lines
 48
0.75
100
AcDbCircle
 10
190.8982830834401
 20
358.9542660826979
 30
0.0
 40
2.500000000000013
100
AcDbArc
 50
4.932223647218735
 51
90.0
  0
ARC
  5
5E
102
{ACAD_XDICTIONARY
360
5C
102
}
330
1F
100
AcDbEntity
  8
Main lines
 48
0.75
100
AcDbCircle
 10
184.7659542311948
 20
365.6746258942412
 30
0.0
 40
21.66666666000001
100
AcDbArc
 50
-50.83584674928628
 51
-41.93392156816347
  0
ARC
  5
61
102
{ACAD_XDICTIONARY
360
5F
102
}
330
1F
100
AcDbEntity
  8
Main lines
 48
0.75
100
AcDbCircle
 10
209.9939768243214
 20
360.6021635643458
 30
0.0
 40
21.66665999999998
100
AcDbArc
 50
-166.8728274203953
 51
-151.9012776409809
  0
ARC
  5
64
102
{ACAD_XDICTIONARY
360
62
102
}
330
1F
100
AcDbEntity
  8
Main lines
 48
0.75
100
AcDbCircle
 10
195.2916932233711
 20
352.752296528986
 30
0.0
 40
4.999999999999971
100
AcDbArc
 50
-151.901277640981
 51
-50.83584674928642
  0
LINE
  5
67
102
{ACAD_XDICTIONARY
360
65
102
}
330
1F
100
AcDbEntity
  8
Main lines
 48
0.75
100
AcDbLine
 10
194.7991074390193
 20
353.754266082698
 30
0.0
 11
196.0991074390191
 21
353.4542660826979
 31
0.0
  0
ARC
  5
6A
102
{ACAD_XDICTIONARY
360
68
102
}
330
1F
100
AcDbEntity
  8
Main lines
 48
0.75
100
AcDbCircle
 10
187.9196336387575
 20
355.4542660826979
 30
0.0
 40
1.0
100
AcDbArc
 50
13.12717257960477
 51
90.0
  0
ARC
  5
6D
102
{ACAD_XDICTIONARY
360
6B
102
}
330
1F
100
AcDbEntity
  8
Main lines
 48
0.75
100
AcDbCircle
 10
209.9939768243214
 20
360.6021635643458
 30
0.0
 40
16.66666599999997
100
AcDbArc
 50
-175.0677763527818
 51
-155.7402585165938
  0
LINE
  5
70
102
{ACAD_XDICTIONARY
360
6E
102
}
330
1F
100
AcDbEntity
  8
Main lines
 48
0.75
100
AcDbLine
 10
187.9196336387576
 20
356.4542660826978
 30
0.0
 11
185.4491074390193
 21
356.4542660826979
 31
0.0
  0
LINE
  5
73
102
{ACAD_XDICTIONARY
360
71
102
}
330
1F
100
AcDbEntity
  8
Main lines
 48
0.75
100
AcDbLine
 10
190.8982830834401
 20
361.4542660826979
 30
0.0
 11
185.4491074390193
 21
361.4542660826979
 31
0.0
  0
ARC
  5
76
102
{ACAD_XDICTIONARY
360
74
102
}
330
1F
100
AcDbEntity
  8
Main lines
 48
0.75
100
AcDbCircle
 10
184.7659542311948
 20
365.6746258942412
 30
0.0
 40
16.66666000000001
100
AcDbArc
 50
-47.15718023474976
 51
-36.06933346639634
  0
LINE
  5
79
102
{ACAD_XDICTIONARY
360
77
102
}
330
1F
100
AcDbEntity
  8
Main lines
 48
0.75
100
AcDbLine
 10
207.9769714843026
 20
354.1480841426146
 30
0.0
 11
200.4723451623951
 21
356.5864850474701
 31
0.0
  0
ARC
  5
7C
102
{ACAD_XDICTIONARY
360
7A
102
}
330
1F
100
AcDbEntity
  8
Main lines
 48
0.75
100
AcDbCircle
 10
199.8543111736453
 20
354.6843720148798
 30
0.0
 40
1.999999999999989
100
AcDbArc
 50
72.00000000000102
 51
143.9306665336033
  0
LINE
  5
7F
102
{ACAD_XDICTIONARY
360
7D
102
}
330
1F
100
AcDbEntity
  8
Main lines
 48
0.75
100
AcDbLine
 10
206.4318865124278
 20
349.3928015611388
 30
0.0
 11
200.8841348802175
 21
351.1953753362521
 31
0.0
  0
ARC
  5
82
102
{ACAD_XDICTIONARY
360
80
102
}
330
1F
100
AcDbEntity
  8
Main lines
 48
0.75
100
AcDbCircle
 10
160.9042380527346
 20
360.6021635643458
 30
0.0
 40
16.666666
100
AcDbArc
 50
-24.25974148340617
 51
-4.932223647218177
  0
ARC
  5
85
102
{ACAD_XDICTIONARY
360
83
102
}
330
1F
100
AcDbEntity
  8
Main lines
 48
0.75
100
AcDbCircle
 10
175.6065216536848
 20
352.752296528986
 30
0.0
 40
4.999999999999973
100
AcDbArc
 50
-129.1641532507138
 51
-28.09872235901904
  0
ARC
  5
88
102
{ACAD_XDICTIONARY
360
86
102
}
330
1F
100
AcDbEntity
  8
Main lines
 48
0.75
100
AcDbCircle
 10
160.9042380527346
 20
360.6021635643458
 30
0.0
 40
21.66666000000001
100
AcDbArc
 50
-28.0987223590191
 51
-13.12717257960471
  0
LINE
  5
8B
102
{ACAD_XDICTIONARY
360
89
102
}
330
1F
100
AcDbEntity
  8
Main lines
 48
0.75
100
AcDbLine
 10
182.9785812382983
 20
356.4542660826978
 30
0.0
 11
185.4491074380367
 21
356.4542660826979
 31
0.0
  0
ARC
  5
8E
102
{ACAD_XDICTIONARY
360
8C
102
}
330
1F
100
AcDbEntity
  8
Main lines
 48
0.75
100
AcDbCircle
 10
182.9785812382984
 20
355.4542660826979
 30
0.0
 40
1.0
100
AcDbArc
 50
90.0
 51
166.8728274203953
  0
LINE
  5
91
102
{ACAD_XDICTIONARY
360
8F
102
}
330
1F
100
AcDbEntity
  8
Main lines
 48
0.75
100
AcDbLine
 10
164.4663283646281
 20
349.3928015611388
 30
0.0
 11
170.0140799968385
 21
351.1953753362521
 31
0.0
  0
ARC
  5
94
102
{ACAD_XDICTIONARY
360
92
102
}
330
1F
100
AcDbEntity
  8
Main lines
 48
0.75
100
AcDbCircle
 10
186.1322606458612
 20
365.6746258942412
 30
0.0
 40
21.66666665999998
100
AcDbArc
 50
-138.0660784318366
 51
-129.1641532507138
  0
LINE
  5
97
102
{ACAD_XDICTIONARY
360
95
102
}
330
1F
100
AcDbEntity
  8
Main lines
 48
0.75
100
AcDbLine
 10
162.9212433927534
 20
354.1480841426146
 30
0.0
 11
170.4258697146608
 21
356.5864850474701
 31
0.0
  0
ARC
  5
9A
102
{ACAD_XDICTIONARY
360
98
102
}
330
1F
100
AcDbEntity
  8
Main lines
 48
0.75
100
AcDbCircle
 10
186.1322606458612
 20
365.6746258942412
 30
0.0
 40
16.66665999999998
100
AcDbArc
 50
-143.9306665336036
 51
-132.8428197652502
  0
LINE
  5
9D
102
{ACAD_XDICTIONARY
360
9B
102
}
330
1F
100
AcDbEntity
  8
Main lines
 48
0.75
100
AcDbLine
 10
176.0991074380366
 20
353.754266082698
 30
0.0
 11
174.7991074380368
 21
353.4542660826979
 31
0.0
  0
ARC
  5
A0
102
{ACAD_XDICTIONARY
360
9E
102
}
330
1F
100
AcDbEntity
  8
Main lines
 48
0.75
100
AcDbCircle
 10
171.0439037034106
 20
354.6843720148798
 30
0.0
 40
2.000000000000022
100
AcDbArc
 50
36.06933346639622
 51
107.9999999999985
  0
ARC
  5
A3
102
{ACAD_XDICTIONARY
360
A1
102
}
330
1F
100
AcDbEntity
  8
Main lines
 48
0.75
100
AcDbCircle
 10
179.9999317936158
 20
358.9542660826979
 30
0.0
 40
2.5
100
AcDbArc
 50
90.0
 51
175.0677763527813
  0
LINE
  5
A6
102
{ACAD_XDICTIONARY
360
A4
102
}
330
1F
100
AcDbEntity
  8
Main lines
 48
0.75
100
AcDbLine
 10
179.9999317936158
 20
361.4542660826979
 30
0.0
 11
185.4491074380366
 21
361.4542660826979
 31
0.0
  0
ARC
  5
A9
102
{ACAD_XDICTIONARY
360
A7
102
}
330
1F
100
AcDbEntity
  8
Main lines
 48
0.75
100
AcDbCircle
 10
137.5534227388454
 20
333.9919952221405
 30
0.0
 40
4.999999999999994
100
AcDbArc
 50
-93.16415325071381
 51
7.901277640981021
  0
ARC
  5
AC
102
{ACAD_XDICTIONARY
360
AA
102
}
330
1F
100
AcDbEntity
  8
Main lines
 48
0.75
100
AcDbCircle
 10
121.0449893737152
 20
331.7008855816703
 30
0.0
 40
16.66666599999996
100
AcDbArc
 50
11.74025851659369
 51
31.06777635278179
  0
ARC
  5
AF
102
{ACAD_XDICTIONARY
360
AD
102
}
330
1F
100
AcDbEntity
  8
Main lines
 48
0.75
100
AcDbCircle
 10
138.4733698357081
 20
350.6332534346234
 30
0.0
 40
21.66666666000003
100
AcDbArc
 50
-102.0660784318366
 51
-93.16415325071374
  0
LINE
  5
B2
102
{ACAD_XDICTIONARY
360
B0
102
}
330
1F
100
AcDbEntity
  8
Main lines
 48
0.75
100
AcDbLine
 10
130.5154786446281
 20
324.7260653776399
 30
0.0
 11
133.9441777144768
 21
329.445264788116
 31
0.0
  0
LINE
  5
B5
102
{ACAD_XDICTIONARY
360
B3
102
}
330
1F
100
AcDbEntity
  8
Main lines
 48
0.75
100
AcDbLine
 10
126.4703936727534
 20
327.6649916391023
 30
0.0
 11
131.1085078125593
 21
334.0488080862128
 31
0.0
  0
ARC
  5
B8
102
{ACAD_XDICTIONARY
360
B6
102
}
330
1F
100
AcDbEntity
  8
Main lines
 48
0.75
100
AcDbCircle
 10
138.4733698357081
 20
350.6332534346234
 30
0.0
 40
16.66666
100
AcDbArc
 50
-107.9306665336036
 51
-96.84281976525028
  0
LINE
  5
BB
102
{ACAD_XDICTIONARY
360
B9
102
}
330
1F
100
AcDbEntity
  8
Main lines
 48
0.75
100
AcDbLine
 10
137.3629900826555
 20
335.0921402784707
 30
0.0
 11
136.487603565656
 21
334.0853143521781
 31
0.0
  0
ARC
  5
BE
102
{ACAD_XDICTIONARY
360
BC
102
}
330
1F
100
AcDbEntity
  8
Main lines
 48
0.75
100
AcDbCircle
 10
132.7265418013092
 20
332.8732375816278
 30
0.0
 40
1.999999999999993
100
AcDbArc
 50
72.06933346639548
 51
143.9999999999986
  0
ARC
  5
C1
102
{ACAD_XDICTIONARY
360
BF
102
}
330
1F
100
AcDbEntity
  8
Main lines
 48
0.75
100
AcDbCircle
 10
160.7594222893557
 20
360.555110070499
 30
0.0
 40
16.66666600000001
100
AcDbArc
 50
-139.0677763527817
 51
-119.7402585165937
  0
ARC
  5
C4
102
{ACAD_XDICTIONARY
360
C2
102
}
330
1F
100
AcDbEntity
  8
Main lines
 48
0.75
100
AcDbCircle
 10
153.4790610759081
 20
345.5626487596492
 30
0.0
 40
5.000000000000002
100
AcDbArc
 50
-115.9012776409813
 51
-14.83584674928643
  0
LINE
  5
C7
102
{ACAD_XDICTIONARY
360
C5
102
}
330
1F
100
AcDbEntity
  8
Main lines
 48
0.75
100
AcDbLine
 10
141.3415811182348
 20
341.3201394066092
 30
0.0
 11
143.3402787988717
 21
342.7722782722176
 31
0.0
  0
ARC
  5
CA
102
{ACAD_XDICTIONARY
360
C8
102
}
330
1F
100
AcDbEntity
  8
Main lines
 48
0.75
100
AcDbCircle
 10
121.0449893737152
 20
331.7008855816703
 30
0.0
 40
21.66665999999999
100
AcDbArc
 50
7.901277640980803
 51
22.87282742039521
  0
ARC
  5
CD
102
{ACAD_XDICTIONARY
360
CB
102
}
330
1F
100
AcDbEntity
  8
Main lines
 48
0.75
100
AcDbCircle
 10
141.9293663705274
 20
340.5111224122344
 30
0.0
 40
0.9999999999999902
100
AcDbArc
 50
125.9999999999995
 51
202.8728274203964
  0
ARC
  5
D0
102
{ACAD_XDICTIONARY
360
CE
102
}
330
1F
100
AcDbEntity
  8
Main lines
 48
0.75
100
AcDbCircle
 10
160.7594222893557
 20
360.555110070499
 30
0.0
 40
21.66666000000001
100
AcDbArc
 50
-130.8728274203951
 51
-115.901277640981
  0
LINE
  5
D3
102
{ACAD_XDICTIONARY
360
D1
102
}
330
1F
100
AcDbEntity
  8
Main lines
 48
0.75
100
AcDbLine
 10
145.3389764803035
 20
344.2244171384035
 30
0.0
 11
143.3402787996666
 21
342.7722782727952
 31
0.0
  0
ARC
  5
D6
102
{ACAD_XDICTIONARY
360
D4
102
}
330
1F
100
AcDbEntity
  8
Main lines
 48
0.75
100
AcDbCircle
 10
145.9267617325959
 20
343.4154001440285
 30
0.0
 40
0.9999999999999983
100
AcDbArc
 50
49.12717257960354
 51
126.0000000000002
  0
LINE
  5
D9
102
{ACAD_XDICTIONARY
360
D7
102
}
330
1F
100
AcDbEntity
  8
Main lines
 48
0.75
100
AcDbLine
 10
164.4663283646282
 20
349.3928015611388
 30
0.0
 11
158.9185767324178
 21
347.5902277860254
 31
0.0
  0
ARC
  5
DC
102
{ACAD_XDICTIONARY
360
DA
102
}
330
1F
100
AcDbEntity
  8
Main lines
 48
0.75
100
AcDbCircle
 10
137.3680047267195
 20
349.8301586739699
 30
0.0
 40
21.66666665999997
100
AcDbArc
 50
-14.8358467492863
 51
-5.933921568163511
  0
LINE
  5
DF
102
{ACAD_XDICTIONARY
360
DD
102
}
330
1F
100
AcDbEntity
  8
Main lines
 48
0.75
100
AcDbLine
 10
162.9212433927534
 20
354.1480841426146
 30
0.0
 11
155.416617070846
 21
351.7096832377589
 31
0.0
  0
ARC
  5
E2
102
{ACAD_XDICTIONARY
360
E0
102
}
330
1F
100
AcDbEntity
  8
Main lines
 48
0.75
100
AcDbCircle
 10
137.3680047267195
 20
349.8301586739699
 30
0.0
 40
16.66666
100
AcDbArc
 50
-11.1571802347497
 51
-0.0693334663965917
  0
LINE
  5
E5
102
{ACAD_XDICTIONARY
360
E3
102
}
330
1F
100
AcDbEntity
  8
Main lines
 48
0.75
100
AcDbLine
 10
152.4916078782621
 20
346.0837244969176
 30
0.0
 11
153.7196655466371
 21
346.6051402265851
 31
0.0
  0
ARC
  5
E8
102
{ACAD_XDICTIONARY
360
E6
102
}
330
1F
100
AcDbEntity
  8
Main lines
 48
0.75
100
AcDbCircle
 10
156.0346510595959
 20
349.8075702051686
 30
0.0
 40
2.000000000000006
100
AcDbArc
 50
108.0000000000005
 51
179.9306665336048
  0
ARC
  5
EB
102
{ACAD_XDICTIONARY
360
E9
102
}
330
1F
100
AcDbEntity
  8
Main lines
 48
0.75
100
AcDbCircle
 10
146.2792913706059
 20
347.9977658396745
 30
0.0
 40
2.50000000000002
100
AcDbArc
 50
40.93222364721883
 51
126.0000000000001
  0
LINE
  5
EE
102
{ACAD_XDICTIONARY
360
EC
102
}
330
1F
100
AcDbEntity
  8
Main lines
 48
0.75
100
AcDbLine
 10
135.9928768357387
 20
343.6144181631505
 30
0.0
 11
140.4013525374093
 21
346.8173632440923
 31
0.0
  0
ARC
  5
F1
102
{ACAD_XDICTIONARY
360
EF
102
}
330
1F
100
AcDbEntity
  8
Main lines
 48
0.75
100
AcDbCircle
 10
137.46233996647
 20
341.5918756772131
 30
0.0
 40
2.500000000000007
100
AcDbArc
 50
126.0000000000005
 51
211.0677763527817
  0
LINE
  5
F4
102
{ACAD_XDICTIONARY
360
F2
102
}
330
1F
100
AcDbEntity
  8
Main lines
 48
0.75
100
AcDbLine
 10
144.8098282398747
 20
350.0203083256119
 30
0.0
 11
140.4013525382043
 21
346.81736324467
 31
0.0
  0
ARC
  5
F7
102
{ACAD_XDICTIONARY
360
F5
102
}
330
1F
100
AcDbEntity
  8
Main lines
 48
0.75
100
AcDbCircle
 10
117.7948474648364
 20
296.4475422991387
 30
0.0
 40
4.999999999999975
100
AcDbArc
 50
-57.16415325071406
 51
43.90127764098141
  0
ARC
  5
FA
102
{ACAD_XDICTIONARY
360
F8
102
}
330
1F
100
AcDbEntity
  8
Main lines
 48
0.75
100
AcDbCircle
 10
105.7859247799932
 20
284.8905819935454
 30
0.0
 40
16.66666600000001
100
AcDbArc
 50
47.74025851659384
 51
67.06777635278166
  0
ARC
  5
FD
102
{ACAD_XDICTIONARY
360
FB
102
}
330
1F
100
AcDbEntity
  8
Main lines
 48
0.75
100
AcDbCircle
 10
108.7576141432357
 20
310.4513343372442
 30
0.0
 40
21.66666666000001
100
AcDbArc
 50
-66.06607843183666
 51
-57.16415325071373
  0
LINE
  5
100
102
{ACAD_XDICTIONARY
360
FE
102
}
330
1F
100
AcDbEntity
  8
Main lines
 48
0.75
100
AcDbLine
 10
117.547407998528
 20
284.8144478412118
 30
0.0
 11
117.547407998528
 21
290.6476991119372
 31
0.0
  0
LINE
  5
103
102
{ACAD_XDICTIONARY
360
101
102
}
330
1F
100
AcDbEntity
  8
Main lines
 48
0.75
100
AcDbLine
 10
112.547407998528
 20
284.8144478412118
 30
0.0
 11
112.547407998528
 21
292.7052789257216
 31
0.0
  0
ARC
  5
106
102
{ACAD_XDICTIONARY
360
104
102
}
330
1F
100
AcDbEntity
  8
Main lines
 48
0.75
100
AcDbCircle
 10
108.7576141432357
 20
310.4513343372442
 30
0.0
 40
16.66666000000002
100
AcDbArc
 50
-71.93066653360354
 51
-60.8428197652503
  0
LINE
  5
109
102
{ACAD_XDICTIONARY
360
107
102
}
330
1F
100
AcDbEntity
  8
Main lines
 48
0.75
100
AcDbLine
 10
116.9941351702014
 20
297.225644839124
 30
0.0
 11
116.8777300324027
 21
295.8965662696281
 31
0.0
  0
ARC
  5
10C
102
{ACAD_XDICTIONARY
360
10A
102
}
330
1F
100
AcDbEntity
  8
Main lines
 48
0.75
100
AcDbCircle
 10
114.547407998528
 20
292.7052789257216
 30
0.0
 40
2.000000000000009
100
AcDbArc
 50
108.0693334663961
 51
179.9999999999984
  0
ARC
  5
10F
102
{ACAD_XDICTIONARY
360
10D
102
}
330
1F
100
AcDbEntity
  8
Main lines
 48
0.75
100
AcDbCircle
 10
120.9554883098403
 20
331.5776979354899
 30
0.0
 40
16.66666599999998
100
AcDbArc
 50
-103.0677763527818
 51
-83.74025851659381
  0
ARC
  5
112
102
{ACAD_XDICTIONARY
360
110
102
}
330
1F
100
AcDbEntity
  8
Main lines
 48
0.75
100
AcDbCircle
 10
123.877900017056
 20
315.1692529948769
 30
0.0
 40
4.999999999999996
100
AcDbArc
 50
-79.90127764098092
 51
21.164153250714
  0
LINE
  5
115
102
{ACAD_XDICTIONARY
360
113
102
}
330
1F
100
AcDbEntity
  8
Main lines
 48
0.75
100
AcDbLine
 10
116.5521568928427
 20
304.6027591103571
 30
0.0
 11
117.3155914736104
 21
306.9523691512961
 31
0.0
  0
ARC
  5
118
102
{ACAD_XDICTIONARY
360
116
102
}
330
1F
100
AcDbEntity
  8
Main lines
 48
0.75
100
AcDbCircle
 10
105.7859247799932
 20
284.8905819935454
 30
0.0
 40
21.66666000000001
100
AcDbArc
 50
43.90127764098089
 51
58.8728274203951
  0
ARC
  5
11B
102
{ACAD_XDICTIONARY
360
119
102
}
330
1F
100
AcDbEntity
  8
Main lines
 48
0.75
100
AcDbCircle
 10
117.5032134091379
 20
304.2937421159822
 30
0.0
 40
0.9999999999999762
100
AcDbArc
 50
162.0000000000005
 51
238.8728274203967
  0
ARC
  5
11E
102
{ACAD_XDICTIONARY
360
11C
102
}
330
1F
100
AcDbEntity
  8
Main lines
 48
0.75
100
AcDbCircle
 10
120.9554883098403
 20
331.5776979354899
 30
0.0
 40
21.66666000000003
100
AcDbArc
 50
-94.87282742039524
 51
-79.90127764098091
  0
LINE
  5
121
102
{ACAD_XDICTIONARY
360
11F
102
}
330
1F
100
AcDbEntity
  8
Main lines
 48
0.75
100
AcDbLine
 10
118.0790260546818
 20
309.3019791931696
 30
0.0
 11
117.3155914739141
 21
306.9523691522306
 31
0.0
  0
ARC
  5
124
102
{ACAD_XDICTIONARY
360
122
102
}
330
1F
100
AcDbEntity
  8
Main lines
 48
0.75
100
AcDbCircle
 10
119.0300825709769
 20
308.9929621987947
 30
0.0
 40
0.9999999999999892
100
AcDbArc
 50
85.12717257960462
 51
162.0000000000008
  0
LINE
  5
127
102
{ACAD_XDICTIONARY
360
125
102
}
330
1F
100
AcDbEntity
  8
Main lines
 48
0.75
100
AcDbLine
 10
130.5154786446281
 20
324.7260653776399
 30
0.0
 11
127.0867795747794
 21
320.0068659671638
 31
0.0
  0
ARC
  5
12A
102
{ACAD_XDICTIONARY
360
128
102
}
330
1F
100
AcDbEntity
  8
Main lines
 48
0.75
100
AcDbCircle
 10
108.3354022415803
 20
309.1518997183199
 30
0.0
 40
21.66666666
100
AcDbArc
 50
21.1641532507138
 51
30.06607843183659
  0
LINE
  5
12D
102
{ACAD_XDICTIONARY
360
12B
102
}
330
1F
100
AcDbEntity
  8
Main lines
 48
0.75
100
AcDbLine
 10
126.4703936727534
 20
327.6649916391023
 30
0.0
 11
121.8322795329475
 21
321.2811751919917
 31
0.0
  0
ARC
  5
130
102
{ACAD_XDICTIONARY
360
12E
102
}
330
1F
100
AcDbEntity
  8
Main lines
 48
0.75
100
AcDbCircle
 10
108.3354022415803
 20
309.1518997183199
 30
0.0
 40
16.66666000000001
100
AcDbArc
 50
24.84281976525018
 51
35.93066653360363
  0
LINE
  5
133
102
{ACAD_XDICTIONARY
360
131
102
}
330
1F
100
AcDbEntity
  8
Main lines
 48
0.75
100
AcDbLine
 10
122.7727529653166
 20
315.0104016947781
 30
0.0
 11
123.4597920128926
 21
316.1540700676491
 31
0.0
  0
ARC
  5
136
102
{ACAD_XDICTIONARY
360
134
102
}
330
1F
100
AcDbEntity
  8
Main lines
 48
0.75
100
AcDbCircle
 10
123.4503135216974
 20
320.1056046874068
 30
0.0
 40
2.000000000000004
100
AcDbArc
 50
144.0000000000008
 51
215.930666533603
  0
ARC
  5
139
102
{ACAD_XDICTIONARY
360
137
102
}
330
1F
100
AcDbEntity
  8
Main lines
 48
0.75
100
AcDbCircle
 10
116.6218380626362
 20
312.9073856432314
 30
0.0
 40
2.499999999999963
100
AcDbArc
 50
76.93222364721808
 51
162.0000000000008
  0
LINE
  5
13C
102
{ACAD_XDICTIONARY
360
13A
102
}
330
1F
100
AcDbEntity
  8
Main lines
 48
0.75
100
AcDbLine
 10
110.8764210126745
 20
303.3149801181076
 30
0.0
 11
112.5603088921346
 21
308.4974541231708
 31
0.0
  0
ARC
  5
13F
102
{ACAD_XDICTIONARY
360
13D
102
}
330
1F
100
AcDbEntity
  8
Main lines
 48
0.75
100
AcDbCircle
 10
113.2540623034124
 20
302.5424376321702
 30
0.0
 40
2.49999999999999
100
AcDbArc
 50
161.9999999999997
 51
247.0677763527814
  0
LINE
  5
142
102
{ACAD_XDICTIONARY
360
140
102
}
330
1F
100
AcDbEntity
  8
Main lines
 48
0.75
100
AcDbLine
 10
114.2441967718983
 20
313.6799281291687
 30
0.0
 11
112.5603088924382
 21
308.4974541241054
 31
0.0
  0
ARC
  5
145
102
{ACAD_XDICTIONARY
360
143
102
}
330
1F
100
AcDbEntity
  8
Main lines
 48
0.75
100
AcDbCircle
 10
123.8779000170559
 20
254.4596426875466
 30
0.0
 40
4.999999999999986
100
AcDbArc
 50
-21.16415325071391
 51
79.90127764098104
  0
ARC
  5
148
102
{ACAD_XDICTIONARY
360
146
102
}
330
1F
100
AcDbEntity
  8
Main lines
 48
0.75
100
AcDbCircle
 10
120.9554883098402
 20
238.0511977469337
 30
0.0
 40
16.66666599999998
100
AcDbArc
 50
83.74025851659377
 51
103.0677763527817
  0
ARC
  5
14B
102
{ACAD_XDICTIONARY
360
149
102
}
330
1F
100
AcDbEntity
  8
Main lines
 48
0.75
100
AcDbCircle
 10
108.3354022415803
 20
260.4769959641037
 30
0.0
 40
21.66666666000002
100
AcDbArc
 50
-30.06607843183657
 51
-21.1641532507137
  0
LINE
  5
14E
102
{ACAD_XDICTIONARY
360
14C
102
}
330
1F
100
AcDbEntity
  8
Main lines
 48
0.75
100
AcDbLine
 10
130.5154786446281
 20
244.9028303047837
 30
0.0
 11
127.0867795747794
 21
249.6220297152598
 31
0.0
  0
LINE
  5
151
102
{ACAD_XDICTIONARY
360
14F
102
}
330
1F
100
AcDbEntity
  8
Main lines
 48
0.75
100
AcDbLine
 10
126.4703936727534
 20
241.9639040433213
 30
0.0
 11
121.8322795329475
 21
248.3477204904319
 31
0.0
  0
ARC
  5
154
102
{ACAD_XDICTIONARY
360
152
102
}
330
1F
100
AcDbEntity
  8
Main lines
 48
0.75
100
AcDbCircle
 10
108.3354022415803
 20
260.4769959641037
 30
0.0
 40
16.66666000000002
100
AcDbArc
 50
-35.93066653360357
 51
-24.84281976525024
  0
LINE
  5
157
102
{ACAD_XDICTIONARY
360
155
102
}
330
1F
100
AcDbEntity
  8
Main lines
 48
0.75
100
AcDbLine
 10
122.7727529653166
 20
254.6184939876455
 30
0.0
 11
123.4597920128925
 21
253.4748256147745
 31
0.0
  0
ARC
  5
15A
102
{ACAD_XDICTIONARY
360
158
102
}
330
1F
100
AcDbEntity
  8
Main lines
 48
0.75
100
AcDbCircle
 10
123.4503135216974
 20
249.5232909950167
 30
0.0
 40
1.999999999999989
100
AcDbArc
 50
144.0693334663959
 51
215.9999999999994
  0
ARC
  5
15D
102
{ACAD_XDICTIONARY
360
15B
102
}
330
1F
100
AcDbEntity
  8
Main lines
 48
0.75
100
AcDbCircle
 10
105.7859247799932
 20
284.7383136888781
 30
0.0
 40
16.66666600000003
100
AcDbArc
 50
-67.06777635278183
 51
-47.7402585165936
  0
ARC
  5
160
102
{ACAD_XDICTIONARY
360
15E
102
}
330
1F
100
AcDbEntity
  8
Main lines
 48
0.75
100
AcDbCircle
 10
117.7948474648363
 20
273.1813533832849
 30
0.0
 40
5.000000000000012
100
AcDbArc
 50
-43.90127764098106
 51
57.16415325071367
  0
LINE
  5
163
102
{ACAD_XDICTIONARY
360
161
102
}
330
1F
100
AcDbEntity
  8
Main lines
 48
0.75
100
AcDbLine
 10
118.0790260546817
 20
260.3269164892539
 30
0.0
 11
117.315591473914
 21
262.6765265301929
 31
0.0
  0
ARC
  5
166
102
{ACAD_XDICTIONARY
360
164
102
}
330
1F
100
AcDbEntity
  8
Main lines
 48
0.75
100
AcDbCircle
 10
120.9554883098402
 20
238.0511977469337
 30
0.0
 40
21.66666
100
AcDbArc
 50
79.9012776409809
 51
94.87282742039523
  0
ARC
  5
169
102
{ACAD_XDICTIONARY
360
167
102
}
330
1F
100
AcDbEntity
  8
Main lines
 48
0.75
100
AcDbCircle
 10
119.0300825709769
 20
260.6359334836289
 30
0.0
 40
1.000000000000015
100
AcDbArc
 50
-162.0000000000015
 51
-85.12717257960476
  0
ARC
  5
16C
102
{ACAD_XDICTIONARY
360
16A
102
}
330
1F
100
AcDbEntity
  8
Main lines
 48
0.75
100
AcDbCircle
 10
105.7859247799932
 20
284.7383136888781
 30
0.0
 40
21.66666000000001
100
AcDbArc
 50
-58.87282742039523
 51
-43.90127764098072
  0
LINE
  5
16F
102
{ACAD_XDICTIONARY
360
16D
102
}
330
1F
100
AcDbEntity
  8
Main lines
 48
0.75
100
AcDbLine
 10
116.5521568928427
 20
265.0261365720665
 30
0.0
 11
117.3155914736104
 21
262.6765265311274
 31
0.0
  0
ARC
  5
172
102
{ACAD_XDICTIONARY
360
170
102
}
330
1F
100
AcDbEntity
  8
Main lines
 48
0.75
100
AcDbCircle
 10
117.5032134091379
 20
265.3351535664412
 30
0.0
 40
1.000000000000006
100
AcDbArc
 50
121.1271725796035
 51
197.9999999999991
  0
LINE
  5
175
102
{ACAD_XDICTIONARY
360
173
102
}
330
1F
100
AcDbEntity
  8
Main lines
 48
0.75
100
AcDbLine
 10
117.5474079985279
 20
284.8144478412117
 30
0.0
 11
117.5474079985279
 21
278.9811965704864
 31
0.0
  0
ARC
  5
178
102
{ACAD_XDICTIONARY
360
176
102
}
330
1F
100
AcDbEntity
  8
Main lines
 48
0.75
100
AcDbCircle
 10
108.7576141432357
 20
259.1775613451794
 30
0.0
 40
21.66666665999997
100
AcDbArc
 50
57.1641532507137
 51
66.06607843183657
  0
LINE
  5
17B
102
{ACAD_XDICTIONARY
360
179
102
}
330
1F
100
AcDbEntity
  8
Main lines
 48
0.75
100
AcDbLine
 10
112.5474079985279
 20
284.8144478412118
 30
0.0
 11
112.5474079985279
 21
276.923616756702
 31
0.0
  0
ARC
  5
17E
102
{ACAD_XDICTIONARY
360
17C
102
}
330
1F
100
AcDbEntity
  8
Main lines
 48
0.75
100
AcDbCircle
 10
108.7576141432357
 20
259.1775613451794
 30
0.0
 40
16.66665999999997
100
AcDbArc
 50
60.84281976525025
 51
71.93066653360351
  0
LINE
  5
181
102
{ACAD_XDICTIONARY
360
17F
102
}
330
1F
100
AcDbEntity
  8
Main lines
 48
0.75
100
AcDbLine
 10
116.9941351702014
 20
272.4032508432995
 30
0.0
 11
116.8777300324026
 21
273.7323294127955
 31
0.0
  0
ARC
  5
184
102
{ACAD_XDICTIONARY
360
182
102
}
330
1F
100
AcDbEntity
  8
Main lines
 48
0.75
100
AcDbCircle
 10
114.547407998528
 20
276.9236167567019
 30
0.0
 40
2.0
100
AcDbArc
 50
180.0
 51
251.9306665336041
  0
ARC
  5
187
102
{ACAD_XDICTIONARY
360
185
102
}
330
1F
100
AcDbEntity
  8
Main lines
 48
0.75
100
AcDbCircle
 10
113.2540623034124
 20
267.0864580502533
 30
0.0
 40
2.500000000000006
100
AcDbArc
 50
112.9322236472187
 51
198.0000000000001
  0
LINE
  5
18A
102
{ACAD_XDICTIONARY
360
188
102
}
330
1F
100
AcDbEntity
  8
Main lines
 48
0.75
100
AcDbLine
 10
114.2441967718983
 20
255.9489675532549
 30
0.0
 11
112.5603088924382
 21
261.1314415583181
 31
0.0
  0
ARC
  5
18D
102
{ACAD_XDICTIONARY
360
18B
102
}
330
1F
100
AcDbEntity
  8
Main lines
 48
0.75
100
AcDbCircle
 10
116.6218380626362
 20
256.7215100391922
 30
0.0
 40
2.500000000000001
100
AcDbArc
 50
-162.0000000000005
 51
-76.93222364721805
  0
LINE
  5
190
102
{ACAD_XDICTIONARY
360
18E
102
}
330
1F
100
AcDbEntity
  8
Main lines
 48
0.75
100
AcDbLine
 10
110.8764210126744
 20
266.3139155643159
 30
0.0
 11
112.5603088921345
 21
261.1314415592527
 31
0.0
  0
ARC
  5
193
102
{ACAD_XDICTIONARY
360
191
102
}
330
1F
100
AcDbEntity
  8
Main lines
 48
0.75
100
AcDbCircle
 10
153.4790610759081
 20
224.0662469227743
 30
0.0
 40
4.999999999999992
100
AcDbArc
 50
14.83584674928613
 51
115.9012776409814
  0
ARC
  5
196
102
{ACAD_XDICTIONARY
360
194
102
}
330
1F
100
AcDbEntity
  8
Main lines
 48
0.75
100
AcDbCircle
 10
160.7594222893556
 20
209.0737856119245
 30
0.0
 40
16.66666600000001
100
AcDbArc
 50
119.7402585165937
 51
139.0677763527818
  0
ARC
  5
199
102
{ACAD_XDICTIONARY
360
197
102
}
330
1F
100
AcDbEntity
  8
Main lines
 48
0.75
100
AcDbCircle
 10
137.3680047267194
 20
219.7987370084536
 30
0.0
 40
21.66666666000001
100
AcDbArc
 50
5.933921568163419
 51
14.83584674928626
  0
LINE
  5
19C
102
{ACAD_XDICTIONARY
360
19A
102
}
330
1F
100
AcDbEntity
  8
Main lines
 48
0.75
100
AcDbLine
 10
164.4663283646281
 20
220.2360941212847
 30
0.0
 11
158.9185767324178
 21
222.0386678963982
 31
0.0
  0
LINE
  5
19F
102
{ACAD_XDICTIONARY
360
19D
102
}
330
1F
100
AcDbEntity
  8
Main lines
 48
0.75
100
AcDbLine
 10
162.9212433927534
 20
215.480811539809
 30
0.0
 11
155.4166170708459
 21
217.9192124446646
 31
0.0
  0
ARC
  5
1A2
102
{ACAD_XDICTIONARY
360
1A0
102
}
330
1F
100
AcDbEntity
  8
Main lines
 48
0.75
100
AcDbCircle
 10
137.3680047267194
 20
219.7987370084536
 30
0.0
 40
16.66666
100
AcDbArc
 50
0.069333466396494
 51
11.1571802347497
  0
LINE
  5
1A5
102
{ACAD_XDICTIONARY
360
1A3
102
}
330
1F
100
AcDbEntity
  8
Main lines
 48
0.75
100
AcDbLine
 10
152.4916078782621
 20
223.545171185506
 30
0.0
 11
153.719665546637
 21
223.0237554558384
 31
0.0
  0
ARC
  5
1A8
102
{ACAD_XDICTIONARY
360
1A6
102
}
330
1F
100
AcDbEntity
  8
Main lines
 48
0.75
100
AcDbCircle
 10
156.0346510595958
 20
219.8213254772549
 30
0.0
 40
1.999999999999998
100
AcDbArc
 50
-179.930666533604
 51
-108.0000000000003
  0
ARC
  5
1AB
102
{ACAD_XDICTIONARY
360
1A9
102
}
330
1F
100
AcDbEntity
  8
Main lines
 48
0.75
100
AcDbCircle
 10
121.0449893737151
 20
237.9280101007533
 30
0.0
 40
16.66666600000001
100
AcDbArc
 50
-31.06777635278176
 51
-11.74025851659376
  0
ARC
  5
1AE
102
{ACAD_XDICTIONARY
360
1AC
102
}
330
1F
100
AcDbEntity
  8
Main lines
 48
0.75
100
AcDbCircle
 10
137.5534227388453
 20
235.636900460283
 30
0.0
 40
4.999999999999993
100
AcDbArc
 50
-7.901277640981024
 51
93.16415325071381
  0
LINE
  5
1B1
102
{ACAD_XDICTIONARY
360
1AF
102
}
330
1F
100
AcDbEntity
  8
Main lines
 48
0.75
100
AcDbLine
 10
145.3389764803035
 20
225.40447854402
 30
0.0
 11
143.3402787996666
 21
226.8566174096283
 31
0.0
  0
ARC
  5
1B4
102
{ACAD_XDICTIONARY
360
1B2
102
}
330
1F
100
AcDbEntity
  8
Main lines
 48
0.75
100
AcDbCircle
 10
160.7594222893556
 20
209.0737856119245
 30
0.0
 40
21.66666000000002
100
AcDbArc
 50
115.9012776409809
 51
130.8728274203953
  0
ARC
  5
1B7
102
{ACAD_XDICTIONARY
360
1B5
102
}
330
1F
100
AcDbEntity
  8
Main lines
 48
0.75
100
AcDbCircle
 10
145.9267617325959
 20
226.213495538395
 30
0.0
 40
0.9999999999999788
100
AcDbArc
 50
-126.0000000000002
 51
-49.12717257960354
  0
ARC
  5
1BA
102
{ACAD_XDICTIONARY
360
1B8
102
}
330
1F
100
AcDbEntity
  8
Main lines
 48
0.75
100
AcDbCircle
 10
121.0449893737151
 20
237.9280101007533
 30
0.0
 40
21.66666000000001
100
AcDbArc
 50
-22.87282742039519
 51
-7.901277640980881
  0
LINE
  5
1BD
102
{ACAD_XDICTIONARY
360
1BB
102
}
330
1F
100
AcDbEntity
  8
Main lines
 48
0.75
100
AcDbLine
 10
141.3415811182348
 20
228.3087562758143
 30
0.0
 11
143.3402787988717
 21
226.8566174102059
 31
0.0
  0
ARC
  5
1C0
102
{ACAD_XDICTIONARY
360
1BE
102
}
330
1F
100
AcDbEntity
  8
Main lines
 48
0.75
100
AcDbCircle
 10
141.9293663705273
 20
229.1177732701892
 30
0.0
 40
1.000000000000013
100
AcDbArc
 50
157.1271725796047
 51
234.0000000000008
  0
LINE
  5
1C3
102
{ACAD_XDICTIONARY
360
1C1
102
}
330
1F
100
AcDbEntity
  8
Main lines
 48
0.75
100
AcDbLine
 10
130.5154786446281
 20
244.9028303047836
 30
0.0
 11
133.9441777144768
 21
240.1836308943076
 31
0.0
  0
ARC
  5
1C6
102
{ACAD_XDICTIONARY
360
1C4
102
}
330
1F
100
AcDbEntity
  8
Main lines
 48
0.75
100
AcDbCircle
 10
138.4733698357081
 20
218.9956422478001
 30
0.0
 40
21.66666666000001
100
AcDbArc
 50
93.16415325071374
 51
102.0660784318366
  0
LINE
  5
1C9
102
{ACAD_XDICTIONARY
360
1C7
102
}
330
1F
100
AcDbEntity
  8
Main lines
 48
0.75
100
AcDbLine
 10
126.4703936727533
 20
241.9639040433213
 30
0.0
 11
131.1085078125593
 21
235.5800875962107
 31
0.0
  0
ARC
  5
1CC
102
{ACAD_XDICTIONARY
360
1CA
102
}
330
1F
100
AcDbEntity
  8
Main lines
 48
0.75
100
AcDbCircle
 10
138.4733698357081
 20
218.9956422478001
 30
0.0
 40
16.66666000000001
100
AcDbArc
 50
96.84281976525028
 51
107.9306665336035
  0
LINE
  5
1CF
102
{ACAD_XDICTIONARY
360
1CD
102
}
330
1F
100
AcDbEntity
  8
Main lines
 48
0.75
100
AcDbLine
 10
137.3629900826554
 20
234.5367554039528
 30
0.0
 11
136.487603565656
 21
235.5435813302454
 31
0.0
  0
ARC
  5
1D2
102
{ACAD_XDICTIONARY
360
1D0
102
}
330
1F
100
AcDbEntity
  8
Main lines
 48
0.75
100
AcDbCircle
 10
132.7265418013091
 20
236.7556581007958
 30
0.0
 40
2.000000000000014
100
AcDbArc
 50
-143.999999999999
 51
-72.06933346639573
  0
ARC
  5
1D5
102
{ACAD_XDICTIONARY
360
1D3
102
}
330
1F
100
AcDbEntity
  8
Main lines
 48
0.75
100
AcDbCircle
 10
137.4623399664699
 20
228.0370200052104
 30
0.0
 40
2.500000000000002
100
AcDbArc
 50
148.9322236472182
 51
234.0000000000001
  0
LINE
  5
1D8
102
{ACAD_XDICTIONARY
360
1D6
102
}
330
1F
100
AcDbEntity
  8
Main lines
 48
0.75
100
AcDbLine
 10
144.8098282398747
 20
219.6085873568116
 30
0.0
 11
140.4013525382042
 21
222.8115324377535
 31
0.0
  0
ARC
  5
1DB
102
{ACAD_XDICTIONARY
360
1D9
102
}
330
1F
100
AcDbEntity
  8
Main lines
 48
0.75
100
AcDbCircle
 10
146.2792913706059
 20
221.631129842749
 30
0.0
 40
2.50000000000001
100
AcDbArc
 50
-125.9999999999999
 51
-40.93222364721763
  0
LINE
  5
1DE
102
{ACAD_XDICTIONARY
360
1DC
102
}
330
1F
100
AcDbEntity
  8
Main lines
 48
0.75
100
AcDbLine
 10
135.9928768357387
 20
226.014477519273
 30
0.0
 11
140.4013525374092
 21
222.8115324383311
 31
0.0
  0
ARC
  5
1E1
102
{ACAD_XDICTIONARY
360
1DF
102
}
330
1F
100
AcDbEntity
  8
Main lines
 48
0.75
100
AcDbCircle
 10
195.2916932233711
 20
216.8765991534375
 30
0.0
 40
5.000000000000012
100
AcDbArc
 50
50.83584674928603
 51
151.9012776409808
  0
ARC
  5
1E4
102
{ACAD_XDICTIONARY
360
1E2
102
}
330
1F
100
AcDbEntity
  8
Main lines
 48
0.75
100
AcDbCircle
 10
209.9939768243214
 20
209.0267321180777
 30
0.0
 40
16.66666599999999
100
AcDbArc
 50
155.7402585165939
 51
175.0677763527818
  0
ARC
  5
1E7
102
{ACAD_XDICTIONARY
360
1E5
102
}
330
1F
100
AcDbEntity
  8
Main lines
 48
0.75
100
AcDbCircle
 10
184.7659542311948
 20
203.9542697881824
 30
0.0
 40
21.66666665999998
100
AcDbArc
 50
41.93392156816339
 51
50.83584674928621
  0
LINE
  5
1EA
102
{ACAD_XDICTIONARY
360
1E8
102
}
330
1F
100
AcDbEntity
  8
Main lines
 48
0.75
100
AcDbLine
 10
206.4318865124278
 20
220.2360941212848
 30
0.0
 11
200.8841348802175
 21
218.4335203461714
 31
0.0
  0
LINE
  5
1ED
102
{ACAD_XDICTIONARY
360
1EB
102
}
330
1F
100
AcDbEntity
  8
Main lines
 48
0.75
100
AcDbLine
 10
207.9769714843026
 20
215.480811539809
 30
0.0
 11
200.4723451623951
 21
213.0424106349534
 31
0.0
  0
ARC
  5
1F0
102
{ACAD_XDICTIONARY
360
1EE
102
}
330
1F
100
AcDbEntity
  8
Main lines
 48
0.75
100
AcDbCircle
 10
184.7659542311948
 20
203.9542697881824
 30
0.0
 40
16.66666000000001
100
AcDbArc
 50
36.06933346639653
 51
47.15718023474972
  0
LINE
  5
1F3
102
{ACAD_XDICTIONARY
360
1F1
102
}
330
1F
100
AcDbEntity
  8
Main lines
 48
0.75
100
AcDbLine
 10
194.7991074390193
 20
215.8746295997256
 30
0.0
 11
196.0991074390191
 21
216.1746295997256
 31
0.0
  0
ARC
  5
1F6
102
{ACAD_XDICTIONARY
360
1F4
102
}
330
1F
100
AcDbEntity
  8
Main lines
 48
0.75
100
AcDbCircle
 10
199.8543111736453
 20
214.9445236675437
 30
0.0
 40
2.000000000000005
100
AcDbArc
 50
-143.9306665336044
 51
-72.00000000000128
  0
ARC
  5
1F9
102
{ACAD_XDICTIONARY
360
1F7
102
}
330
1F
100
AcDbEntity
  8
Main lines
 48
0.75
100
AcDbCircle
 10
160.9042380527346
 20
209.0267321180777
 30
0.0
 40
16.66666600000002
100
AcDbArc
 50
4.932223647218265
 51
24.25974148340617
  0
ARC
  5
1FC
102
{ACAD_XDICTIONARY
360
1FA
102
}
330
1F
100
AcDbEntity
  8
Main lines
 48
0.75
100
AcDbCircle
 10
175.6065216536848
 20
216.8765991534375
 30
0.0
 40
4.999999999999983
100
AcDbArc
 50
28.0987223590189
 51
129.1641532507137
  0
LINE
  5
1FF
102
{ACAD_XDICTIONARY
360
1FD
102
}
330
1F
100
AcDbEntity
  8
Main lines
 48
0.75
100
AcDbLine
 10
187.9196336387576
 20
213.1746295997257
 30
0.0
 11
185.4491074390193
 21
213.1746295997256
 31
0.0
  0
ARC
  5
202
102
{ACAD_XDICTIONARY
360
200
102
}
330
1F
100
AcDbEntity
  8
Main lines
 48
0.75
100
AcDbCircle
 10
209.9939768243214
 20
209.0267321180777
 30
0.0
 40
21.66666
100
AcDbArc
 50
151.9012776409809
 51
166.8728274203952
  0
ARC
  5
205
102
{ACAD_XDICTIONARY
360
203
102
}
330
1F
100
AcDbEntity
  8
Main lines
 48
0.75
100
AcDbCircle
 10
187.9196336387575
 20
214.1746295997257
 30
0.0
 40
1.0
100
AcDbArc
 50
-90.0
 51
-13.12717257960477
  0
ARC
  5
208
102
{ACAD_XDICTIONARY
360
206
102
}
330
1F
100
AcDbEntity
  8
Main lines
 48
0.75
100
AcDbCircle
 10
160.9042380527346
 20
209.0267321180777
 30
0.0
 40
21.66665999999999
100
AcDbArc
 50
13.12717257960481
 51
28.09872235901917
  0
LINE
  5
20B
102
{ACAD_XDICTIONARY
360
209
102
}
330
1F
100
AcDbEntity
  8
Main lines
 48
0.75
100
AcDbLine
 10
182.9785812382983
 20
213.1746295997257
 30
0.0
 11
185.4491074380367
 21
213.1746295997256
 31
0.0
  0
ARC
  5
20E
102
{ACAD_XDICTIONARY
360
20C
102
}
330
1F
100
AcDbEntity
  8
Main lines
 48
0.75
100
AcDbCircle
 10
182.9785812382984
 20
214.1746295997257
 30
0.0
 40
1.0
100
AcDbArc
 50
-166.8728274203953
 51
-90.0
  0
LINE
  5
211
102
{ACAD_XDICTIONARY
360
20F
102
}
330
1F
100
AcDbEntity
  8
Main lines
 48
0.75
100
AcDbLine
 10
164.4663283646281
 20
220.2360941212848
 30
0.0
 11
170.0140799968385
 21
218.4335203461714
 31
0.0
  0
ARC
  5
214
102
{ACAD_XDICTIONARY
360
212
102
}
330
1F
100
AcDbEntity
  8
Main lines
 48
0.75
100
AcDbCircle
 10
186.1322606458612
 20
203.9542697881824
 30
0.0
 40
21.66666666
100
AcDbArc
 50
129.1641532507138
 51
138.0660784318365
  0
LINE
  5
217
102
{ACAD_XDICTIONARY
360
215
102
}
330
1F
100
AcDbEntity
  8
Main lines
 48
0.75
100
AcDbLine
 10
162.9212433927534
 20
215.480811539809
 30
0.0
 11
170.4258697146608
 21
213.0424106349534
 31
0.0
  0
ARC
  5
21A
102
{ACAD_XDICTIONARY
360
218
102
}
330
1F
100
AcDbEntity
  8
Main lines
 48
0.75
100
AcDbCircle
 10
186.1322606458612
 20
203.9542697881824
 30
0.0
 40
16.66666000000003
100
AcDbArc
 50
132.8428197652503
 51
143.9306665336035
  0
LINE
  5
21D
102
{ACAD_XDICTIONARY
360
21B
102
}
330
1F
100
AcDbEntity
  8
Main lines
 48
0.75
100
AcDbLine
 10
176.0991074380366
 20
215.8746295997256
 30
0.0
 11
174.7991074380368
 21
216.1746295997256
 31
0.0
  0
ARC
  5
220
102
{ACAD_XDICTIONARY
360
21E
102
}
330
1F
100
AcDbEntity
  8
Main lines
 48
0.75
100
AcDbCircle
 10
171.0439037034106
 20
214.9445236675437
 30
0.0
 40
1.999999999999989
100
AcDbArc
 50
-107.999999999999
 51
-36.06933346639556
  0
ARC
  5
223
102
{ACAD_XDICTIONARY
360
221
102
}
330
1F
100
AcDbEntity
  8
Main lines
 48
0.75
100
AcDbCircle
 10
179.9999317936158
 20
210.6746295997256
 30
0.0
 40
2.500000000000011
100
AcDbArc
 50
-175.0677763527819
 51
-90.0
  0
LINE
  5
226
102
{ACAD_XDICTIONARY
360
224
102
}
330
1F
100
AcDbEntity
  8
Main lines
 48
0.75
100
AcDbLine
 10
190.8982830834401
 20
208.1746295997256
 30
0.0
 11
185.4491074390193
 21
208.1746295997256
 31
0.0
  0
ARC
  5
229
102
{ACAD_XDICTIONARY
360
227
102
}
330
1F
100
AcDbEntity
  8
Main lines
 48
0.75
100
AcDbCircle
 10
190.8982830834401
 20
210.6746295997256
 30
0.0
 40
2.5
100
AcDbArc
 50
-90.0
 51
-4.932223647218086
  0
LINE
  5
22C
102
{ACAD_XDICTIONARY
360
22A
102
}
330
1F
100
AcDbEntity
  8
Main lines
 48
0.75
100
AcDbLine
 10
179.9999317936158
 20
208.1746295997256
 30
0.0
 11
185.4491074380366
 21
208.1746295997256
 31
0.0
  0
ARC
  5
22F
102
{ACAD_XDICTIONARY
360
22D
102
}
330
1F
100
AcDbEntity
  8
Main lines
 48
0.75
100
AcDbCircle
 10
233.3447921382106
 20
235.636900460283
 30
0.0
 40
4.999999999999995
100
AcDbArc
 50
86.83584674928586
 51
187.901277640981
  0
ARC
  5
232
102
{ACAD_XDICTIONARY
360
230
102
}
330
1F
100
AcDbEntity
  8
Main lines
 48
0.75
100
AcDbCircle
 10
249.8532255033408
 20
237.9280101007533
 30
0.0
 40
16.66666600000001
100
AcDbArc
 50
-168.2597414834063
 51
-148.9322236472182
  0
ARC
  5
235
102
{ACAD_XDICTIONARY
360
233
102
}
330
1F
100
AcDbEntity
  8
Main lines
 48
0.75
100
AcDbCircle
 10
232.4248450413479
 20
218.9956422478001
 30
0.0
 40
21.66666665999998
100
AcDbArc
 50
77.93392156816333
 51
86.83584674928633
  0
LINE
  5
238
102
{ACAD_XDICTIONARY
360
236
102
}
330
1F
100
AcDbEntity
  8
Main lines
 48
0.75
100
AcDbLine
 10
240.3827362324278
 20
244.9028303047837
 30
0.0
 11
236.954037162579
 21
240.1836308943076
 31
0.0
  0
LINE
  5
23B
102
{ACAD_XDICTIONARY
360
239
102
}
330
1F
100
AcDbEntity
  8
Main lines
 48
0.75
100
AcDbLine
 10
244.4278212043025
 20
241.9639040433213
 30
0.0
 11
239.7897070644966
 21
235.5800875962108
 31
0.0
  0
ARC
  5
23E
102
{ACAD_XDICTIONARY
360
23C
102
}
330
1F
100
AcDbEntity
  8
Main lines
 48
0.75
100
AcDbCircle
 10
232.4248450413479
 20
218.9956422478001
 30
0.0
 40
16.66666
100
AcDbArc
 50
72.06933346639636
 51
83.15718023474972
  0
LINE
  5
241
102
{ACAD_XDICTIONARY
360
23F
102
}
330
1F
100
AcDbEntity
  8
Main lines
 48
0.75
100
AcDbLine
 10
233.5352247944004
 20
234.5367554039528
 30
0.0
 11
234.4106113113999
 21
235.5435813302454
 31
0.0
  0
ARC
  5
244
102
{ACAD_XDICTIONARY
360
242
102
}
330
1F
100
AcDbEntity
  8
Main lines
 48
0.75
100
AcDbCircle
 10
238.1716730757468
 20
236.7556581007958
 30
0.0
 40
1.999999999999993
100
AcDbArc
 50
-107.9306665336045
 51
-36.00000000000146
  0
ARC
  5
247
102
{ACAD_XDICTIONARY
360
245
102
}
330
1F
100
AcDbEntity
  8
Main lines
 48
0.75
100
AcDbCircle
 10
210.1387925877003
 20
209.0737856119245
 30
0.0
 40
16.66666600000001
100
AcDbArc
 50
40.93222364721827
 51
60.25974148340624
  0
ARC
  5
24A
102
{ACAD_XDICTIONARY
360
248
102
}
330
1F
100
AcDbEntity
  8
Main lines
 48
0.75
100
AcDbCircle
 10
217.4191538011478
 20
224.0662469227744
 30
0.0
 40
4.999999999999989
100
AcDbArc
 50
64.0987223590186
 51
165.1641532507139
  0
LINE
  5
24D
102
{ACAD_XDICTIONARY
360
24B
102
}
330
1F
100
AcDbEntity
  8
Main lines
 48
0.75
100
AcDbLine
 10
229.5566337588211
 20
228.3087562758143
 30
0.0
 11
227.5579360781842
 21
226.8566174102059
 31
0.0
  0
ARC
  5
250
102
{ACAD_XDICTIONARY
360
24E
102
}
330
1F
100
AcDbEntity
  8
Main lines
 48
0.75
100
AcDbCircle
 10
249.8532255033408
 20
237.9280101007533
 30
0.0
 40
21.66665999999999
100
AcDbArc
 50
-172.0987223590191
 51
-157.1271725796048
  0
ARC
  5
253
102
{ACAD_XDICTIONARY
360
251
102
}
330
1F
100
AcDbEntity
  8
Main lines
 48
0.75
100
AcDbCircle
 10
228.9688485065286
 20
229.1177732701892
 30
0.0
 40
0.9999999999999788
100
AcDbArc
 50
-53.99999999999985
 51
22.87282742039444
  0
ARC
  5
256
102
{ACAD_XDICTIONARY
360
254
102
}
330
1F
100
AcDbEntity
  8
Main lines
 48
0.75
100
AcDbCircle
 10
210.1387925877003
 20
209.0737856119245
 30
0.0
 40
21.66666000000001
100
AcDbArc
 50
49.12717257960487
 51
64.09872235901919
  0
LINE
  5
259
102
{ACAD_XDICTIONARY
360
257
102
}
330
1F
100
AcDbEntity
  8
Main lines
 48
0.75
100
AcDbLine
 10
225.5592383967524
 20
225.40447854402
 30
0.0
 11
227.5579360773892
 21
226.8566174096284
 31
0.0
  0
ARC
  5
25C
102
{ACAD_XDICTIONARY
360
25A
102
}
330
1F
100
AcDbEntity
  8
Main lines
 48
0.75
100
AcDbCircle
 10
224.97145314446
 20
226.213495538395
 30
0.0
 40
0.9999999999999983
100
AcDbArc
 50
-130.8728274203965
 51
-54.00000000000082
  0
LINE
  5
25F
102
{ACAD_XDICTIONARY
360
25D
102
}
330
1F
100
AcDbEntity
  8
Main lines
 48
0.75
100
AcDbLine
 10
206.4318865124278
 20
220.2360941212848
 30
0.0
 11
211.9796381446381
 21
222.0386678963982
 31
0.0
  0
ARC
  5
262
102
{ACAD_XDICTIONARY
360
260
102
}
330
1F
100
AcDbEntity
  8
Main lines
 48
0.75
100
AcDbCircle
 10
233.5302101503365
 20
219.7987370084536
 30
0.0
 40
21.66666666
100
AcDbArc
 50
165.1641532507137
 51
174.0660784318366
  0
LINE
  5
265
102
{ACAD_XDICTIONARY
360
263
102
}
330
1F
100
AcDbEntity
  8
Main lines
 48
0.75
100
AcDbLine
 10
207.9769714843025
 20
215.480811539809
 30
0.0
 11
215.4815978062099
 21
217.9192124446647
 31
0.0
  0
ARC
  5
268
102
{ACAD_XDICTIONARY
360
266
102
}
330
1F
100
AcDbEntity
  8
Main lines
 48
0.75
100
AcDbCircle
 10
233.5302101503365
 20
219.7987370084536
 30
0.0
 40
16.66666
100
AcDbArc
 50
168.8428197652503
 51
179.9306665336035
  0
LINE
  5
26B
102
{ACAD_XDICTIONARY
360
269
102
}
330
1F
100
AcDbEntity
  8
Main lines
 48
0.75
100
AcDbLine
 10
218.4066069987938
 20
223.545171185506
 30
0.0
 11
217.1785493304188
 21
223.0237554558384
 31
0.0
  0
ARC
  5
26E
102
{ACAD_XDICTIONARY
360
26C
102
}
330
1F
100
AcDbEntity
  8
Main lines
 48
0.75
100
AcDbCircle
 10
214.86356381746
 20
219.8213254772549
 30
0.0
 40
2.000000000000006
100
AcDbArc
 50
-71.99999999999946
 51
-0.0693334663960362
  0
ARC
  5
271
102
{ACAD_XDICTIONARY
360
26F
102
}
330
1F
100
AcDbEntity
  8
Main lines
 48
0.75
100
AcDbCircle
 10
224.61892350645
 20
221.631129842749
 30
0.0
 40
2.499999999999992
100
AcDbArc
 50
-139.0677763527819
 51
-53.99999999999972
  0
LINE
  5
274
102
{ACAD_XDICTIONARY
360
272
102
}
330
1F
100
AcDbEntity
  8
Main lines
 48
0.75
100
AcDbLine
 10
234.9053380413172
 20
226.014477519273
 30
0.0
 11
230.4968623396466
 21
222.8115324383311
 31
0.0
  0
ARC
  5
277
102
{ACAD_XDICTIONARY
360
275
102
}
330
1F
100
AcDbEntity
  8
Main lines
 48
0.75
100
AcDbCircle
 10
233.4358749105859
 20
228.0370200052104
 30
0.0
 40
2.50000000000001
100
AcDbArc
 50
-54.00000000000009
 51
31.06777635278234
  0
LINE
  5
27A
102
{ACAD_XDICTIONARY
360
278
102
}
330
1F
100
AcDbEntity
  8
Main lines
 48
0.75
100
AcDbLine
 10
226.0883866371811
 20
219.6085873568117
 30
0.0
 11
230.4968623388516
 21
222.8115324377536
 31
0.0
  0
ARC
  5
27D
102
{ACAD_XDICTIONARY
360
27B
102
}
330
1F
100
AcDbEntity
  8
Main lines
 48
0.75
100
AcDbCircle
 10
253.1033674122197
 20
273.1813533832849
 30
0.0
 40
4.999999999999988
100
AcDbArc
 50
122.8358467492863
 51
223.9012776409812
  0
ARC
  5
280
102
{ACAD_XDICTIONARY
360
27E
102
}
330
1F
100
AcDbEntity
  8
Main lines
 48
0.75
100
AcDbCircle
 10
265.1122900970628
 20
284.7383136888782
 30
0.0
 40
16.666666
100
AcDbArc
 50
-132.2597414834064
 51
-112.9322236472183
  0
ARC
  5
283
102
{ACAD_XDICTIONARY
360
281
102
}
330
1F
100
AcDbEntity
  8
Main lines
 48
0.75
100
AcDbCircle
 10
262.1406007338202
 20
259.1775613451794
 30
0.0
 40
21.66666666
100
AcDbArc
 50
113.9339215681633
 51
122.8358467492863
  0
LINE
  5
286
102
{ACAD_XDICTIONARY
360
284
102
}
330
1F
100
AcDbEntity
  8
Main lines
 48
0.75
100
AcDbLine
 10
253.350806878528
 20
284.8144478412117
 30
0.0
 11
253.350806878528
 21
278.9811965704864
 31
0.0
  0
LINE
  5
289
102
{ACAD_XDICTIONARY
360
287
102
}
330
1F
100
AcDbEntity
  8
Main lines
 48
0.75
100
AcDbLine
 10
258.350806878528
 20
284.8144478412117
 30
0.0
 11
258.350806878528
 21
276.923616756702
 31
0.0
  0
ARC
  5
28C
102
{ACAD_XDICTIONARY
360
28A
102
}
330
1F
100
AcDbEntity
  8
Main lines
 48
0.75
100
AcDbCircle
 10
262.1406007338202
 20
259.1775613451794
 30
0.0
 40
16.66666000000001
100
AcDbArc
 50
108.0693334663964
 51
119.1571802347497
  0
LINE
  5
28F
102
{ACAD_XDICTIONARY
360
28D
102
}
330
1F
100
AcDbEntity
  8
Main lines
 48
0.75
100
AcDbLine
 10
253.9040797068545
 20
272.4032508432995
 30
0.0
 11
254.0204848446533
 21
273.7323294127955
 31
0.0
  0
ARC
  5
292
102
{ACAD_XDICTIONARY
360
290
102
}
330
1F
100
AcDbEntity
  8
Main lines
 48
0.75
100
AcDbCircle
 10
256.350806878528
 20
276.923616756702
 30
0.0
 40
2.000000000000023
100
AcDbArc
 50
-71.93066653360411
 51
0.0
  0
ARC
  5
295
102
{ACAD_XDICTIONARY
360
293
102
}
330
1F
100
AcDbEntity
  8
Main lines
 48
0.75
100
AcDbCircle
 10
249.9427265672157
 20
238.0511977469337
 30
0.0
 40
16.66666599999997
100
AcDbArc
 50
76.9322236472182
 51
96.25974148340623
  0
ARC
  5
298
102
{ACAD_XDICTIONARY
360
296
102
}
330
1F
100
AcDbEntity
  8
Main lines
 48
0.75
100
AcDbCircle
 10
247.02031486
 20
254.4596426875466
 30
0.0
 40
5.000000000000003
100
AcDbArc
 50
100.098722359019
 51
201.1641532507138
  0
LINE
  5
29B
102
{ACAD_XDICTIONARY
360
299
102
}
330
1F
100
AcDbEntity
  8
Main lines
 48
0.75
100
AcDbLine
 10
254.3460579842132
 20
265.0261365720665
 30
0.0
 11
253.5826234034456
 21
262.6765265311275
 31
0.0
  0
ARC
  5
29E
102
{ACAD_XDICTIONARY
360
29C
102
}
330
1F
100
AcDbEntity
  8
Main lines
 48
0.75
100
AcDbCircle
 10
265.1122900970628
 20
284.7383136888782
 30
0.0
 40
21.66666000000002
100
AcDbArc
 50
-136.0987223590191
 51
-121.1271725796048
  0
ARC
  5
2A1
102
{ACAD_XDICTIONARY
360
29F
102
}
330
1F
100
AcDbEntity
  8
Main lines
 48
0.75
100
AcDbCircle
 10
253.395001467918
 20
265.3351535664413
 30
0.0
 40
1.000000000000008
100
AcDbArc
 50
-17.99999999999853
 51
58.87282742039486
  0
ARC
  5
2A4
102
{ACAD_XDICTIONARY
360
2A2
102
}
330
1F
100
AcDbEntity
  8
Main lines
 48
0.75
100
AcDbCircle
 10
249.9427265672157
 20
238.0511977469337
 30
0.0
 40
21.66665999999999
100
AcDbArc
 50
85.12717257960486
 51
100.0987223590191
  0
LINE
  5
2A7
102
{ACAD_XDICTIONARY
360
2A5
102
}
330
1F
100
AcDbEntity
  8
Main lines
 48
0.75
100
AcDbLine
 10
252.8191888223741
 20
260.3269164892539
 30
0.0
 11
253.5826234031419
 21
262.676526530193
 31
0.0
  0
ARC
  5
2AA
102
{ACAD_XDICTIONARY
360
2A8
102
}
330
1F
100
AcDbEntity
  8
Main lines
 48
0.75
100
AcDbCircle
 10
251.8681323060791
 20
260.6359334836289
 30
0.0
 40
0.9999999999999821
100
AcDbArc
 50
-94.87282742039547
 51
-17.99999999999898
  0
LINE
  5
2AD
102
{ACAD_XDICTIONARY
360
2AB
102
}
330
1F
100
AcDbEntity
  8
Main lines
 48
0.75
100
AcDbLine
 10
240.3827362324278
 20
244.9028303047837
 30
0.0
 11
243.8114353022765
 21
249.6220297152597
 31
0.0
  0
ARC
  5
2B0
102
{ACAD_XDICTIONARY
360
2AE
102
}
330
1F
100
AcDbEntity
  8
Main lines
 48
0.75
100
AcDbCircle
 10
262.5628126354756
 20
260.4769959641037
 30
0.0
 40
21.66666666000001
100
AcDbArc
 50
-158.8358467492862
 51
-149.9339215681634
  0
LINE
  5
2B3
102
{ACAD_XDICTIONARY
360
2B1
102
}
330
1F
100
AcDbEntity
  8
Main lines
 48
0.75
100
AcDbLine
 10
244.4278212043026
 20
241.9639040433213
 30
0.0
 11
249.0659353441084
 21
248.3477204904319
 31
0.0
  0
ARC
  5
2B6
102
{ACAD_XDICTIONARY
360
2B4
102
}
330
1F
100
AcDbEntity
  8
Main lines
 48
0.75
100
AcDbCircle
 10
262.5628126354756
 20
260.4769959641037
 30
0.0
 40
16.66666000000003
100
AcDbArc
 50
-155.1571802347497
 51
-144.0693334663964
  0
LINE
  5
2B9
102
{ACAD_XDICTIONARY
360
2B7
102
}
330
1F
100
AcDbEntity
  8
Main lines
 48
0.75
100
AcDbLine
 10
248.1254619117393
 20
254.6184939876455
 30
0.0
 11
247.4384228641633
 21
253.4748256147745
 31
0.0
  0
ARC
  5
2BC
102
{ACAD_XDICTIONARY
360
2BA
102
}
330
1F
100
AcDbEntity
  8
Main lines
 48
0.75
100
AcDbCircle
 10
247.4479013553585
 20
249.5232909950168
 30
0.0
 40
2.000000000000004
100
AcDbArc
 50
-35.99999999999918
 51
35.93066653360408
  0
ARC
  5
2BF
102
{ACAD_XDICTIONARY
360
2BD
102
}
330
1F
100
AcDbEntity
  8
Main lines
 48
0.75
100
AcDbCircle
 10
254.2763768144197
 20
256.7215100391923
 30
0.0
 40
2.499999999999995
100
AcDbArc
 50
-103.0677763527812
 51
-17.99999999999994
  0
LINE
  5
2C2
102
{ACAD_XDICTIONARY
360
2C0
102
}
330
1F
100
AcDbEntity
  8
Main lines
 48
0.75
100
AcDbLine
 10
260.0217938643815
 20
266.3139155643159
 30
0.0
 11
258.3379059849214
 21
261.1314415592527
 31
0.0
  0
ARC
  5
2C5
102
{ACAD_XDICTIONARY
360
2C3
102
}
330
1F
100
AcDbEntity
  8
Main lines
 48
0.75
100
AcDbCircle
 10
257.6441525736436
 20
267.0864580502533
 30
0.0
 40
2.49999999999999
100
AcDbArc
 50
-18.00000000000032
 51
67.06777635278199
  0
LINE
  5
2C8
102
{ACAD_XDICTIONARY
360
2C6
102
}
330
1F
100
AcDbEntity
  8
Main lines
 48
0.75
100
AcDbLine
 10
256.6540181051577
 20
255.9489675532549
 30
0.0
 11
258.3379059846177
 21
261.1314415583181
 31
0.0
  0
ARC
  5
2CB
102
{ACAD_XDICTIONARY
360
2C9
102
}
330
1F
100
AcDbEntity
  8
Main lines
 48
0.75
100
AcDbCircle
 10
247.02031486
 20
315.1692529948769
 30
0.0
 40
5.000000000000008
100
AcDbArc
 50
158.8358467492866
 51
259.9012776409809
  0
ARC
  5
2CE
102
{ACAD_XDICTIONARY
360
2CC
102
}
330
1F
100
AcDbEntity
  8
Main lines
 48
0.75
100
AcDbCircle
 10
249.9427265672157
 20
331.5776979354898
 30
0.0
 40
16.66666599999998
100
AcDbArc
 50
-96.25974148340623
 51
-76.9322236472183
  0
ARC
  5
2D1
102
{ACAD_XDICTIONARY
360
2CF
102
}
330
1F
100
AcDbEntity
  8
Main lines
 48
0.75
100
AcDbCircle
 10
262.5628126354756
 20
309.1518997183198
 30
0.0
 40
21.66666665999997
100
AcDbArc
 50
149.9339215681634
 51
158.8358467492862
  0
LINE
  5
2D4
102
{ACAD_XDICTIONARY
360
2D2
102
}
330
1F
100
AcDbEntity
  8
Main lines
 48
0.75
100
AcDbLine
 10
240.3827362324278
 20
324.7260653776399
 30
0.0
 11
243.8114353022765
 21
320.0068659671638
 31
0.0
  0
LINE
  5
2D7
102
{ACAD_XDICTIONARY
360
2D5
102
}
330
1F
100
AcDbEntity
  8
Main lines
 48
0.75
100
AcDbLine
 10
244.4278212043026
 20
327.6649916391023
 30
0.0
 11
249.0659353441085
 21
321.2811751919917
 31
0.0
  0
ARC
  5
2DA
102
{ACAD_XDICTIONARY
360
2D8
102
}
330
1F
100
AcDbEntity
  8
Main lines
 48
0.75
100
AcDbCircle
 10
262.5628126354756
 20
309.1518997183198
 30
0.0
 40
16.66666000000002
100
AcDbArc
 50
144.0693334663964
 51
155.1571802347497
  0
LINE
  5
2DD
102
{ACAD_XDICTIONARY
360
2DB
102
}
330
1F
100
AcDbEntity
  8
Main lines
 48
0.75
100
AcDbLine
 10
248.1254619117394
 20
315.010401694778
 30
0.0
 11
247.4384228641634
 21
316.1540700676491
 31
0.0
  0
ARC
  5
2E0
102
{ACAD_XDICTIONARY
360
2DE
102
}
330
1F
100
AcDbEntity
  8
Main lines
 48
0.75
100
AcDbCircle
 10
247.4479013553585
 20
320.1056046874068
 30
0.0
 40
2.000000000000015
100
AcDbArc
 50
-35.93066653360287
 51
35.9999999999991
  0
ARC
  5
2E3
102
{ACAD_XDICTIONARY
360
2E1
102
}
330
1F
100
AcDbEntity
  8
Main lines
 48
0.75
100
AcDbCircle
 10
265.1122900970628
 20
284.8905819935454
 30
0.0
 40
16.66666599999999
100
AcDbArc
 50
112.9322236472183
 51
132.2597414834064
  0
ARC
  5
2E6
102
{ACAD_XDICTIONARY
360
2E4
102
}
330
1F
100
AcDbEntity
  8
Main lines
 48
0.75
100
AcDbCircle
 10
253.1033674122197
 20
296.4475422991386
 30
0.0
 40
4.999999999999982
100
AcDbArc
 50
136.0987223590186
 51
237.1641532507136
  0
LINE
  5
2E9
102
{ACAD_XDICTIONARY
360
2E7
102
}
330
1F
100
AcDbEntity
  8
Main lines
 48
0.75
100
AcDbLine
 10
252.8191888223742
 20
309.3019791931696
 30
0.0
 11
253.5826234031419
 21
306.9523691522306
 31
0.0
  0
ARC
  5
2EC
102
{ACAD_XDICTIONARY
360
2EA
102
}
330
1F
100
AcDbEntity
  8
Main lines
 48
0.75
100
AcDbCircle
 10
249.9427265672157
 20
331.5776979354898
 30
0.0
 40
21.66665999999998
100
AcDbArc
 50
-100.0987223590191
 51
-85.12717257960486
  0
ARC
  5
2EF
102
{ACAD_XDICTIONARY
360
2ED
102
}
330
1F
100
AcDbEntity
  8
Main lines
 48
0.75
100
AcDbCircle
 10
251.8681323060791
 20
308.9929621987946
 30
0.0
 40
1.000000000000021
100
AcDbArc
 50
17.99999999999848
 51
94.8728274203952
  0
ARC
  5
2F2
102
{ACAD_XDICTIONARY
360
2F0
102
}
330
1F
100
AcDbEntity
  8
Main lines
 48
0.75
100
AcDbCircle
 10
265.1122900970628
 20
284.8905819935454
 30
0.0
 40
21.66665999999999
100
AcDbArc
 50
121.1271725796048
 51
136.0987223590192
  0
LINE
  5
2F5
102
{ACAD_XDICTIONARY
360
2F3
102
}
330
1F
100
AcDbEntity
  8
Main lines
 48
0.75
100
AcDbLine
 10
254.3460579842132
 20
304.6027591103569
 30
0.0
 11
253.5826234034456
 21
306.9523691512961
 31
0.0
  0
ARC
  5
2F8
102
{ACAD_XDICTIONARY
360
2F6
102
}
330
1F
100
AcDbEntity
  8
Main lines
 48
0.75
100
AcDbCircle
 10
253.3950014679181
 20
304.2937421159822
 30
0.0
 40
0.9999999999999984
100
AcDbArc
 50
-58.87282742039756
 51
17.99999999999889
  0
LINE
  5
2FB
102
{ACAD_XDICTIONARY
360
2F9
102
}
330
1F
100
AcDbEntity
  8
Main lines
 48
0.75
100
AcDbLine
 10
253.350806878528
 20
284.8144478412117
 30
0.0
 11
253.350806878528
 21
290.6476991119372
 31
0.0
  0
ARC
  5
2FE
102
{ACAD_XDICTIONARY
360
2FC
102
}
330
1F
100
AcDbEntity
  8
Main lines
 48
0.75
100
AcDbCircle
 10
262.1406007338202
 20
310.4513343372442
 30
0.0
 40
21.66666666000002
100
AcDbArc
 50
-122.8358467492863
 51
-113.9339215681633
  0
LINE
  5
301
102
{ACAD_XDICTIONARY
360
2FF
102
}
330
1F
100
AcDbEntity
  8
Main lines
 48
0.75
100
AcDbLine
 10
258.350806878528
 20
284.8144478412117
 30
0.0
 11
258.350806878528
 21
292.7052789257216
 31
0.0
  0
ARC
  5
304
102
{ACAD_XDICTIONARY
360
302
102
}
330
1F
100
AcDbEntity
  8
Main lines
 48
0.75
100
AcDbCircle
 10
262.1406007338202
 20
310.4513343372442
 30
0.0
 40
16.66666000000003
100
AcDbArc
 50
-119.1571802347497
 51
-108.0693334663964
  0
LINE
  5
307
102
{ACAD_XDICTIONARY
360
305
102
}
330
1F
100
AcDbEntity
  8
Main lines
 48
0.75
100
AcDbLine
 10
253.9040797068545
 20
297.225644839124
 30
0.0
 11
254.0204848446533
 21
295.896566269628
 31
0.0
  0
ARC
  5
30A
102
{ACAD_XDICTIONARY
360
308
102
}
330
1F
100
AcDbEntity
  8
Main lines
 48
0.75
100
AcDbCircle
 10
256.350806878528
 20
292.7052789257216
 30
0.0
 40
2.0
100
AcDbArc
 50
0.0
 51
71.93066653360411
  0
ARC
  5
30D
102
{ACAD_XDICTIONARY
360
30B
102
}
330
1F
100
AcDbEntity
  8
Main lines
 48
0.75
100
AcDbCircle
 10
257.6441525736436
 20
302.5424376321702
 30
0.0
 40
2.499999999999989
100
AcDbArc
 50
-67.06777635278199
 51
18.00000000000032
  0
LINE
  5
310
102
{ACAD_XDICTIONARY
360
30E
102
}
330
1F
100
AcDbEntity
  8
Main lines
 48
0.75
100
AcDbLine
 10
256.6540181051577
 20
313.6799281291686
 30
0.0
 11
258.3379059846177
 21
308.4974541241054
 31
0.0
  0
ARC
  5
313
102
{ACAD_XDICTIONARY
360
311
102
}
330
1F
100
AcDbEntity
  8
Main lines
 48
0.75
100
AcDbCircle
 10
254.2763768144198
 20
312.9073856432313
 30
0.0
 40
2.49999999999999
100
AcDbArc
 50
18.00000000000032
 51
103.0677763527811
  0
LINE
  5
316
102
{ACAD_XDICTIONARY
360
314
102
}
330
1F
100
AcDbEntity
  8
Main lines
 48
0.75
100
AcDbLine
 10
260.0217938643816
 20
303.3149801181075
 30
0.0
 11
258.3379059849214
 21
308.4974541231708
 31
0.0
  0
ARC
  5
319
102
{ACAD_XDICTIONARY
360
317
102
}
330
1F
100
AcDbEntity
  8
Main lines
 48
0.75
100
AcDbCircle
 10
217.4191538011478
 20
345.5626487596492
 30
0.0
 40
4.999999999999999
100
AcDbArc
 50
-165.1641532507136
 51
-64.0987223590186
  0
ARC
  5
31C
102
{ACAD_XDICTIONARY
360
31A
102
}
330
1F
100
AcDbEntity
  8
Main lines
 48
0.75
100
AcDbCircle
 10
210.1387925877003
 20
360.555110070499
 30
0.0
 40
16.66666600000001
100
AcDbArc
 50
-60.25974148340634
 51
-40.93222364721827
  0
ARC
  5
31F
102
{ACAD_XDICTIONARY
360
31D
102
}
330
1F
100
AcDbEntity
  8
Main lines
 48
0.75
100
AcDbCircle
 10
233.5302101503365
 20
349.8301586739699
 30
0.0
 40
21.66666666000002
100
AcDbArc
 50
-174.0660784318365
 51
-165.1641532507138
  0
LINE
  5
322
102
{ACAD_XDICTIONARY
360
320
102
}
330
1F
100
AcDbEntity
  8
Main lines
 48
0.75
100
AcDbLine
 10
206.4318865124278
 20
349.3928015611388
 30
0.0
 11
211.9796381446382
 21
347.5902277860254
 31
0.0
  0
LINE
  5
325
102
{ACAD_XDICTIONARY
360
323
102
}
330
1F
100
AcDbEntity
  8
Main lines
 48
0.75
100
AcDbLine
 10
207.9769714843025
 20
354.1480841426145
 30
0.0
 11
215.48159780621
 21
351.7096832377589
 31
0.0
  0
ARC
  5
328
102
{ACAD_XDICTIONARY
360
326
102
}
330
1F
100
AcDbEntity
  8
Main lines
 48
0.75
100
AcDbCircle
 10
233.5302101503365
 20
349.8301586739699
 30
0.0
 40
16.66666
100
AcDbArc
 50
-179.9306665336036
 51
-168.8428197652503
  0
LINE
  5
32B
102
{ACAD_XDICTIONARY
360
329
102
}
330
1F
100
AcDbEntity
  8
Main lines
 48
0.75
100
AcDbLine
 10
218.4066069987938
 20
346.0837244969175
 30
0.0
 11
217.1785493304189
 21
346.6051402265851
 31
0.0
  0
ARC
  5
32E
102
{ACAD_XDICTIONARY
360
32C
102
}
330
1F
100
AcDbEntity
  8
Main lines
 48
0.75
100
AcDbCircle
 10
214.8635638174601
 20
349.8075702051686
 30
0.0
 40
1.999999999999984
100
AcDbArc
 50
0.0693334663952229
 51
71.99999999999946
  0
ARC
  5
331
102
{ACAD_XDICTIONARY
360
32F
102
}
330
1F
100
AcDbEntity
  8
Main lines
 48
0.75
100
AcDbCircle
 10
249.8532255033408
 20
331.7008855816703
 30
0.0
 40
16.66666600000001
100
AcDbArc
 50
148.9322236472184
 51
168.2597414834064
  0
ARC
  5
334
102
{ACAD_XDICTIONARY
360
332
102
}
330
1F
100
AcDbEntity
  8
Main lines
 48
0.75
100
AcDbCircle
 10
233.3447921382106
 20
333.9919952221405
 30
0.0
 40
4.999999999999993
100
AcDbArc
 50
172.098722359019
 51
273.1641532507142
  0
LINE
  5
337
102
{ACAD_XDICTIONARY
360
335
102
}
330
1F
100
AcDbEntity
  8
Main lines
 48
0.75
100
AcDbLine
 10
225.5592383967524
 20
344.2244171384035
 30
0.0
 11
227.5579360773893
 21
342.7722782727951
 31
0.0
  0
ARC
  5
33A
102
{ACAD_XDICTIONARY
360
338
102
}
330
1F
100
AcDbEntity
  8
Main lines
 48
0.75
100
AcDbCircle
 10
210.1387925877003
 20
360.555110070499
 30
0.0
 40
21.66665999999998
100
AcDbArc
 50
-64.09872235901913
 51
-49.12717257960497
  0
ARC
  5
33D
102
{ACAD_XDICTIONARY
360
33B
102
}
330
1F
100
AcDbEntity
  8
Main lines
 48
0.75
100
AcDbCircle
 10
224.9714531444601
 20
343.4154001440285
 30
0.0
 40
0.9999999999999788
100
AcDbArc
 50
53.99999999999985
 51
130.8728274203965
  0
ARC
  5
340
102
{ACAD_XDICTIONARY
360
33E
102
}
330
1F
100
AcDbEntity
  8
Main lines
 48
0.75
100
AcDbCircle
 10
249.8532255033408
 20
331.7008855816703
 30
0.0
 40
21.66666
100
AcDbArc
 50
157.1271725796048
 51
172.0987223590192
  0
LINE
  5
343
102
{ACAD_XDICTIONARY
360
341
102
}
330
1F
100
AcDbEntity
  8
Main lines
 48
0.75
100
AcDbLine
 10
229.5566337588211
 20
341.3201394066092
 30
0.0
 11
227.5579360781842
 21
342.7722782722176
 31
0.0
  0
ARC
  5
346
102
{ACAD_XDICTIONARY
360
344
102
}
330
1F
100
AcDbEntity
  8
Main lines
 48
0.75
100
AcDbCircle
 10
228.9688485065286
 20
340.5111224122344
 30
0.0
 40
0.999999999999996
100
AcDbArc
 50
-22.87282742039948
 51
54.00000000000058
  0
LINE
  5
349
102
{ACAD_XDICTIONARY
360
347
102
}
330
1F
100
AcDbEntity
  8
Main lines
 48
0.75
100
AcDbLine
 10
240.3827362324278
 20
324.7260653776399
 30
0.0
 11
236.9540371625791
 21
329.4452647881159
 31
0.0
  0
ARC
  5
34C
102
{ACAD_XDICTIONARY
360
34A
102
}
330
1F
100
AcDbEntity
  8
Main lines
 48
0.75
100
AcDbCircle
 10
232.4248450413479
 20
350.6332534346235
 30
0.0
 40
21.66666666000001
100
AcDbArc
 50
-86.83584674928635
 51
-77.93392156816337
  0
LINE
  5
34F
102
{ACAD_XDICTIONARY
360
34D
102
}
330
1F
100
AcDbEntity
  8
Main lines
 48
0.75
100
AcDbLine
 10
244.4278212043026
 20
327.6649916391022
 30
0.0
 11
239.7897070644967
 21
334.0488080862127
 31
0.0
  0
ARC
  5
352
102
{ACAD_XDICTIONARY
360
350
102
}
330
1F
100
AcDbEntity
  8
Main lines
 48
0.75
100
AcDbCircle
 10
232.4248450413479
 20
350.6332534346235
 30
0.0
 40
16.66666000000001
100
AcDbArc
 50
-83.15718023474972
 51
-72.0693334663966
  0
LINE
  5
355
102
{ACAD_XDICTIONARY
360
353
102
}
330
1F
100
AcDbEntity
  8
Main lines
 48
0.75
100
AcDbLine
 10
233.5352247944004
 20
335.0921402784707
 30
0.0
 11
234.4106113113999
 21
334.085314352178
 31
0.0
  0
ARC
  5
358
102
{ACAD_XDICTIONARY
360
356
102
}
330
1F
100
AcDbEntity
  8
Main lines
 48
0.75
100
AcDbCircle
 10
238.1716730757468
 20
332.8732375816278
 30
0.0
 40
1.999999999999991
100
AcDbArc
 50
36.00000000000146
 51
107.9306665336045
  0
ARC
  5
35B
102
{ACAD_XDICTIONARY
360
359
102
}
330
1F
100
AcDbEntity
  8
Main lines
 48
0.75
100
AcDbCircle
 10
233.435874910586
 20
341.5918756772131
 30
0.0
 40
2.500000000000014
100
AcDbArc
 50
-31.06777635278153
 51
53.9999999999993
  0
LINE
  5
35E
102
{ACAD_XDICTIONARY
360
35C
102
}
330
1F
100
AcDbEntity
  8
Main lines
 48
0.75
100
AcDbLine
 10
226.0883866371812
 20
350.0203083256118
 30
0.0
 11
230.4968623388517
 21
346.81736324467
 31
0.0
  0
ARC
  5
361
102
{ACAD_XDICTIONARY
360
35F
102
}
330
1F
100
AcDbEntity
  8
Main lines
 48
0.75
100
AcDbCircle
 10
224.61892350645
 20
347.9977658396745
 30
0.0
 40
2.50000000000001
100
AcDbArc
 50
54.00000000000009
 51
139.0677763527819
  0
LINE
  5
364
102
{ACAD_XDICTIONARY
360
362
102
}
330
1F
100
AcDbEntity
  8
Main lines
 48
0.75
100
AcDbLine
 10
234.9053380413172
 20
343.6144181631505
 30
0.0
 11
230.4968623396467
 21
346.8173632440923
 31
0.0
  0
LINE
  5
367
102
{ACAD_XDICTIONARY
360
365
102
}
330
1F
100
AcDbEntity
  8
Main lines
 48
0.75
100
AcDbLine
 10
347.272945205776
 20
361.4542660826979
 30
0.0
 11
367.272945205776
 21
361.4542660826979
 31
0.0
  0
LINE
  5
36A
102
{ACAD_XDICTIONARY
360
368
102
}
330
1F
100
AcDbEntity
  8
Main lines
 48
0.75
100
AcDbLine
 10
377.272945205776
 20
309.8144478412118
 30
0.0
 11
377.2729452057761
 21
259.8144478412118
 31
0.0
  0
LINE
  5
36D
102
{ACAD_XDICTIONARY
360
36B
102
}
330
1F
100
AcDbEntity
  8
Main lines
 48
0.75
100
AcDbLine
 10
337.272945205776
 20
259.8144478412118
 30
0.0
 11
347.272945205776
 21
259.8144478412118
 31
0.0
  0
LINE
  5
370
102
{ACAD_XDICTIONARY
360
36E
102
}
330
1F
100
AcDbEntity
  8
Main lines
 48
0.75
100
AcDbLine
 10
347.272945205776
 20
361.4542660826979
 30
0.0
 11
347.272945205776
 21
356.4542660826979
 31
0.0
  0
LINE
  5
373
102
{ACAD_XDICTIONARY
360
371
102
}
330
1F
100
AcDbEntity
  8
Main lines
 48
0.75
100
AcDbLine
 10
367.272945205776
 20
361.4542660826979
 30
0.0
 11
367.272945205776
 21
356.4542660826979
 31
0.0
  0
LINE
  5
376
102
{ACAD_XDICTIONARY
360
374
102
}
330
1F
100
AcDbEntity
  8
Main lines
 48
0.75
100
AcDbLine
 10
347.272945205776
 20
208.1746295997256
 30
0.0
 11
367.272945205776
 21
208.1746295997256
 31
0.0
  0
LINE
  5
379
102
{ACAD_XDICTIONARY
360
377
102
}
330
1F
100
AcDbEntity
  8
Main lines
 48
0.75
100
AcDbLine
 10
337.272945205776
 20
259.8144478412118
 30
0.0
 11
337.272945205776
 21
309.8144478412118
 31
0.0
  0
LINE
  5
37C
102
{ACAD_XDICTIONARY
360
37A
102
}
330
1F
100
AcDbEntity
  8
Main lines
 48
0.75
100
AcDbLine
 10
354.7729452057761
 20
356.4542660826979
 30
0.0
 11
354.7729452057761
 21
323.0144478412117
 31
0.0
  0
LINE
  5
37F
102
{ACAD_XDICTIONARY
360
37D
102
}
330
1F
100
AcDbEntity
  8
Main lines
 48
0.75
100
AcDbLine
 10
359.772945205776
 20
356.4542660826979
 30
0.0
 11
359.772945205776
 21
323.0144478412117
 31
0.0
  0
LINE
  5
382
102
{ACAD_XDICTIONARY
360
380
102
}
330
1F
100
AcDbEntity
  8
Main lines
 48
0.75
100
AcDbLine
 10
347.272945205776
 20
356.4542660826979
 30
0.0
 11
354.7729452057761
 21
356.4542660826979
 31
0.0
  0
LINE
  5
385
102
{ACAD_XDICTIONARY
360
383
102
}
330
1F
100
AcDbEntity
  8
Main lines
 48
0.75
100
AcDbLine
 10
359.772945205776
 20
356.4542660826979
 30
0.0
 11
367.272945205776
 21
356.4542660826979
 31
0.0
  0
LINE
  5
388
102
{ACAD_XDICTIONARY
360
386
102
}
330
1F
100
AcDbEntity
  8
Main lines
 48
0.75
100
AcDbLine
 10
367.272945205776
 20
259.8144478412118
 30
0.0
 11
367.272945205776
 21
208.1746295997256
 31
0.0
  0
LINE
  5
38B
102
{ACAD_XDICTIONARY
360
389
102
}
330
1F
100
AcDbEntity
  8
Main lines
 48
0.75
100
AcDbLine
 10
347.272945205776
 20
259.8144478412118
 30
0.0
 11
347.272945205776
 21
208.1746295997256
 31
0.0
  0
LINE
  5
38E
102
{ACAD_XDICTIONARY
360
38C
102
}
330
1F
100
AcDbEntity
  8
Main lines
 48
0.75
100
AcDbLine
 10
367.272945205776
 20
259.8144478412118
 30
0.0
 11
367.272945205776
 21
284.8144478412117
 31
0.0
  0
LINE
  5
391
102
{ACAD_XDICTIONARY
360
38F
102
}
330
1F
100
AcDbEntity
  8
Main lines
 48
0.75
100
AcDbLine
 10
347.272945205776
 20
259.8144478412118
 30
0.0
 11
347.272945205776
 21
284.8144478412117
 31
0.0
  0
LINE
  5
394
102
{ACAD_XDICTIONARY
360
392
102
}
330
1F
100
AcDbEntity
  8
Main lines
 48
0.75
100
AcDbLine
 10
367.272945205776
 20
259.8144478412118
 30
0.0
 11
377.272945205776
 21
259.8144478412118
 31
0.0
  0
LINE
  5
397
102
{ACAD_XDICTIONARY
360
395
102
}
330
1F
100
AcDbEntity
  8
Main lines
 48
0.75
100
AcDbLine
 10
358.772945205776
 20
273.7323294127955
 30
0.0
 11
358.772945205776
 21
272.4032508432992
 31
0.0
  0
LINE
  5
39A
102
{ACAD_XDICTIONARY
360
398
102
}
330
1F
100
AcDbEntity
  8
Main lines
 48
0.75
100
AcDbLine
 10
355.7729452057761
 20
273.7323294127955
 30
0.0
 11
355.772945205776
 21
272.4032508432992
 31
0.0
  0
LINE
  5
39D
102
{ACAD_XDICTIONARY
360
39B
102
}
330
1F
100
AcDbEntity
  8
Main lines
 48
0.75
100
AcDbLine
 10
356.522945205776
 20
275.7749417168407
 30
0.0
 11
358.022945205776
 21
275.7749417168407
 31
0.0
  0
LINE
  5
3A0
102
{ACAD_XDICTIONARY
360
39E
102
}
330
1F
100
AcDbEntity
  8
Main lines
 48
0.75
100
AcDbLine
 10
355.7729452057761
 20
270.1447842714529
 30
0.0
 11
358.772945205776
 21
270.1447842714529
 31
0.0
  0
LINE
  5
3A3
102
{ACAD_XDICTIONARY
360
3A1
102
}
330
1F
100
AcDbEntity
  8
Main lines
 48
0.75
100
AcDbLine
 10
347.272945205776
 20
273.7323294127955
 30
0.0
 11
355.7729452057761
 21
273.7323294127956
 31
0.0
  0
LINE
  5
3A6
102
{ACAD_XDICTIONARY
360
3A4
102
}
330
1F
100
AcDbEntity
  8
Main lines
 48
0.75
100
AcDbLine
 10
347.272945205776
 20
272.4032508432992
 30
0.0
 11
355.772945205776
 21
272.4032508432992
 31
0.0
  0
LINE
  5
3A9
102
{ACAD_XDICTIONARY
360
3A7
102
}
330
1F
100
AcDbEntity
  8
Main lines
 48
0.75
100
AcDbLine
 10
347.272945205776
 20
249.4902447419435
 30
0.0
 11
367.272945205776
 21
249.4902447419435
 31
0.0
  0
LINE
  5
3AC
102
{ACAD_XDICTIONARY
360
3AA
102
}
330
1F
100
AcDbEntity
  8
Main lines
 48
0.75
100
AcDbLine
 10
347.272945205776
 20
253.4748256147745
 30
0.0
 11
355.7729452057759
 21
253.4748256147745
 31
0.0
  0
LINE
  5
3AF
102
{ACAD_XDICTIONARY
360
3AD
102
}
330
1F
100
AcDbEntity
  8
Main lines
 48
0.75
100
AcDbLine
 10
347.272945205776
 20
254.2215100391923
 30
0.0
 11
367.272945205776
 21
254.2215100391923
 31
0.0
  0
LINE
  5
3B2
102
{ACAD_XDICTIONARY
360
3B0
102
}
330
1F
100
AcDbEntity
  8
Main lines
 48
0.75
100
AcDbLine
 10
347.272945205776
 20
234.8640165911984
 30
0.0
 11
367.272945205776
 21
234.8640165911984
 31
0.0
  0
LINE
  5
3B5
102
{ACAD_XDICTIONARY
360
3B3
102
}
330
1F
100
AcDbEntity
  8
Main lines
 48
0.75
100
AcDbLine
 10
347.272945205776
 20
234.5367554039527
 30
0.0
 11
355.772945205776
 21
234.5367554039527
 31
0.0
  0
LINE
  5
3B8
102
{ACAD_XDICTIONARY
360
3B6
102
}
330
1F
100
AcDbEntity
  8
Main lines
 48
0.75
100
AcDbLine
 10
347.272945205776
 20
230.8534197540594
 30
0.0
 11
367.272945205776
 21
230.8534197540594
 31
0.0
  0
LINE
  5
3BB
102
{ACAD_XDICTIONARY
360
3B9
102
}
330
1F
100
AcDbEntity
  8
Main lines
 48
0.75
100
AcDbLine
 10
356.522945205776
 20
275.7749417168407
 30
0.0
 11
355.7729452057761
 21
273.7323294127955
 31
0.0
  0
LINE
  5
3BE
102
{ACAD_XDICTIONARY
360
3BC
102
}
330
1F
100
AcDbEntity
  8
Main lines
 48
0.75
100
AcDbLine
 10
358.022945205776
 20
275.7749417168407
 30
0.0
 11
358.772945205776
 21
273.7323294127955
 31
0.0
  0
LINE
  5
3C1
102
{ACAD_XDICTIONARY
360
3BF
102
}
330
1F
100
AcDbEntity
  8
Main lines
 48
0.75
100
AcDbLine
 10
356.522945205776
 20
270.1447842714529
 30
0.0
 11
355.772945205776
 21
272.4032508432992
 31
0.0
  0
LINE
  5
3C4
102
{ACAD_XDICTIONARY
360
3C2
102
}
330
1F
100
AcDbEntity
  8
Main lines
 48
0.75
100
AcDbLine
 10
358.022945205776
 20
270.1447842714529
 30
0.0
 11
358.772945205776
 21
272.4032508432992
 31
0.0
  0
LINE
  5
3C7
102
{ACAD_XDICTIONARY
360
3C5
102
}
330
1F
100
AcDbEntity
  8
Main lines
 48
0.75
100
AcDbLine
 10
358.772945205776
 20
273.7323294127956
 30
0.0
 11
367.272945205776
 21
273.7323294127955
 31
0.0
  0
LINE
  5
3CA
102
{ACAD_XDICTIONARY
360
3C8
102
}
330
1F
100
AcDbEntity
  8
Main lines
 48
0.75
100
AcDbLine
 10
358.772945205776
 20
272.4032508432992
 30
0.0
 11
367.2729452057761
 21
272.4032508432992
 31
0.0
  0
LINE
  5
3CD
102
{ACAD_XDICTIONARY
360
3CB
102
}
330
1F
100
AcDbEntity
  8
Main lines
 48
0.75
100
AcDbLine
 10
347.272945205776
 20
275.7749417168407
 30
0.0
 11
367.272945205776
 21
275.7749417168407
 31
0.0
  0
LINE
  5
3D0
102
{ACAD_XDICTIONARY
360
3CE
102
}
330
1F
100
AcDbEntity
  8
Main lines
 48
0.75
100
AcDbLine
 10
347.272945205776
 20
270.1447842714529
 30
0.0
 11
367.272945205776
 21
270.1447842714529
 31
0.0
  0
LINE
  5
3D3
102
{ACAD_XDICTIONARY
360
3D1
102
}
330
1F
100
AcDbEntity
  8
Main lines
 48
0.75
100
AcDbLine
 10
347.272945205776
 20
267.0864580502533
 30
0.0
 11
367.272945205776
 21
267.0864580502533
 31
0.0
  0
LINE
  5
3D6
102
{ACAD_XDICTIONARY
360
3D4
102
}
330
1F
100
AcDbEntity
  8
Main lines
 48
0.75
100
AcDbLine
 10
355.772945205776
 20
253.4748256147745
 30
0.0
 11
356.522945205776
 21
249.4902447419436
 31
0.0
  0
LINE
  5
3D9
102
{ACAD_XDICTIONARY
360
3D7
102
}
330
1F
100
AcDbEntity
  8
Main lines
 48
0.75
100
AcDbLine
 10
358.772945205776
 20
253.4748256147745
 30
0.0
 11
358.022945205776
 21
249.4902447419436
 31
0.0
  0
LINE
  5
3DC
102
{ACAD_XDICTIONARY
360
3DA
102
}
330
1F
100
AcDbEntity
  8
Main lines
 48
0.75
100
AcDbLine
 10
356.522945205776
 20
270.1447842714529
 30
0.0
 11
356.522945205776
 21
275.7749417168407
 31
0.0
  0
LINE
  5
3DF
102
{ACAD_XDICTIONARY
360
3DD
102
}
330
1F
100
AcDbEntity
  8
Main lines
 48
0.75
100
AcDbLine
 10
358.022945205776
 20
270.1447842714529
 30
0.0
 11
358.022945205776
 21
275.7749417168407
 31
0.0
  0
LINE
  5
3E2
102
{ACAD_XDICTIONARY
360
3E0
102
}
330
1F
100
AcDbEntity
  8
Main lines
 48
0.75
100
AcDbLine
 10
358.022945205776
 20
249.4902447419435
 30
0.0
 11
358.022945205776
 21
254.2215100391923
 31
0.0
  0
LINE
  5
3E5
102
{ACAD_XDICTIONARY
360
3E3
102
}
330
1F
100
AcDbEntity
  8
Main lines
 48
0.75
100
AcDbLine
 10
356.522945205776
 20
249.4902447419435
 30
0.0
 11
356.5229452057759
 21
254.2215100391923
 31
0.0
  0
LINE
  5
3E8
102
{ACAD_XDICTIONARY
360
3E6
102
}
330
1F
100
AcDbEntity
  8
Main lines
 48
0.75
100
AcDbLine
 10
355.772945205776
 20
234.8640165911984
 30
0.0
 11
355.772945205776
 21
234.5367554039527
 31
0.0
  0
LINE
  5
3EB
102
{ACAD_XDICTIONARY
360
3E9
102
}
330
1F
100
AcDbEntity
  8
Main lines
 48
0.75
100
AcDbLine
 10
358.772945205776
 20
234.8640165911984
 30
0.0
 11
358.772945205776
 21
234.5367554039527
 31
0.0
  0
LINE
  5
3EE
102
{ACAD_XDICTIONARY
360
3EC
102
}
330
1F
100
AcDbEntity
  8
Main lines
 48
0.75
100
AcDbLine
 10
358.772945205776
 20
253.4748256147745
 30
0.0
 11
358.772945205776
 21
254.2215100391923
 31
0.0
  0
LINE
  5
3F1
102
{ACAD_XDICTIONARY
360
3EF
102
}
330
1F
100
AcDbEntity
  8
Main lines
 48
0.75
100
AcDbLine
 10
355.772945205776
 20
253.4748256147745
 30
0.0
 11
355.772945205776
 21
254.2215100391923
 31
0.0
  0
LINE
  5
3F4
102
{ACAD_XDICTIONARY
360
3F2
102
}
330
1F
100
AcDbEntity
  8
Main lines
 48
0.75
100
AcDbLine
 10
358.7729452057759
 20
253.4748256147745
 30
0.0
 11
367.272945205776
 21
253.4748256147745
 31
0.0
  0
LINE
  5
3F7
102
{ACAD_XDICTIONARY
360
3F5
102
}
330
1F
100
AcDbEntity
  8
Main lines
 48
0.75
100
AcDbLine
 10
347.272945205776
 20
219.6085873568117
 30
0.0
 11
367.272945205776
 21
219.6085873568117
 31
0.0
  0
LINE
  5
3FA
102
{ACAD_XDICTIONARY
360
3F8
102
}
330
1F
100
AcDbEntity
  8
Main lines
 48
0.75
100
AcDbLine
 10
347.272945205776
 20
218.6191804767205
 30
0.0
 11
367.272945205776
 21
218.6191804767205
 31
0.0
  0
LINE
  5
3FD
102
{ACAD_XDICTIONARY
360
3FB
102
}
330
1F
100
AcDbEntity
  8
Main lines
 48
0.75
100
AcDbLine
 10
347.2729452057761
 20
219.131129842749
 30
0.0
 11
367.272945205776
 21
219.131129842749
 31
0.0
  0
LINE
  5
400
102
{ACAD_XDICTIONARY
360
3FE
102
}
330
1F
100
AcDbEntity
  8
Main lines
 48
0.75
100
AcDbLine
 10
356.5229452057759
 20
230.8534197540594
 30
0.0
 11
355.772945205776
 21
234.5367554039527
 31
0.0
  0
LINE
  5
403
102
{ACAD_XDICTIONARY
360
401
102
}
330
1F
100
AcDbEntity
  8
Main lines
 48
0.75
100
AcDbLine
 10
358.022945205776
 20
230.8534197540594
 30
0.0
 11
358.772945205776
 21
234.5367554039527
 31
0.0
  0
LINE
  5
406
102
{ACAD_XDICTIONARY
360
404
102
}
330
1F
100
AcDbEntity
  8
Main lines
 48
0.75
100
AcDbLine
 10
356.5229452057759
 20
230.8534197540594
 30
0.0
 11
356.5229452057759
 21
234.8640165911985
 31
0.0
  0
LINE
  5
409
102
{ACAD_XDICTIONARY
360
407
102
}
330
1F
100
AcDbEntity
  8
Main lines
 48
0.75
100
AcDbLine
 10
358.022945205776
 20
230.8534197540594
 30
0.0
 11
358.022945205776
 21
234.8640165911985
 31
0.0
  0
LINE
  5
40C
102
{ACAD_XDICTIONARY
360
40A
102
}
330
1F
100
AcDbEntity
  8
Main lines
 48
0.75
100
AcDbLine
 10
358.772945205776
 20
234.5367554039527
 30
0.0
 11
367.272945205776
 21
234.5367554039527
 31
0.0
  0
LINE
  5
40F
102
{ACAD_XDICTIONARY
360
40D
102
}
330
1F
100
AcDbEntity
  8
Main lines
 48
0.75
100
AcDbLine
 10
347.272945205776
 20
212.9445236675437
 30
0.0
 11
367.272945205776
 21
212.9445236675437
 31
0.0
  0
LINE
  5
412
102
{ACAD_XDICTIONARY
360
410
102
}
330
1F
100
AcDbEntity
  8
Main lines
 48
0.75
100
AcDbLine
 10
347.272945205776
 20
228.0370200052103
 30
0.0
 11
367.272945205776
 21
228.0370200052104
 31
0.0
  0
LINE
  5
415
102
{ACAD_XDICTIONARY
360
413
102
}
330
1F
100
AcDbEntity
  8
Main lines
 48
0.75
100
AcDbLine
 10
356.5229452057759
 20
218.6191804767205
 30
0.0
 11
356.4357717494624
 21
219.131129842749
 31
0.0
  0
LINE
  5
418
102
{ACAD_XDICTIONARY
360
416
102
}
330
1F
100
AcDbEntity
  8
Main lines
 48
0.75
100
AcDbLine
 10
358.022945205776
 20
218.6191804767205
 30
0.0
 11
358.1101186620894
 21
219.131129842749
 31
0.0
  0
ARC
  5
41B
102
{ACAD_XDICTIONARY
360
419
102
}
330
1F
100
AcDbEntity
  8
Main lines
 48
0.75
100
AcDbCircle
 10
185.449107438528
 20
284.8144478412117
 30
0.0
 40
73.0987403071083
100
AcDbArc
 50
79.1052054924206
 51
83.57638315900073
  0
ARC
  5
41E
102
{ACAD_XDICTIONARY
360
41C
102
}
330
1F
100
AcDbEntity
  8
Main lines
 48
0.75
100
AcDbCircle
 10
185.449107438528
 20
284.8144478412117
 30
0.0
 40
73.0987403071083
100
AcDbArc
 50
96.42361684099929
 51
100.8947945075794
  0
ARC
  5
421
102
{ACAD_XDICTIONARY
360
41F
102
}
330
1F
100
AcDbEntity
  8
Main lines
 48
0.75
100
AcDbCircle
 10
185.449107438528
 20
284.8144478412117
 30
0.0
 40
73.0987403071083
100
AcDbArc
 50
132.4236168409992
 51
136.8947945075793
  0
ARC
  5
424
102
{ACAD_XDICTIONARY
360
422
102
}
330
1F
100
AcDbEntity
  8
Main lines
 48
0.75
100
AcDbCircle
 10
185.449107438528
 20
284.8144478412117
 30
0.0
 40
73.09874030710833
100
AcDbArc
 50
115.1052054924206
 51
119.5763831590007
  0
ARC
  5
427
102
{ACAD_XDICTIONARY
360
425
102
}
330
1F
100
AcDbEntity
  8
Main lines
 48
0.75
100
AcDbCircle
 10
185.449107438528
 20
284.8144478412119
 30
0.0
 40
73.0987403071083
100
AcDbArc
 50
168.4236168409993
 51
172.8947945075793
  0
ARC
  5
42A
102
{ACAD_XDICTIONARY
360
428
102
}
330
1F
100
AcDbEntity
  8
Main lines
 48
0.75
100
AcDbCircle
 10
185.449107438528
 20
284.8144478412119
 30
0.0
 40
73.0987403071083
100
AcDbArc
 50
151.1052054924207
 51
155.5763831590008
  0
ARC
  5
42D
102
{ACAD_XDICTIONARY
360
42B
102
}
330
1F
100
AcDbEntity
  8
Main lines
 48
0.75
100
AcDbCircle
 10
185.449107438528
 20
284.8144478412117
 30
0.0
 40
73.09874030710832
100
AcDbArc
 50
-155.5763831590007
 51
-151.1052054924207
  0
ARC
  5
430
102
{ACAD_XDICTIONARY
360
42E
102
}
330
1F
100
AcDbEntity
  8
Main lines
 48
0.75
100
AcDbCircle
 10
185.449107438528
 20
284.8144478412117
 30
0.0
 40
73.09874030710832
100
AcDbArc
 50
-172.8947945075794
 51
-168.4236168409992
  0
ARC
  5
433
102
{ACAD_XDICTIONARY
360
431
102
}
330
1F
100
AcDbEntity
  8
Main lines
 48
0.75
100
AcDbCircle
 10
185.449107438528
 20
284.8144478412117
 30
0.0
 40
73.0987403071083
100
AcDbArc
 50
-119.5763831590007
 51
-115.1052054924206
  0
ARC
  5
436
102
{ACAD_XDICTIONARY
360
434
102
}
330
1F
100
AcDbEntity
  8
Main lines
 48
0.75
100
AcDbCircle
 10
185.449107438528
 20
284.8144478412117
 30
0.0
 40
73.0987403071083
100
AcDbArc
 50
-136.8947945075794
 51
-132.4236168409993
  0
ARC
  5
439
102
{ACAD_XDICTIONARY
360
437
102
}
330
1F
100
AcDbEntity
  8
Main lines
 48
0.75
100
AcDbCircle
 10
185.449107438528
 20
284.8144478412117
 30
0.0
 40
73.09874030710832
100
AcDbArc
 50
-83.57638315900073
 51
-79.10520549242065
  0
ARC
  5
43C
102
{ACAD_XDICTIONARY
360
43A
102
}
330
1F
100
AcDbEntity
  8
Main lines
 48
0.75
100
AcDbCircle
 10
185.449107438528
 20
284.8144478412117
 30
0.0
 40
73.09874030710824
100
AcDbArc
 50
-100.8947945075794
 51
-96.42361684099929
  0
ARC
  5
43F
102
{ACAD_XDICTIONARY
360
43D
102
}
330
1F
100
AcDbEntity
  8
Main lines
 48
0.75
100
AcDbCircle
 10
185.449107438528
 20
284.8144478412117
 30
0.0
 40
73.0987403071083
100
AcDbArc
 50
-47.57638315900073
 51
-43.10520549242064
  0
ARC
  5
442
102
{ACAD_XDICTIONARY
360
440
102
}
330
1F
100
AcDbEntity
  8
Main lines
 48
0.75
100
AcDbCircle
 10
185.449107438528
 20
284.8144478412117
 30
0.0
 40
73.09874030710832
100
AcDbArc
 50
-64.89479450757942
 51
-60.42361684099923
  0
ARC
  5
445
102
{ACAD_XDICTIONARY
360
443
102
}
330
1F
100
AcDbEntity
  8
Main lines
 48
0.75
100
AcDbCircle
 10
185.449107438528
 20
284.8144478412117
 30
0.0
 40
73.09874030710832
100
AcDbArc
 50
-11.57638315900074
 51
-7.105205492420639
  0
ARC
  5
448
102
{ACAD_XDICTIONARY
360
446
102
}
330
1F
100
AcDbEntity
  8
Main lines
 48
0.75
100
AcDbCircle
 10
185.449107438528
 20
284.8144478412117
 30
0.0
 40
73.09874030710833
100
AcDbArc
 50
-28.89479450757941
 51
-24.4236168409993
  0
ARC
  5
44B
102
{ACAD_XDICTIONARY
360
449
102
}
330
1F
100
AcDbEntity
  8
Main lines
 48
0.75
100
AcDbCircle
 10
185.449107438528
 20
284.8144478412118
 30
0.0
 40
73.0987403071083
100
AcDbArc
 50
24.42361684099925
 51
28.89479450757938
  0
ARC
  5
44E
102
{ACAD_XDICTIONARY
360
44C
102
}
330
1F
100
AcDbEntity
  8
Main lines
 48
0.75
100
AcDbCircle
 10
185.449107438528
 20
284.8144478412118
 30
0.0
 40
73.0987403071083
100
AcDbArc
 50
7.105205492420589
 51
11.57638315900069
  0
ARC
  5
451
102
{ACAD_XDICTIONARY
360
44F
102
}
330
1F
100
AcDbEntity
  8
Main lines
 48
0.75
100
AcDbCircle
 10
185.449107438528
 20
284.8144478412117
 30
0.0
 40
73.0987403071083
100
AcDbArc
 50
60.42361684099927
 51
64.89479450757936
  0
ARC
  5
454
102
{ACAD_XDICTIONARY
360
452
102
}
330
1F
100
AcDbEntity
  8
Main lines
 48
0.75
100
AcDbCircle
 10
185.449107438528
 20
284.8144478412117
 30
0.0
 40
73.09874030710833
100
AcDbArc
 50
43.10520549242059
 51
47.57638315900074
  0
LINE
  5
457
102
{ACAD_XDICTIONARY
360
455
102
}
330
1F
100
AcDbEntity
  8
Main lines
100
AcDbLine
 10
216.1491074385279
 20
269.8144478412117
 30
0.0
 11
216.1491074385279
 21
299.8144478412118
 31
0.0
  0
LINE
  5
45A
102
{ACAD_XDICTIONARY
360
458
102
}
330
1F
100
AcDbEntity
  8
Main lines
100
AcDbLine
 10
215.6491074385279
 20
255.1144478412117
 30
0.0
 11
215.6491074385279
 21
269.3144478412117
 31
0.0
  0
LINE
  5
45D
102
{ACAD_XDICTIONARY
360
45B
102
}
330
1F
100
AcDbEntity
  8
Main lines
100
AcDbLine
 10
216.1491074385279
 20
299.8144478412117
 30
0.0
 11
215.6491074385279
 21
300.3144478412117
 31
0.0
  0
LINE
  5
460
102
{ACAD_XDICTIONARY
360
45E
102
}
330
1F
100
AcDbEntity
  8
Main lines
100
AcDbLine
 10
216.1491074385279
 20
269.8144478412117
 30
0.0
 11
215.6491074385279
 21
269.3144478412117
 31
0.0
  0
LINE
  5
463
102
{ACAD_XDICTIONARY
360
461
102
}
330
1F
100
AcDbEntity
  8
Main lines
100
AcDbLine
 10
215.6491074385279
 20
300.3144478412117
 30
0.0
 11
215.6491074385279
 21
314.5144478412117
 31
0.0
  0
LINE
  5
466
102
{ACAD_XDICTIONARY
360
464
102
}
330
1F
100
AcDbEntity
  8
Main lines
100
AcDbLine
 10
155.249107438528
 20
300.3144478412117
 30
0.0
 11
155.249107438528
 21
314.5144478412117
 31
0.0
  0
LINE
  5
469
102
{ACAD_XDICTIONARY
360
467
102
}
330
1F
100
AcDbEntity
  8
Main lines
100
AcDbLine
 10
154.749107438528
 20
269.8144478412117
 30
0.0
 11
155.249107438528
 21
269.3144478412117
 31
0.0
  0
LINE
  5
46C
102
{ACAD_XDICTIONARY
360
46A
102
}
330
1F
100
AcDbEntity
  8
Main lines
100
AcDbLine
 10
154.749107438528
 20
299.8144478412117
 30
0.0
 11
155.249107438528
 21
300.3144478412117
 31
0.0
  0
LINE
  5
46F
102
{ACAD_XDICTIONARY
360
46D
102
}
330
1F
100
AcDbEntity
  8
Main lines
100
AcDbLine
 10
155.249107438528
 20
255.1144478412117
 30
0.0
 11
155.249107438528
 21
269.3144478412117
 31
0.0
  0
LINE
  5
472
102
{ACAD_XDICTIONARY
360
470
102
}
330
1F
100
AcDbEntity
  8
Main lines
100
AcDbLine
 10
154.749107438528
 20
269.8144478412117
 30
0.0
 11
154.749107438528
 21
299.8144478412118
 31
0.0
  0
LINE
  5
475
102
{ACAD_XDICTIONARY
360
473
102
}
330
1F
100
AcDbEntity
  8
Main lines
100
AcDbLine
 10
170.4491074385281
 20
254.1144478412117
 30
0.0
 11
200.4491074385281
 21
254.1144478412118
 31
0.0
  0
LINE
  5
478
102
{ACAD_XDICTIONARY
360
476
102
}
330
1F
100
AcDbEntity
  8
Main lines
100
AcDbLine
 10
155.749107438528
 20
254.6144478412117
 30
0.0
 11
169.949107438528
 21
254.6144478412117
 31
0.0
  0
LINE
  5
47B
102
{ACAD_XDICTIONARY
360
479
102
}
330
1F
100
AcDbEntity
  8
Main lines
100
AcDbLine
 10
200.449107438528
 20
254.1144478412117
 30
0.0
 11
200.949107438528
 21
254.6144478412117
 31
0.0
  0
LINE
  5
47E
102
{ACAD_XDICTIONARY
360
47C
102
}
330
1F
100
AcDbEntity
  8
Main lines
100
AcDbLine
 10
170.449107438528
 20
254.1144478412117
 30
0.0
 11
169.949107438528
 21
254.6144478412117
 31
0.0
  0
LINE
  5
481
102
{ACAD_XDICTIONARY
360
47F
102
}
330
1F
100
AcDbEntity
  8
Main lines
100
AcDbLine
 10
200.949107438528
 20
254.6144478412117
 30
0.0
 11
215.1491074385279
 21
254.6144478412117
 31
0.0
  0
LINE
  5
484
102
{ACAD_XDICTIONARY
360
482
102
}
330
1F
100
AcDbEntity
  8
Main lines
100
AcDbLine
 10
200.949107438528
 20
315.0144478412117
 30
0.0
 11
215.1491074385279
 21
315.0144478412117
 31
0.0
  0
LINE
  5
487
102
{ACAD_XDICTIONARY
360
485
102
}
330
1F
100
AcDbEntity
  8
Main lines
100
AcDbLine
 10
170.449107438528
 20
315.5144478412117
 30
0.0
 11
169.949107438528
 21
315.0144478412117
 31
0.0
  0
LINE
  5
48A
102
{ACAD_XDICTIONARY
360
488
102
}
330
1F
100
AcDbEntity
  8
Main lines
100
AcDbLine
 10
200.449107438528
 20
315.5144478412117
 30
0.0
 11
200.949107438528
 21
315.0144478412117
 31
0.0
  0
LINE
  5
48D
102
{ACAD_XDICTIONARY
360
48B
102
}
330
1F
100
AcDbEntity
  8
Main lines
100
AcDbLine
 10
155.749107438528
 20
315.0144478412117
 30
0.0
 11
169.9491074385278
 21
315.0144478412117
 31
0.0
  0
LINE
  5
490
102
{ACAD_XDICTIONARY
360
48E
102
}
330
1F
100
AcDbEntity
  8
Main lines
100
AcDbLine
 10
170.449107438528
 20
315.5144478412117
 30
0.0
 11
200.4491074385281
 21
315.5144478412116
 31
0.0
  0
LINE
  5
493
102
{ACAD_XDICTIONARY
360
491
102
}
330
1F
100
AcDbEntity
  8
Main lines
100
AcDbLine
 10
218.649107438528
 20
323.0144478412117
 30
0.0
 11
152.249107438528
 21
323.0144478412117
 31
0.0
  0
LINE
  5
496
102
{ACAD_XDICTIONARY
360
494
102
}
330
1F
100
AcDbEntity
  8
Main lines
100
AcDbLine
 10
223.649107438528
 20
318.0144478412117
 30
0.0
 11
223.6491074385279
 21
251.6144478412116
 31
0.0
  0
LINE
  5
499
102
{ACAD_XDICTIONARY
360
497
102
}
330
1F
100
AcDbEntity
  8
Main lines
100
AcDbLine
 10
147.2491074385279
 20
251.6144478412116
 30
0.0
 11
147.249107438528
 21
318.0144478412117
 31
0.0
  0
LINE
  5
49C
102
{ACAD_XDICTIONARY
360
49A
102
}
330
1F
100
AcDbEntity
  8
Main lines
100
AcDbLine
 10
152.2491074385279
 20
246.6144478412116
 30
0.0
 11
218.6491074385279
 21
246.6144478412116
 31
0.0
  0
ARC
  5
49F
102
{ACAD_XDICTIONARY
360
49D
102
}
330
1F
100
AcDbEntity
  8
Main lines
100
AcDbCircle
 10
152.249107438528
 20
318.0144478412117
 30
0.0
 40
5.0
100
AcDbArc
 50
90.0
 51
180.0
  0
ARC
  5
4A2
102
{ACAD_XDICTIONARY
360
4A0
102
}
330
1F
100
AcDbEntity
  8
Main lines
100
AcDbCircle
 10
218.649107438528
 20
318.0144478412117
 30
0.0
 40
5.0
100
AcDbArc
 50
0.0
 51
90.0
  0
ARC
  5
4A5
102
{ACAD_XDICTIONARY
360
4A3
102
}
330
1F
100
AcDbEntity
  8
Main lines
100
AcDbCircle
 10
218.6491074385279
 20
251.6144478412116
 30
0.0
 40
5.0
100
AcDbArc
 50
-90.0
 51
0.0
  0
ARC
  5
4A8
102
{ACAD_XDICTIONARY
360
4A6
102
}
330
1F
100
AcDbEntity
  8
Main lines
100
AcDbCircle
 10
152.2491074385279
 20
251.6144478412116
 30
0.0
 40
5.0
100
AcDbArc
 50
180.0
 51
270.0
  0
ARC
  5
4AB
102
{ACAD_XDICTIONARY
360
4A9
102
}
330
1F
100
AcDbEntity
  8
Main lines
100
AcDbCircle
 10
155.749107438528
 20
314.5144478412117
 30
0.0
 40
0.5
100
AcDbArc
 50
90.0
 51
180.0
  0
ARC
  5
4AE
102
{ACAD_XDICTIONARY
360
4AC
102
}
330
1F
100
AcDbEntity
  8
Main lines
100
AcDbCircle
 10
215.1491074385279
 20
314.5144478412117
 30
0.0
 40
0.5
100
AcDbArc
 50
0.0
 51
90.0
  0
ARC
  5
4B1
102
{ACAD_XDICTIONARY
360
4AF
102
}
330
1F
100
AcDbEntity
  8
Main lines
100
AcDbCircle
 10
215.1491074385279
 20
255.1144478412117
 30
0.0
 40
0.5
100
AcDbArc
 50
-90.0
 51
0.0
  0
ARC
  5
4B4
102
{ACAD_XDICTIONARY
360
4B2
102
}
330
1F
100
AcDbEntity
  8
Main lines
100
AcDbCircle
 10
155.749107438528
 20
255.1144478412117
 30
0.0
 40
0.5
100
AcDbArc
 50
180.0
 51
270.0
  0
LINE
  5
4B7
102
{ACAD_XDICTIONARY
360
4B5
102
}
330
1F
100
AcDbEntity
  8
Main lines
 48
0.75
100
AcDbLine
 10
337.2729452057761
 20
323.0144478412117
 30
0.0
 11
354.7729452057761
 21
323.0144478412117
 31
0.0
  0
LINE
  5
4BA
102
{ACAD_XDICTIONARY
360
4B8
102
}
330
1F
100
AcDbEntity
  8
Main lines
 48
0.75
100
AcDbLine
 10
337.272945205776
 20
315.5144478412117
 30
0.0
 11
377.272945205776
 21
315.5144478412117
 31
0.0
  0
LINE
  5
4BD
102
{ACAD_XDICTIONARY
360
4BB
102
}
330
1F
100
AcDbEntity
  8
Main lines
 48
0.75
100
AcDbLine
 10
337.2729452057761
 20
315.0144478412117
 30
0.0
 11
377.272945205776
 21
315.0144478412117
 31
0.0
  0
LINE
  5
4C0
102
{ACAD_XDICTIONARY
360
4BE
102
}
330
1F
100
AcDbEntity
  8
Main lines
 48
0.75
100
AcDbLine
 10
337.272945205776
 20
300.3144478412117
 30
0.0
 11
377.272945205776
 21
300.3144478412117
 31
0.0
  0
LINE
  5
4C3
102
{ACAD_XDICTIONARY
360
4C1
102
}
330
1F
100
AcDbEntity
  8
Main lines
 48
0.75
100
AcDbLine
 10
337.272945205776
 20
299.8144478412117
 30
0.0
 11
377.2729452057761
 21
299.8144478412117
 31
0.0
  0
LINE
  5
4C6
102
{ACAD_XDICTIONARY
360
4C4
102
}
330
1F
100
AcDbEntity
  8
Main lines
 48
0.75
100
AcDbLine
 10
377.272945205776
 20
309.8144478412118
 30
0.0
 11
377.272945205776
 21
323.0144478412117
 31
0.0
  0
LINE
  5
4C9
102
{ACAD_XDICTIONARY
360
4C7
102
}
330
1F
100
AcDbEntity
  8
Main lines
 48
0.75
100
AcDbLine
 10
337.272945205776
 20
309.8144478412118
 30
0.0
 11
337.272945205776
 21
323.0144478412117
 31
0.0
  0
LINE
  5
4CC
102
{ACAD_XDICTIONARY
360
4CA
102
}
330
1F
100
AcDbEntity
  8
Main lines
 48
0.75
100
AcDbLine
 10
367.2729452057761
 20
323.0144478412117
 30
0.0
 11
367.272945205776
 21
356.4542660826979
 31
0.0
  0
LINE
  5
4CF
102
{ACAD_XDICTIONARY
360
4CD
102
}
330
1F
100
AcDbEntity
  8
Main lines
 48
0.75
100
AcDbLine
 10
347.2729452057759
 20
323.0144478412117
 30
0.0
 11
347.272945205776
 21
356.4542660826979
 31
0.0
  0
LINE
  5
4D2
102
{ACAD_XDICTIONARY
360
4D0
102
}
330
1F
100
AcDbEntity
  8
Main lines
 48
0.75
100
AcDbLine
 10
359.772945205776
 20
323.0144478412117
 30
0.0
 11
377.272945205776
 21
323.0144478412117
 31
0.0
  0
HATCH
  5
4D3
330
1F
100
AcDbEntity
  8
Main lines
  6
Durchgehend
 48
0.75
100
AcDbHatch
 10
0.0
 20
0.0
 30
0.0
210
0.0
220
0.0
230
1.0
  2
ANSI31
 70
     0
 71
     0
 91
        1
 92
        3
 72
     0
 73
     1
 93
       12
 10
377.272945205776
 20
323.0144478412117
 10
359.772945205776
 20
323.0144478412117
 10
359.772945205776
 20
356.4542660826979
 10
367.272945205776
 20
356.4542660826979
 10
367.272945205776
 20
361.4542660826979
 10
347.272945205776
 20
361.4542660826979
 10
347.272945205776
 20
356.4542660826979
 10
354.7729452057761
 20
356.4542660826979
 10
354.772945205776
 20
323.0144478412117
 10
337.2729452057761
 20
323.0144478412117
 10
337.272945205776
 20
315.5144478412117
 10
377.2729452057759
 20
315.5144478412117
 97
        0
 75
     0
 76
     1
 52
0.0
 41
30.0
 77
     0
 78
     1
 53
45.0
 43
0.0
 44
0.0
 45
-2.651650429449552
 46
2.651650429449552
 79
     1
 49
30.0
 98
        0
  0
VIEWPORT
  5
4D4
330
1B
100
AcDbEntity
 67
     1
  8
0
100
AcDbViewport
 10
140.0218848823794
 20
101.9028953504165
 30
0.0
 40
280.2283957583874
 41
201.3931063490108
 68
     1
 69
     1
 12
140.0218848823794
 22
101.9028953504165
 13
0.0
 23
0.0
 14
10.0
 24
10.0
 15
10.0
 25
10.0
 16
0.0
 26
0.0
 36
1.0
 17
0.0
 27
0.0
 37
0.0
 42
50.0
 43
0.0
 44
0.0
 45
201.3931063490108
 50
0.0
 51
0.0
 72
  1000
 90
    32800
  1

281
     0
 71
     1
 74
     0
110
0.0
120
0.0
130
0.0
111
1.0
121
0.0
131
0.0
112
0.0
122
1.0
132
0.0
 79
     0
146
0.0
170
     0
  0
VIEWPORT
  5
4D5
330
1B
100
AcDbEntity
 67
     1
  8
0
  6
Durchgehend
100
AcDbViewport
 10
140.0218848823794
 20
101.9028953504165
 30
0.0
 40
280.2283957583874
 41
201.3931063490108
 68
     2
 69
     2
 12
717.1860259187298
 22
392.4295065236427
 13
0.0
 23
0.0
 14
0.5
 24
0.5
 15
0.0
 25
0.0
 16
0.0
 26
0.0
 36
1.0
 17
0.0
 27
0.0
 37
0.0
 42
50.0
 43
0.0
 44
0.0
 45
201.393107068014
 50
0.0
 51
0.0
 72
   100
 90
   557152
  1

281
     0
 71
     1
 74
     0
110
0.0
120
0.0
130
0.0
111
1.0
121
0.0
131
0.0
112
0.0
122
1.0
132
0.0
 79
     0
146
0.0
170
     0
  0
ENDSEC
  0
SECTION
  2
OBJECTS
  0
DICTIONARY
  5
C
330
0
100
AcDbDictionary
281
     1
  3
ACAD_GROUP
350
D
  3
ACAD_LAYOUT
350
1A
  3
ACAD_MLINESTYLE
350
17
  3
ACAD_PLOTSETTINGS
350
19
  3
ACAD_PLOTSTYLENAME
350
E
  3
ACAD_TABLESTYLE
350
4D7
  3
ACAD_VISUALSTYLE
350
2A
  0
DICTIONARY
  5
59
330
5B
100
AcDbDictionary
280
     1
281
     1
  3
TC_OPTIONAL_DATA
360
5A
  0
DICTIONARY
  5
5C
330
5E
100
AcDbDictionary
280
     1
281
     1
  3
TC_OPTIONAL_DATA
360
5D
  0
DICTIONARY
  5
5F
330
61
100
AcDbDictionary
280
     1
281
     1
  3
TC_OPTIONAL_DATA
360
60
  0
DICTIONARY
  5
62
330
64
100
AcDbDictionary
280
     1
281
     1
  3
TC_OPTIONAL_DATA
360
63
  0
DICTIONARY
  5
65
330
67
100
AcDbDictionary
280
     1
281
     1
  3
TC_OPTIONAL_DATA
360
66
  0
DICTIONARY
  5
68
330
6A
100
AcDbDictionary
280
     1
281
     1
  3
TC_OPTIONAL_DATA
360
69
  0
DICTIONARY
  5
6B
330
6D
100
AcDbDictionary
280
     1
281
     1
  3
TC_OPTIONAL_DATA
360
6C
  0
DICTIONARY
  5
6E
330
70
100
AcDbDictionary
280
     1
281
     1
  3
TC_OPTIONAL_DATA
360
6F
  0
DICTIONARY
  5
71
330
73
100
AcDbDictionary
280
     1
281
     1
  3
TC_OPTIONAL_DATA
360
72
  0
DICTIONARY
  5
74
330
76
100
AcDbDictionary
280
     1
281
     1
  3
TC_OPTIONAL_DATA
360
75
  0
DICTIONARY
  5
77
330
79
100
AcDbDictionary
280
     1
281
     1
  3
TC_OPTIONAL_DATA
360
78
  0
DICTIONARY
  5
7A
330
7C
100
AcDbDictionary
280
     1
281
     1
  3
TC_OPTIONAL_DATA
360
7B
  0
DICTIONARY
  5
7D
330
7F
100
AcDbDictionary
280
     1
281
     1
  3
TC_OPTIONAL_DATA
360
7E
  0
DICTIONARY
  5
80
330
82
100
AcDbDictionary
280
     1
281
     1
  3
TC_OPTIONAL_DATA
360
81
  0
DICTIONARY
  5
83
330
85
100
AcDbDictionary
280
     1
281
     1
  3
TC_OPTIONAL_DATA
360
84
  0
DICTIONARY
  5
86
330
88
100
AcDbDictionary
280
     1
281
     1
  3
TC_OPTIONAL_DATA
360
87
  0
DICTIONARY
  5
89
330
8B
100
AcDbDictionary
280
     1
281
     1
  3
TC_OPTIONAL_DATA
360
8A
  0
DICTIONARY
  5
8C
330
8E
100
AcDbDictionary
280
     1
281
     1
  3
TC_OPTIONAL_DATA
360
8D
  0
DICTIONARY
  5
8F
330
91
100
AcDbDictionary
280
     1
281
     1
  3
TC_OPTIONAL_DATA
360
90
  0
DICTIONARY
  5
92
330
94
100
AcDbDictionary
280
     1
281
     1
  3
TC_OPTIONAL_DATA
360
93
  0
DICTIONARY
  5
95
330
97
100
AcDbDictionary
280
     1
281
     1
  3
TC_OPTIONAL_DATA
360
96
  0
DICTIONARY
  5
98
330
9A
100
AcDbDictionary
280
     1
281
     1
  3
TC_OPTIONAL_DATA
360
99
  0
DICTIONARY
  5
9B
330
9D
100
AcDbDictionary
280
     1
281
     1
  3
TC_OPTIONAL_DATA
360
9C
  0
DICTIONARY
  5
9E
330
A0
100
AcDbDictionary
280
     1
281
     1
  3
TC_OPTIONAL_DATA
360
9F
  0
DICTIONARY
  5
A1
330
A3
100
AcDbDictionary
280
     1
281
     1
  3
TC_OPTIONAL_DATA
360
A2
  0
DICTIONARY
  5
A4
330
A6
100
AcDbDictionary
280
     1
281
     1
  3
TC_OPTIONAL_DATA
360
A5
  0
DICTIONARY
  5
A7
330
A9
100
AcDbDictionary
280
     1
281
     1
  3
TC_OPTIONAL_DATA
360
A8
  0
DICTIONARY
  5
AA
330
AC
100
AcDbDictionary
280
     1
281
     1
  3
TC_OPTIONAL_DATA
360
AB
  0
DICTIONARY
  5
AD
330
AF
100
AcDbDictionary
280
     1
281
     1
  3
TC_OPTIONAL_DATA
360
AE
  0
DICTIONARY
  5
B0
330
B2
100
AcDbDictionary
280
     1
281
     1
  3
TC_OPTIONAL_DATA
360
B1
  0
DICTIONARY
  5
B3
330
B5
100
AcDbDictionary
280
     1
281
     1
  3
TC_OPTIONAL_DATA
360
B4
  0
DICTIONARY
  5
B6
330
B8
100
AcDbDictionary
280
     1
281
     1
  3
TC_OPTIONAL_DATA
360
B7
  0
DICTIONARY
  5
B9
330
BB
100
AcDbDictionary
280
     1
281
     1
  3
TC_OPTIONAL_DATA
360
BA
  0
DICTIONARY
  5
BC
330
BE
100
AcDbDictionary
280
     1
281
     1
  3
TC_OPTIONAL_DATA
360
BD
  0
DICTIONARY
  5
BF
330
C1
100
AcDbDictionary
280
     1
281
     1
  3
TC_OPTIONAL_DATA
360
C0
  0
DICTIONARY
  5
C2
330
C4
100
AcDbDictionary
280
     1
281
     1
  3
TC_OPTIONAL_DATA
360
C3
  0
DICTIONARY
  5
C5
330
C7
100
AcDbDictionary
280
     1
281
     1
  3
TC_OPTIONAL_DATA
360
C6
  0
DICTIONARY
  5
C8
330
CA
100
AcDbDictionary
280
     1
281
     1
  3
TC_OPTIONAL_DATA
360
C9
  0
DICTIONARY
  5
CB
330
CD
100
AcDbDictionary
280
     1
281
     1
  3
TC_OPTIONAL_DATA
360
CC
  0
DICTIONARY
  5
CE
330
D0
100
AcDbDictionary
280
     1
281
     1
  3
TC_OPTIONAL_DATA
360
CF
  0
DICTIONARY
  5
D1
330
D3
100
AcDbDictionary
280
     1
281
     1
  3
TC_OPTIONAL_DATA
360
D2
  0
DICTIONARY
  5
D4
330
D6
100
AcDbDictionary
280
     1
281
     1
  3
TC_OPTIONAL_DATA
360
D5
  0
DICTIONARY
  5
D7
330
D9
100
AcDbDictionary
280
     1
281
     1
  3
TC_OPTIONAL_DATA
360
D8
  0
DICTIONARY
  5
DA
330
DC
100
AcDbDictionary
280
     1
281
     1
  3
TC_OPTIONAL_DATA
360
DB
  0
DICTIONARY
  5
DD
330
DF
100
AcDbDictionary
280
     1
281
     1
  3
TC_OPTIONAL_DATA
360
DE
  0
DICTIONARY
  5
E0
330
E2
100
AcDbDictionary
280
     1
281
     1
  3
TC_OPTIONAL_DATA
360
E1
  0
DICTIONARY
  5
E3
330
E5
100
AcDbDictionary
280
     1
281
     1
  3
TC_OPTIONAL_DATA
360
E4
  0
DICTIONARY
  5
E6
330
E8
100
AcDbDictionary
280
     1
281
     1
  3
TC_OPTIONAL_DATA
360
E7
  0
DICTIONARY
  5
E9
330
EB
100
AcDbDictionary
280
     1
281
     1
  3
TC_OPTIONAL_DATA
360
EA
  0
DICTIONARY
  5
EC
330
EE
100
AcDbDictionary
280
     1
281
     1
  3
TC_OPTIONAL_DATA
360
ED
  0
DICTIONARY
  5
EF
330
F1
100
AcDbDictionary
280
     1
281
     1
  3
TC_OPTIONAL_DATA
360
F0
  0
DICTIONARY
  5
F2
330
F4
100
AcDbDictionary
280
     1
281
     1
  3
TC_OPTIONAL_DATA
360
F3
  0
DICTIONARY
  5
F5
330
F7
100
AcDbDictionary
280
     1
281
     1
  3
TC_OPTIONAL_DATA
360
F6
  0
DICTIONARY
  5
F8
330
FA
100
AcDbDictionary
280
     1
281
     1
  3
TC_OPTIONAL_DATA
360
F9
  0
DICTIONARY
  5
FB
330
FD
100
AcDbDictionary
280
     1
281
     1
  3
TC_OPTIONAL_DATA
360
FC
  0
DICTIONARY
  5
FE
330
100
100
AcDbDictionary
280
     1
281
     1
  3
TC_OPTIONAL_DATA
360
FF
  0
DICTIONARY
  5
101
330
103
100
AcDbDictionary
280
     1
281
     1
  3
TC_OPTIONAL_DATA
360
102
  0
DICTIONARY
  5
104
330
106
100
AcDbDictionary
280
     1
281
     1
  3
TC_OPTIONAL_DATA
360
105
  0
DICTIONARY
  5
107
330
109
100
AcDbDictionary
280
     1
281
     1
  3
TC_OPTIONAL_DATA
360
108
  0
DICTIONARY
  5
10A
330
10C
100
AcDbDictionary
280
     1
281
     1
  3
TC_OPTIONAL_DATA
360
10B
  0
DICTIONARY
  5
10D
330
10F
100
AcDbDictionary
280
     1
281
     1
  3
TC_OPTIONAL_DATA
360
10E
  0
DICTIONARY
  5
110
330
112
100
AcDbDictionary
280
     1
281
     1
  3
TC_OPTIONAL_DATA
360
111
  0
DICTIONARY
  5
113
330
115
100
AcDbDictionary
280
     1
281
     1
  3
TC_OPTIONAL_DATA
360
114
  0
DICTIONARY
  5
116
330
118
100
AcDbDictionary
280
     1
281
     1
  3
TC_OPTIONAL_DATA
360
117
  0
DICTIONARY
  5
119
330
11B
100
AcDbDictionary
280
     1
281
     1
  3
TC_OPTIONAL_DATA
360
11A
  0
DICTIONARY
  5
11C
330
11E
100
AcDbDictionary
280
     1
281
     1
  3
TC_OPTIONAL_DATA
360
11D
  0
DICTIONARY
  5
11F
330
121
100
AcDbDictionary
280
     1
281
     1
  3
TC_OPTIONAL_DATA
360
120
  0
DICTIONARY
  5
122
330
124
100
AcDbDictionary
280
     1
281
     1
  3
TC_OPTIONAL_DATA
360
123
  0
DICTIONARY
  5
125
330
127
100
AcDbDictionary
280
     1
281
     1
  3
TC_OPTIONAL_DATA
360
126
  0
DICTIONARY
  5
128
330
12A
100
AcDbDictionary
280
     1
281
     1
  3
TC_OPTIONAL_DATA
360
129
  0
DICTIONARY
  5
12B
330
12D
100
AcDbDictionary
280
     1
281
     1
  3
TC_OPTIONAL_DATA
360
12C
  0
DICTIONARY
  5
12E
330
130
100
AcDbDictionary
280
     1
281
     1
  3
TC_OPTIONAL_DATA
360
12F
  0
DICTIONARY
  5
131
330
133
100
AcDbDictionary
280
     1
281
     1
  3
TC_OPTIONAL_DATA
360
132
  0
DICTIONARY
  5
134
330
136
100
AcDbDictionary
280
     1
281
     1
  3
TC_OPTIONAL_DATA
360
135
  0
DICTIONARY
  5
137
330
139
100
AcDbDictionary
280
     1
281
     1
  3
TC_OPTIONAL_DATA
360
138
  0
DICTIONARY
  5
13A
330
13C
100
AcDbDictionary
280
     1
281
     1
  3
TC_OPTIONAL_DATA
360
13B
  0
DICTIONARY
  5
13D
330
13F
100
AcDbDictionary
280
     1
281
     1
  3
TC_OPTIONAL_DATA
360
13E
  0
DICTIONARY
  5
140
330
142
100
AcDbDictionary
280
     1
281
     1
  3
TC_OPTIONAL_DATA
360
141
  0
DICTIONARY
  5
143
330
145
100
AcDbDictionary
280
     1
281
     1
  3
TC_OPTIONAL_DATA
360
144
  0
DICTIONARY
  5
146
330
148
100
AcDbDictionary
280
     1
281
     1
  3
TC_OPTIONAL_DATA
360
147
  0
DICTIONARY
  5
149
330
14B
100
AcDbDictionary
280
     1
281
     1
  3
TC_OPTIONAL_DATA
360
14A
  0
DICTIONARY
  5
14C
330
14E
100
AcDbDictionary
280
     1
281
     1
  3
TC_OPTIONAL_DATA
360
14D
  0
DICTIONARY
  5
14F
330
151
100
AcDbDictionary
280
     1
281
     1
  3
TC_OPTIONAL_DATA
360
150
  0
DICTIONARY
  5
152
330
154
100
AcDbDictionary
280
     1
281
     1
  3
TC_OPTIONAL_DATA
360
153
  0
DICTIONARY
  5
155
330
157
100
AcDbDictionary
280
     1
281
     1
  3
TC_OPTIONAL_DATA
360
156
  0
DICTIONARY
  5
158
330
15A
100
AcDbDictionary
280
     1
281
     1
  3
TC_OPTIONAL_DATA
360
159
  0
DICTIONARY
  5
15B
330
15D
100
AcDbDictionary
280
     1
281
     1
  3
TC_OPTIONAL_DATA
360
15C
  0
DICTIONARY
  5
15E
330
160
100
AcDbDictionary
280
     1
281
     1
  3
TC_OPTIONAL_DATA
360
15F
  0
DICTIONARY
  5
161
330
163
100
AcDbDictionary
280
     1
281
     1
  3
TC_OPTIONAL_DATA
360
162
  0
DICTIONARY
  5
164
330
166
100
AcDbDictionary
280
     1
281
     1
  3
TC_OPTIONAL_DATA
360
165
  0
DICTIONARY
  5
167
330
169
100
AcDbDictionary
280
     1
281
     1
  3
TC_OPTIONAL_DATA
360
168
  0
DICTIONARY
  5
16A
330
16C
100
AcDbDictionary
280
     1
281
     1
  3
TC_OPTIONAL_DATA
360
16B
  0
DICTIONARY
  5
16D
330
16F
100
AcDbDictionary
280
     1
281
     1
  3
TC_OPTIONAL_DATA
360
16E
  0
DICTIONARY
  5
170
330
172
100
AcDbDictionary
280
     1
281
     1
  3
TC_OPTIONAL_DATA
360
171
  0
DICTIONARY
  5
173
330
175
100
AcDbDictionary
280
     1
281
     1
  3
TC_OPTIONAL_DATA
360
174
  0
DICTIONARY
  5
176
330
178
100
AcDbDictionary
280
     1
281
     1
  3
TC_OPTIONAL_DATA
360
177
  0
DICTIONARY
  5
179
330
17B
100
AcDbDictionary
280
     1
281
     1
  3
TC_OPTIONAL_DATA
360
17A
  0
DICTIONARY
  5
17C
330
17E
100
AcDbDictionary
280
     1
281
     1
  3
TC_OPTIONAL_DATA
360
17D
  0
DICTIONARY
  5
17F
330
181
100
AcDbDictionary
280
     1
281
     1
  3
TC_OPTIONAL_DATA
360
180
  0
DICTIONARY
  5
182
330
184
100
AcDbDictionary
280
     1
281
     1
  3
TC_OPTIONAL_DATA
360
183
  0
DICTIONARY
  5
185
330
187
100
AcDbDictionary
280
     1
281
     1
  3
TC_OPTIONAL_DATA
360
186
  0
DICTIONARY
  5
188
330
18A
100
AcDbDictionary
280
     1
281
     1
  3
TC_OPTIONAL_DATA
360
189
  0
DICTIONARY
  5
18B
330
18D
100
AcDbDictionary
280
     1
281
     1
  3
TC_OPTIONAL_DATA
360
18C
  0
DICTIONARY
  5
18E
330
190
100
AcDbDictionary
280
     1
281
     1
  3
TC_OPTIONAL_DATA
360
18F
  0
DICTIONARY
  5
191
330
193
100
AcDbDictionary
280
     1
281
     1
  3
TC_OPTIONAL_DATA
360
192
  0
DICTIONARY
  5
194
330
196
100
AcDbDictionary
280
     1
281
     1
  3
TC_OPTIONAL_DATA
360
195
  0
DICTIONARY
  5
197
330
199
100
AcDbDictionary
280
     1
281
     1
  3
TC_OPTIONAL_DATA
360
198
  0
DICTIONARY
  5
19A
330
19C
100
AcDbDictionary
280
     1
281
     1
  3
TC_OPTIONAL_DATA
360
19B
  0
DICTIONARY
  5
19D
330
19F
100
AcDbDictionary
280
     1
281
     1
  3
TC_OPTIONAL_DATA
360
19E
  0
DICTIONARY
  5
1A0
330
1A2
100
AcDbDictionary
280
     1
281
     1
  3
TC_OPTIONAL_DATA
360
1A1
  0
DICTIONARY
  5
1A3
330
1A5
100
AcDbDictionary
280
     1
281
     1
  3
TC_OPTIONAL_DATA
360
1A4
  0
DICTIONARY
  5
1A6
330
1A8
100
AcDbDictionary
280
     1
281
     1
  3
TC_OPTIONAL_DATA
360
1A7
  0
DICTIONARY
  5
1A9
330
1AB
100
AcDbDictionary
280
     1
281
     1
  3
TC_OPTIONAL_DATA
360
1AA
  0
DICTIONARY
  5
1AC
330
1AE
100
AcDbDictionary
280
     1
281
     1
  3
TC_OPTIONAL_DATA
360
1AD
  0
DICTIONARY
  5
1AF
330
1B1
100
AcDbDictionary
280
     1
281
     1
  3
TC_OPTIONAL_DATA
360
1B0
  0
DICTIONARY
  5
1B2
330
1B4
100
AcDbDictionary
280
     1
281
     1
  3
TC_OPTIONAL_DATA
360
1B3
  0
DICTIONARY
  5
1B5
330
1B7
100
AcDbDictionary
280
     1
281
     1
  3
TC_OPTIONAL_DATA
360
1B6
  0
DICTIONARY
  5
1B8
330
1BA
100
AcDbDictionary
280
     1
281
     1
  3
TC_OPTIONAL_DATA
360
1B9
  0
DICTIONARY
  5
1BB
330
1BD
100
AcDbDictionary
280
     1
281
     1
  3
TC_OPTIONAL_DATA
360
1BC
  0
DICTIONARY
  5
1BE
330
1C0
100
AcDbDictionary
280
     1
281
     1
  3
TC_OPTIONAL_DATA
360
1BF
  0
DICTIONARY
  5
1C1
330
1C3
100
AcDbDictionary
280
     1
281
     1
  3
TC_OPTIONAL_DATA
360
1C2
  0
DICTIONARY
  5
1C4
330
1C6
100
AcDbDictionary
280
     1
281
     1
  3
TC_OPTIONAL_DATA
360
1C5
  0
DICTIONARY
  5
1C7
330
1C9
100
AcDbDictionary
280
     1
281
     1
  3
TC_OPTIONAL_DATA
360
1C8
  0
DICTIONARY
  5
1CA
330
1CC
100
AcDbDictionary
280
     1
281
     1
  3
TC_OPTIONAL_DATA
360
1CB
  0
DICTIONARY
  5
1CD
330
1CF
100
AcDbDictionary
280
     1
281
     1
  3
TC_OPTIONAL_DATA
360
1CE
  0
DICTIONARY
  5
1D0
330
1D2
100
AcDbDictionary
280
     1
281
     1
  3
TC_OPTIONAL_DATA
360
1D1
  0
DICTIONARY
  5
1D3
330
1D5
100
AcDbDictionary
280
     1
281
     1
  3
TC_OPTIONAL_DATA
360
1D4
  0
DICTIONARY
  5
1D6
330
1D8
100
AcDbDictionary
280
     1
281
     1
  3
TC_OPTIONAL_DATA
360
1D7
  0
DICTIONARY
  5
1D9
330
1DB
100
AcDbDictionary
280
     1
281
     1
  3
TC_OPTIONAL_DATA
360
1DA
  0
DICTIONARY
  5
1DC
330
1DE
100
AcDbDictionary
280
     1
281
     1
  3
TC_OPTIONAL_DATA
360
1DD
  0
DICTIONARY
  5
1DF
330
1E1
100
AcDbDictionary
280
     1
281
     1
  3
TC_OPTIONAL_DATA
360
1E0
  0
DICTIONARY
  5
1E2
330
1E4
100
AcDbDictionary
280
     1
281
     1
  3
TC_OPTIONAL_DATA
360
1E3
  0
DICTIONARY
  5
1E5
330
1E7
100
AcDbDictionary
280
     1
281
     1
  3
TC_OPTIONAL_DATA
360
1E6
  0
DICTIONARY
  5
1E8
330
1EA
100
AcDbDictionary
280
     1
281
     1
  3
TC_OPTIONAL_DATA
360
1E9
  0
DICTIONARY
  5
1EB
330
1ED
100
AcDbDictionary
280
     1
281
     1
  3
TC_OPTIONAL_DATA
360
1EC
  0
DICTIONARY
  5
1EE
330
1F0
100
AcDbDictionary
280
     1
281
     1
  3
TC_OPTIONAL_DATA
360
1EF
  0
DICTIONARY
  5
1F1
330
1F3
100
AcDbDictionary
280
     1
281
     1
  3
TC_OPTIONAL_DATA
360
1F2
  0
DICTIONARY
  5
1F4
330
1F6
100
AcDbDictionary
280
     1
281
     1
  3
TC_OPTIONAL_DATA
360
1F5
  0
DICTIONARY
  5
1F7
330
1F9
100
AcDbDictionary
280
     1
281
     1
  3
TC_OPTIONAL_DATA
360
1F8
  0
DICTIONARY
  5
1FA
330
1FC
100
AcDbDictionary
280
     1
281
     1
  3
TC_OPTIONAL_DATA
360
1FB
  0
DICTIONARY
  5
1FD
330
1FF
100
AcDbDictionary
280
     1
281
     1
  3
TC_OPTIONAL_DATA
360
1FE
  0
DICTIONARY
  5
200
330
202
100
AcDbDictionary
280
     1
281
     1
  3
TC_OPTIONAL_DATA
360
201
  0
DICTIONARY
  5
203
330
205
100
AcDbDictionary
280
     1
281
     1
  3
TC_OPTIONAL_DATA
360
204
  0
DICTIONARY
  5
206
330
208
100
AcDbDictionary
280
     1
281
     1
  3
TC_OPTIONAL_DATA
360
207
  0
DICTIONARY
  5
209
330
20B
100
AcDbDictionary
280
     1
281
     1
  3
TC_OPTIONAL_DATA
360
20A
  0
DICTIONARY
  5
20C
330
20E
100
AcDbDictionary
280
     1
281
     1
  3
TC_OPTIONAL_DATA
360
20D
  0
DICTIONARY
  5
20F
330
211
100
AcDbDictionary
280
     1
281
     1
  3
TC_OPTIONAL_DATA
360
210
  0
DICTIONARY
  5
212
330
214
100
AcDbDictionary
280
     1
281
     1
  3
TC_OPTIONAL_DATA
360
213
  0
DICTIONARY
  5
215
330
217
100
AcDbDictionary
280
     1
281
     1
  3
TC_OPTIONAL_DATA
360
216
  0
DICTIONARY
  5
218
330
21A
100
AcDbDictionary
280
     1
281
     1
  3
TC_OPTIONAL_DATA
360
219
  0
DICTIONARY
  5
21B
330
21D
100
AcDbDictionary
280
     1
281
     1
  3
TC_OPTIONAL_DATA
360
21C
  0
DICTIONARY
  5
21E
330
220
100
AcDbDictionary
280
     1
281
     1
  3
TC_OPTIONAL_DATA
360
21F
  0
DICTIONARY
  5
221
330
223
100
AcDbDictionary
280
     1
281
     1
  3
TC_OPTIONAL_DATA
360
222
  0
DICTIONARY
  5
224
330
226
100
AcDbDictionary
280
     1
281
     1
  3
TC_OPTIONAL_DATA
360
225
  0
DICTIONARY
  5
227
330
229
100
AcDbDictionary
280
     1
281
     1
  3
TC_OPTIONAL_DATA
360
228
  0
DICTIONARY
  5
22A
330
22C
100
AcDbDictionary
280
     1
281
     1
  3
TC_OPTIONAL_DATA
360
22B
  0
DICTIONARY
  5
22D
330
22F
100
AcDbDictionary
280
     1
281
     1
  3
TC_OPTIONAL_DATA
360
22E
  0
DICTIONARY
  5
230
330
232
100
AcDbDictionary
280
     1
281
     1
  3
TC_OPTIONAL_DATA
360
231
  0
DICTIONARY
  5
233
330
235
100
AcDbDictionary
280
     1
281
     1
  3
TC_OPTIONAL_DATA
360
234
  0
DICTIONARY
  5
236
330
238
100
AcDbDictionary
280
     1
281
     1
  3
TC_OPTIONAL_DATA
360
237
  0
DICTIONARY
  5
239
330
23B
100
AcDbDictionary
280
     1
281
     1
  3
TC_OPTIONAL_DATA
360
23A
  0
DICTIONARY
  5
23C
330
23E
100
AcDbDictionary
280
     1
281
     1
  3
TC_OPTIONAL_DATA
360
23D
  0
DICTIONARY
  5
23F
330
241
100
AcDbDictionary
280
     1
281
     1
  3
TC_OPTIONAL_DATA
360
240
  0
DICTIONARY
  5
242
330
244
100
AcDbDictionary
280
     1
281
     1
  3
TC_OPTIONAL_DATA
360
243
  0
DICTIONARY
  5
245
330
247
100
AcDbDictionary
280
     1
281
     1
  3
TC_OPTIONAL_DATA
360
246
  0
DICTIONARY
  5
248
330
24A
100
AcDbDictionary
280
     1
281
     1
  3
TC_OPTIONAL_DATA
360
249
  0
DICTIONARY
  5
24B
330
24D
100
AcDbDictionary
280
     1
281
     1
  3
TC_OPTIONAL_DATA
360
24C
  0
DICTIONARY
  5
24E
330
250
100
AcDbDictionary
280
     1
281
     1
  3
TC_OPTIONAL_DATA
360
24F
  0
DICTIONARY
  5
251
330
253
100
AcDbDictionary
280
     1
281
     1
  3
TC_OPTIONAL_DATA
360
252
  0
DICTIONARY
  5
254
330
256
100
AcDbDictionary
280
     1
281
     1
  3
TC_OPTIONAL_DATA
360
255
  0
DICTIONARY
  5
257
330
259
100
AcDbDictionary
280
     1
281
     1
  3
TC_OPTIONAL_DATA
360
258
  0
DICTIONARY
  5
25A
330
25C
100
AcDbDictionary
280
     1
281
     1
  3
TC_OPTIONAL_DATA
360
25B
  0
DICTIONARY
  5
25D
330
25F
100
AcDbDictionary
280
     1
281
     1
  3
TC_OPTIONAL_DATA
360
25E
  0
DICTIONARY
  5
260
330
262
100
AcDbDictionary
280
     1
281
     1
  3
TC_OPTIONAL_DATA
360
261
  0
DICTIONARY
  5
263
330
265
100
AcDbDictionary
280
     1
281
     1
  3
TC_OPTIONAL_DATA
360
264
  0
DICTIONARY
  5
266
330
268
100
AcDbDictionary
280
     1
281
     1
  3
TC_OPTIONAL_DATA
360
267
  0
DICTIONARY
  5
269
330
26B
100
AcDbDictionary
280
     1
281
     1
  3
TC_OPTIONAL_DATA
360
26A
  0
DICTIONARY
  5
26C
330
26E
100
AcDbDictionary
280
     1
281
     1
  3
TC_OPTIONAL_DATA
360
26D
  0
DICTIONARY
  5
26F
330
271
100
AcDbDictionary
280
     1
281
     1
  3
TC_OPTIONAL_DATA
360
270
  0
DICTIONARY
  5
272
330
274
100
AcDbDictionary
280
     1
281
     1
  3
TC_OPTIONAL_DATA
360
273
  0
DICTIONARY
  5
275
330
277
100
AcDbDictionary
280
     1
281
     1
  3
TC_OPTIONAL_DATA
360
276
  0
DICTIONARY
  5
278
330
27A
100
AcDbDictionary
280
     1
281
     1
  3
TC_OPTIONAL_DATA
360
279
  0
DICTIONARY
  5
27B
330
27D
100
AcDbDictionary
280
     1
281
     1
  3
TC_OPTIONAL_DATA
360
27C
  0
DICTIONARY
  5
27E
330
280
100
AcDbDictionary
280
     1
281
     1
  3
TC_OPTIONAL_DATA
360
27F
  0
DICTIONARY
  5
281
330
283
100
AcDbDictionary
280
     1
281
     1
  3
TC_OPTIONAL_DATA
360
282
  0
DICTIONARY
  5
284
330
286
100
AcDbDictionary
280
     1
281
     1
  3
TC_OPTIONAL_DATA
360
285
  0
DICTIONARY
  5
287
330
289
100
AcDbDictionary
280
     1
281
     1
  3
TC_OPTIONAL_DATA
360
288
  0
DICTIONARY
  5
28A
330
28C
100
AcDbDictionary
280
     1
281
     1
  3
TC_OPTIONAL_DATA
360
28B
  0
DICTIONARY
  5
28D
330
28F
100
AcDbDictionary
280
     1
281
     1
  3
TC_OPTIONAL_DATA
360
28E
  0
DICTIONARY
  5
290
330
292
100
AcDbDictionary
280
     1
281
     1
  3
TC_OPTIONAL_DATA
360
291
  0
DICTIONARY
  5
293
330
295
100
AcDbDictionary
280
     1
281
     1
  3
TC_OPTIONAL_DATA
360
294
  0
DICTIONARY
  5
296
330
298
100
AcDbDictionary
280
     1
281
     1
  3
TC_OPTIONAL_DATA
360
297
  0
DICTIONARY
  5
299
330
29B
100
AcDbDictionary
280
     1
281
     1
  3
TC_OPTIONAL_DATA
360
29A
  0
DICTIONARY
  5
29C
330
29E
100
AcDbDictionary
280
     1
281
     1
  3
TC_OPTIONAL_DATA
360
29D
  0
DICTIONARY
  5
29F
330
2A1
100
AcDbDictionary
280
     1
281
     1
  3
TC_OPTIONAL_DATA
360
2A0
  0
DICTIONARY
  5
2A2
330
2A4
100
AcDbDictionary
280
     1
281
     1
  3
TC_OPTIONAL_DATA
360
2A3
  0
DICTIONARY
  5
2A5
330
2A7
100
AcDbDictionary
280
     1
281
     1
  3
TC_OPTIONAL_DATA
360
2A6
  0
DICTIONARY
  5
2A8
330
2AA
100
AcDbDictionary
280
     1
281
     1
  3
TC_OPTIONAL_DATA
360
2A9
  0
DICTIONARY
  5
2AB
330
2AD
100
AcDbDictionary
280
     1
281
     1
  3
TC_OPTIONAL_DATA
360
2AC
  0
DICTIONARY
  5
2AE
330
2B0
100
AcDbDictionary
280
     1
281
     1
  3
TC_OPTIONAL_DATA
360
2AF
  0
DICTIONARY
  5
2B1
330
2B3
100
AcDbDictionary
280
     1
281
     1
  3
TC_OPTIONAL_DATA
360
2B2
  0
DICTIONARY
  5
2B4
330
2B6
100
AcDbDictionary
280
     1
281
     1
  3
TC_OPTIONAL_DATA
360
2B5
  0
DICTIONARY
  5
2B7
330
2B9
100
AcDbDictionary
280
     1
281
     1
  3
TC_OPTIONAL_DATA
360
2B8
  0
DICTIONARY
  5
2BA
330
2BC
100
AcDbDictionary
280
     1
281
     1
  3
TC_OPTIONAL_DATA
360
2BB
  0
DICTIONARY
  5
2BD
330
2BF
100
AcDbDictionary
280
     1
281
     1
  3
TC_OPTIONAL_DATA
360
2BE
  0
DICTIONARY
  5
2C0
330
2C2
100
AcDbDictionary
280
     1
281
     1
  3
TC_OPTIONAL_DATA
360
2C1
  0
DICTIONARY
  5
2C3
330
2C5
100
AcDbDictionary
280
     1
281
     1
  3
TC_OPTIONAL_DATA
360
2C4
  0
DICTIONARY
  5
2C6
330
2C8
100
AcDbDictionary
280
     1
281
     1
  3
TC_OPTIONAL_DATA
360
2C7
  0
DICTIONARY
  5
2C9
330
2CB
100
AcDbDictionary
280
     1
281
     1
  3
TC_OPTIONAL_DATA
360
2CA
  0
DICTIONARY
  5
2CC
330
2CE
100
AcDbDictionary
280
     1
281
     1
  3
TC_OPTIONAL_DATA
360
2CD
  0
DICTIONARY
  5
2CF
330
2D1
100
AcDbDictionary
280
     1
281
     1
  3
TC_OPTIONAL_DATA
360
2D0
  0
DICTIONARY
  5
2D2
330
2D4
100
AcDbDictionary
280
     1
281
     1
  3
TC_OPTIONAL_DATA
360
2D3
  0
DICTIONARY
  5
2D5
330
2D7
100
AcDbDictionary
280
     1
281
     1
  3
TC_OPTIONAL_DATA
360
2D6
  0
DICTIONARY
  5
2D8
330
2DA
100
AcDbDictionary
280
     1
281
     1
  3
TC_OPTIONAL_DATA
360
2D9
  0
DICTIONARY
  5
2DB
330
2DD
100
AcDbDictionary
280
     1
281
     1
  3
TC_OPTIONAL_DATA
360
2DC
  0
DICTIONARY
  5
2DE
330
2E0
100
AcDbDictionary
280
     1
281
     1
  3
TC_OPTIONAL_DATA
360
2DF
  0
DICTIONARY
  5
2E1
330
2E3
100
AcDbDictionary
280
     1
281
     1
  3
TC_OPTIONAL_DATA
360
2E2
  0
DICTIONARY
  5
2E4
330
2E6
100
AcDbDictionary
280
     1
281
     1
  3
TC_OPTIONAL_DATA
360
2E5
  0
DICTIONARY
  5
2E7
330
2E9
100
AcDbDictionary
280
     1
281
     1
  3
TC_OPTIONAL_DATA
360
2E8
  0
DICTIONARY
  5
2EA
330
2EC
100
AcDbDictionary
280
     1
281
     1
  3
TC_OPTIONAL_DATA
360
2EB
  0
DICTIONARY
  5
2ED
330
2EF
100
AcDbDictionary
280
     1
281
     1
  3
TC_OPTIONAL_DATA
360
2EE
  0
DICTIONARY
  5
2F0
330
2F2
100
AcDbDictionary
280
     1
281
     1
  3
TC_OPTIONAL_DATA
360
2F1
  0
DICTIONARY
  5
2F3
330
2F5
100
AcDbDictionary
280
     1
281
     1
  3
TC_OPTIONAL_DATA
360
2F4
  0
DICTIONARY
  5
2F6
330
2F8
100
AcDbDictionary
280
     1
281
     1
  3
TC_OPTIONAL_DATA
360
2F7
  0
DICTIONARY
  5
2F9
330
2FB
100
AcDbDictionary
280
     1
281
     1
  3
TC_OPTIONAL_DATA
360
2FA
  0
DICTIONARY
  5
2FC
330
2FE
100
AcDbDictionary
280
     1
281
     1
  3
TC_OPTIONAL_DATA
360
2FD
  0
DICTIONARY
  5
2FF
330
301
100
AcDbDictionary
280
     1
281
     1
  3
TC_OPTIONAL_DATA
360
300
  0
DICTIONARY
  5
302
330
304
100
AcDbDictionary
280
     1
281
     1
  3
TC_OPTIONAL_DATA
360
303
  0
DICTIONARY
  5
305
330
307
100
AcDbDictionary
280
     1
281
     1
  3
TC_OPTIONAL_DATA
360
306
  0
DICTIONARY
  5
308
330
30A
100
AcDbDictionary
280
     1
281
     1
  3
TC_OPTIONAL_DATA
360
309
  0
DICTIONARY
  5
30B
330
30D
100
AcDbDictionary
280
     1
281
     1
  3
TC_OPTIONAL_DATA
360
30C
  0
DICTIONARY
  5
30E
330
310
100
AcDbDictionary
280
     1
281
     1
  3
TC_OPTIONAL_DATA
360
30F
  0
DICTIONARY
  5
311
330
313
100
AcDbDictionary
280
     1
281
     1
  3
TC_OPTIONAL_DATA
360
312
  0
DICTIONARY
  5
314
330
316
100
AcDbDictionary
280
     1
281
     1
  3
TC_OPTIONAL_DATA
360
315
  0
DICTIONARY
  5
317
330
319
100
AcDbDictionary
280
     1
281
     1
  3
TC_OPTIONAL_DATA
360
318
  0
DICTIONARY
  5
31A
330
31C
100
AcDbDictionary
280
     1
281
     1
  3
TC_OPTIONAL_DATA
360
31B
  0
DICTIONARY
  5
31D
330
31F
100
AcDbDictionary
280
     1
281
     1
  3
TC_OPTIONAL_DATA
360
31E
  0
DICTIONARY
  5
320
330
322
100
AcDbDictionary
280
     1
281
     1
  3
TC_OPTIONAL_DATA
360
321
  0
DICTIONARY
  5
323
330
325
100
AcDbDictionary
280
     1
281
     1
  3
TC_OPTIONAL_DATA
360
324
  0
DICTIONARY
  5
326
330
328
100
AcDbDictionary
280
     1
281
     1
  3
TC_OPTIONAL_DATA
360
327
  0
DICTIONARY
  5
329
330
32B
100
AcDbDictionary
280
     1
281
     1
  3
TC_OPTIONAL_DATA
360
32A
  0
DICTIONARY
  5
32C
330
32E
100
AcDbDictionary
280
     1
281
     1
  3
TC_OPTIONAL_DATA
360
32D
  0
DICTIONARY
  5
32F
330
331
100
AcDbDictionary
280
     1
281
     1
  3
TC_OPTIONAL_DATA
360
330
  0
DICTIONARY
  5
332
330
334
100
AcDbDictionary
280
     1
281
     1
  3
TC_OPTIONAL_DATA
360
333
  0
DICTIONARY
  5
335
330
337
100
AcDbDictionary
280
     1
281
     1
  3
TC_OPTIONAL_DATA
360
336
  0
DICTIONARY
  5
338
330
33A
100
AcDbDictionary
280
     1
281
     1
  3
TC_OPTIONAL_DATA
360
339
  0
DICTIONARY
  5
33B
330
33D
100
AcDbDictionary
280
     1
281
     1
  3
TC_OPTIONAL_DATA
360
33C
  0
DICTIONARY
  5
33E
330
340
100
AcDbDictionary
280
     1
281
     1
  3
TC_OPTIONAL_DATA
360
33F
  0
DICTIONARY
  5
341
330
343
100
AcDbDictionary
280
     1
281
     1
  3
TC_OPTIONAL_DATA
360
342
  0
DICTIONARY
  5
344
330
346
100
AcDbDictionary
280
     1
281
     1
  3
TC_OPTIONAL_DATA
360
345
  0
DICTIONARY
  5
347
330
349
100
AcDbDictionary
280
     1
281
     1
  3
TC_OPTIONAL_DATA
360
348
  0
DICTIONARY
  5
34A
330
34C
100
AcDbDictionary
280
     1
281
     1
  3
TC_OPTIONAL_DATA
360
34B
  0
DICTIONARY
  5
34D
330
34F
100
AcDbDictionary
280
     1
281
     1
  3
TC_OPTIONAL_DATA
360
34E
  0
DICTIONARY
  5
350
330
352
100
AcDbDictionary
280
     1
281
     1
  3
TC_OPTIONAL_DATA
360
351
  0
DICTIONARY
  5
353
330
355
100
AcDbDictionary
280
     1
281
     1
  3
TC_OPTIONAL_DATA
360
354
  0
DICTIONARY
  5
356
330
358
100
AcDbDictionary
280
     1
281
     1
  3
TC_OPTIONAL_DATA
360
357
  0
DICTIONARY
  5
359
330
35B
100
AcDbDictionary
280
     1
281
     1
  3
TC_OPTIONAL_DATA
360
35A
  0
DICTIONARY
  5
35C
330
35E
100
AcDbDictionary
280
     1
281
     1
  3
TC_OPTIONAL_DATA
360
35D
  0
DICTIONARY
  5
35F
330
361
100
AcDbDictionary
280
     1
281
     1
  3
TC_OPTIONAL_DATA
360
360
  0
DICTIONARY
  5
362
330
364
100
AcDbDictionary
280
     1
281
     1
  3
TC_OPTIONAL_DATA
360
363
  0
DICTIONARY
  5
365
330
367
100
AcDbDictionary
280
     1
281
     1
  3
TC_OPTIONAL_DATA
360
366
  0
DICTIONARY
  5
368
330
36A
100
AcDbDictionary
280
     1
281
     1
  3
TC_OPTIONAL_DATA
360
369
  0
DICTIONARY
  5
36B
330
36D
100
AcDbDictionary
280
     1
281
     1
  3
TC_OPTIONAL_DATA
360
36C
  0
DICTIONARY
  5
36E
330
370
100
AcDbDictionary
280
     1
281
     1
  3
TC_OPTIONAL_DATA
360
36F
  0
DICTIONARY
  5
371
330
373
100
AcDbDictionary
280
     1
281
     1
  3
TC_OPTIONAL_DATA
360
372
  0
DICTIONARY
  5
374
330
376
100
AcDbDictionary
280
     1
281
     1
  3
TC_OPTIONAL_DATA
360
375
  0
DICTIONARY
  5
377
330
379
100
AcDbDictionary
280
     1
281
     1
  3
TC_OPTIONAL_DATA
360
378
  0
DICTIONARY
  5
37A
330
37C
100
AcDbDictionary
280
     1
281
     1
  3
TC_OPTIONAL_DATA
360
37B
  0
DICTIONARY
  5
37D
330
37F
100
AcDbDictionary
280
     1
281
     1
  3
TC_OPTIONAL_DATA
360
37E
  0
DICTIONARY
  5
380
330
382
100
AcDbDictionary
280
     1
281
     1
  3
TC_OPTIONAL_DATA
360
381
  0
DICTIONARY
  5
383
330
385
100
AcDbDictionary
280
     1
281
     1
  3
TC_OPTIONAL_DATA
360
384
  0
DICTIONARY
  5
386
330
388
100
AcDbDictionary
280
     1
281
     1
  3
TC_OPTIONAL_DATA
360
387
  0
DICTIONARY
  5
389
330
38B
100
AcDbDictionary
280
     1
281
     1
  3
TC_OPTIONAL_DATA
360
38A
  0
DICTIONARY
  5
38C
330
38E
100
AcDbDictionary
280
     1
281
     1
  3
TC_OPTIONAL_DATA
360
38D
  0
DICTIONARY
  5
38F
330
391
100
AcDbDictionary
280
     1
281
     1
  3
TC_OPTIONAL_DATA
360
390
  0
DICTIONARY
  5
392
330
394
100
AcDbDictionary
280
     1
281
     1
  3
TC_OPTIONAL_DATA
360
393
  0
DICTIONARY
  5
395
330
397
100
AcDbDictionary
280
     1
281
     1
  3
TC_OPTIONAL_DATA
360
396
  0
DICTIONARY
  5
398
330
39A
100
AcDbDictionary
280
     1
281
     1
  3
TC_OPTIONAL_DATA
360
399
  0
DICTIONARY
  5
39B
330
39D
100
AcDbDictionary
280
     1
281
     1
  3
TC_OPTIONAL_DATA
360
39C
  0
DICTIONARY
  5
39E
330
3A0
100
AcDbDictionary
280
     1
281
     1
  3
TC_OPTIONAL_DATA
360
39F
  0
DICTIONARY
  5
3A1
330
3A3
100
AcDbDictionary
280
     1
281
     1
  3
TC_OPTIONAL_DATA
360
3A2
  0
DICTIONARY
  5
3A4
330
3A6
100
AcDbDictionary
280
     1
281
     1
  3
TC_OPTIONAL_DATA
360
3A5
  0
DICTIONARY
  5
3A7
330
3A9
100
AcDbDictionary
280
     1
281
     1
  3
TC_OPTIONAL_DATA
360
3A8
  0
DICTIONARY
  5
3AA
330
3AC
100
AcDbDictionary
280
     1
281
     1
  3
TC_OPTIONAL_DATA
360
3AB
  0
DICTIONARY
  5
3AD
330
3AF
100
AcDbDictionary
280
     1
281
     1
  3
TC_OPTIONAL_DATA
360
3AE
  0
DICTIONARY
  5
3B0
330
3B2
100
AcDbDictionary
280
     1
281
     1
  3
TC_OPTIONAL_DATA
360
3B1
  0
DICTIONARY
  5
3B3
330
3B5
100
AcDbDictionary
280
     1
281
     1
  3
TC_OPTIONAL_DATA
360
3B4
  0
DICTIONARY
  5
3B6
330
3B8
100
AcDbDictionary
280
     1
281
     1
  3
TC_OPTIONAL_DATA
360
3B7
  0
DICTIONARY
  5
3B9
330
3BB
100
AcDbDictionary
280
     1
281
     1
  3
TC_OPTIONAL_DATA
360
3BA
  0
DICTIONARY
  5
3BC
330
3BE
100
AcDbDictionary
280
     1
281
     1
  3
TC_OPTIONAL_DATA
360
3BD
  0
DICTIONARY
  5
3BF
330
3C1
100
AcDbDictionary
280
     1
281
     1
  3
TC_OPTIONAL_DATA
360
3C0
  0
DICTIONARY
  5
3C2
330
3C4
100
AcDbDictionary
280
     1
281
     1
  3
TC_OPTIONAL_DATA
360
3C3
  0
DICTIONARY
  5
3C5
330
3C7
100
AcDbDictionary
280
     1
281
     1
  3
TC_OPTIONAL_DATA
360
3C6
  0
DICTIONARY
  5
3C8
330
3CA
100
AcDbDictionary
280
     1
281
     1
  3
TC_OPTIONAL_DATA
360
3C9
  0
DICTIONARY
  5
3CB
330
3CD
100
AcDbDictionary
280
     1
281
     1
  3
TC_OPTIONAL_DATA
360
3CC
  0
DICTIONARY
  5
3CE
330
3D0
100
AcDbDictionary
280
     1
281
     1
  3
TC_OPTIONAL_DATA
360
3CF
  0
DICTIONARY
  5
3D1
330
3D3
100
AcDbDictionary
280
     1
281
     1
  3
TC_OPTIONAL_DATA
360
3D2
  0
DICTIONARY
  5
3D4
330
3D6
100
AcDbDictionary
280
     1
281
     1
  3
TC_OPTIONAL_DATA
360
3D5
  0
DICTIONARY
  5
3D7
330
3D9
100
AcDbDictionary
280
     1
281
     1
  3
TC_OPTIONAL_DATA
360
3D8
  0
DICTIONARY
  5
3DA
330
3DC
100
AcDbDictionary
280
     1
281
     1
  3
TC_OPTIONAL_DATA
360
3DB
  0
DICTIONARY
  5
3DD
330
3DF
100
AcDbDictionary
280
     1
281
     1
  3
TC_OPTIONAL_DATA
360
3DE
  0
DICTIONARY
  5
3E0
330
3E2
100
AcDbDictionary
280
     1
281
     1
  3
TC_OPTIONAL_DATA
360
3E1
  0
DICTIONARY
  5
3E3
330
3E5
100
AcDbDictionary
280
     1
281
     1
  3
TC_OPTIONAL_DATA
360
3E4
  0
DICTIONARY
  5
3E6
330
3E8
100
AcDbDictionary
280
     1
281
     1
  3
TC_OPTIONAL_DATA
360
3E7
  0
DICTIONARY
  5
3E9
330
3EB
100
AcDbDictionary
280
     1
281
     1
  3
TC_OPTIONAL_DATA
360
3EA
  0
DICTIONARY
  5
3EC
330
3EE
100
AcDbDictionary
280
     1
281
     1
  3
TC_OPTIONAL_DATA
360
3ED
  0
DICTIONARY
  5
3EF
330
3F1
100
AcDbDictionary
280
     1
281
     1
  3
TC_OPTIONAL_DATA
360
3F0
  0
DICTIONARY
  5
3F2
330
3F4
100
AcDbDictionary
280
     1
281
     1
  3
TC_OPTIONAL_DATA
360
3F3
  0
DICTIONARY
  5
3F5
330
3F7
100
AcDbDictionary
280
     1
281
     1
  3
TC_OPTIONAL_DATA
360
3F6
  0
DICTIONARY
  5
3F8
330
3FA
100
AcDbDictionary
280
     1
281
     1
  3
TC_OPTIONAL_DATA
360
3F9
  0
DICTIONARY
  5
3FB
330
3FD
100
AcDbDictionary
280
     1
281
     1
  3
TC_OPTIONAL_DATA
360
3FC
  0
DICTIONARY
  5
3FE
330
400
100
AcDbDictionary
280
     1
281
     1
  3
TC_OPTIONAL_DATA
360
3FF
  0
DICTIONARY
  5
401
330
403
100
AcDbDictionary
280
     1
281
     1
  3
TC_OPTIONAL_DATA
360
402
  0
DICTIONARY
  5
404
330
406
100
AcDbDictionary
280
     1
281
     1
  3
TC_OPTIONAL_DATA
360
405
  0
DICTIONARY
  5
407
330
409
100
AcDbDictionary
280
     1
281
     1
  3
TC_OPTIONAL_DATA
360
408
  0
DICTIONARY
  5
40A
330
40C
100
AcDbDictionary
280
     1
281
     1
  3
TC_OPTIONAL_DATA
360
40B
  0
DICTIONARY
  5
40D
330
40F
100
AcDbDictionary
280
     1
281
     1
  3
TC_OPTIONAL_DATA
360
40E
  0
DICTIONARY
  5
410
330
412
100
AcDbDictionary
280
     1
281
     1
  3
TC_OPTIONAL_DATA
360
411
  0
DICTIONARY
  5
413
330
415
100
AcDbDictionary
280
     1
281
     1
  3
TC_OPTIONAL_DATA
360
414
  0
DICTIONARY
  5
416
330
418
100
AcDbDictionary
280
     1
281
     1
  3
TC_OPTIONAL_DATA
360
417
  0
DICTIONARY
  5
419
330
41B
100
AcDbDictionary
280
     1
281
     1
  3
TC_OPTIONAL_DATA
360
41A
  0
DICTIONARY
  5
41C
330
41E
100
AcDbDictionary
280
     1
281
     1
  3
TC_OPTIONAL_DATA
360
41D
  0
DICTIONARY
  5
41F
330
421
100
AcDbDictionary
280
     1
281
     1
  3
TC_OPTIONAL_DATA
360
420
  0
DICTIONARY
  5
422
330
424
100
AcDbDictionary
280
     1
281
     1
  3
TC_OPTIONAL_DATA
360
423
  0
DICTIONARY
  5
425
330
427
100
AcDbDictionary
280
     1
281
     1
  3
TC_OPTIONAL_DATA
360
426
  0
DICTIONARY
  5
428
330
42A
100
AcDbDictionary
280
     1
281
     1
  3
TC_OPTIONAL_DATA
360
429
  0
DICTIONARY
  5
42B
330
42D
100
AcDbDictionary
280
     1
281
     1
  3
TC_OPTIONAL_DATA
360
42C
  0
DICTIONARY
  5
42E
330
430
100
AcDbDictionary
280
     1
281
     1
  3
TC_OPTIONAL_DATA
360
42F
  0
DICTIONARY
  5
431
330
433
100
AcDbDictionary
280
     1
281
     1
  3
TC_OPTIONAL_DATA
360
432
  0
DICTIONARY
  5
434
330
436
100
AcDbDictionary
280
     1
281
     1
  3
TC_OPTIONAL_DATA
360
435
  0
DICTIONARY
  5
437
330
439
100
AcDbDictionary
280
     1
281
     1
  3
TC_OPTIONAL_DATA
360
438
  0
DICTIONARY
  5
43A
330
43C
100
AcDbDictionary
280
     1
281
     1
  3
TC_OPTIONAL_DATA
360
43B
  0
DICTIONARY
  5
43D
330
43F
100
AcDbDictionary
280
     1
281
     1
  3
TC_OPTIONAL_DATA
360
43E
  0
DICTIONARY
  5
440
330
442
100
AcDbDictionary
280
     1
281
     1
  3
TC_OPTIONAL_DATA
360
441
  0
DICTIONARY
  5
443
330
445
100
AcDbDictionary
280
     1
281
     1
  3
TC_OPTIONAL_DATA
360
444
  0
DICTIONARY
  5
446
330
448
100
AcDbDictionary
280
     1
281
     1
  3
TC_OPTIONAL_DATA
360
447
  0
DICTIONARY
  5
449
330
44B
100
AcDbDictionary
280
     1
281
     1
  3
TC_OPTIONAL_DATA
360
44A
  0
DICTIONARY
  5
44C
330
44E
100
AcDbDictionary
280
     1
281
     1
  3
TC_OPTIONAL_DATA
360
44D
  0
DICTIONARY
  5
44F
330
451
100
AcDbDictionary
280
     1
281
     1
  3
TC_OPTIONAL_DATA
360
450
  0
DICTIONARY
  5
452
330
454
100
AcDbDictionary
280
     1
281
     1
  3
TC_OPTIONAL_DATA
360
453
  0
DICTIONARY
  5
455
330
457
100
AcDbDictionary
280
     1
281
     1
  3
TC_OPTIONAL_DATA
360
456
  0
DICTIONARY
  5
458
330
45A
100
AcDbDictionary
280
     1
281
     1
  3
TC_OPTIONAL_DATA
360
459
  0
DICTIONARY
  5
45B
330
45D
100
AcDbDictionary
280
     1
281
     1
  3
TC_OPTIONAL_DATA
360
45C
  0
DICTIONARY
  5
45E
330
460
100
AcDbDictionary
280
     1
281
     1
  3
TC_OPTIONAL_DATA
360
45F
  0
DICTIONARY
  5
461
330
463
100
AcDbDictionary
280
     1
281
     1
  3
TC_OPTIONAL_DATA
360
462
  0
DICTIONARY
  5
464
330
466
100
AcDbDictionary
280
     1
281
     1
  3
TC_OPTIONAL_DATA
360
465
  0
DICTIONARY
  5
467
330
469
100
AcDbDictionary
280
     1
281
     1
  3
TC_OPTIONAL_DATA
360
468
  0
DICTIONARY
  5
46A
330
46C
100
AcDbDictionary
280
     1
281
     1
  3
TC_OPTIONAL_DATA
360
46B
  0
DICTIONARY
  5
46D
330
46F
100
AcDbDictionary
280
     1
281
     1
  3
TC_OPTIONAL_DATA
360
46E
  0
DICTIONARY
  5
470
330
472
100
AcDbDictionary
280
     1
281
     1
  3
TC_OPTIONAL_DATA
360
471
  0
DICTIONARY
  5
473
330
475
100
AcDbDictionary
280
     1
281
     1
  3
TC_OPTIONAL_DATA
360
474
  0
DICTIONARY
  5
476
330
478
100
AcDbDictionary
280
     1
281
     1
  3
TC_OPTIONAL_DATA
360
477
  0
DICTIONARY
  5
479
330
47B
100
AcDbDictionary
280
     1
281
     1
  3
TC_OPTIONAL_DATA
360
47A
  0
DICTIONARY
  5
47C
330
47E
100
AcDbDictionary
280
     1
281
     1
  3
TC_OPTIONAL_DATA
360
47D
  0
DICTIONARY
  5
47F
330
481
100
AcDbDictionary
280
     1
281
     1
  3
TC_OPTIONAL_DATA
360
480
  0
DICTIONARY
  5
482
330
484
100
AcDbDictionary
280
     1
281
     1
  3
TC_OPTIONAL_DATA
360
483
  0
DICTIONARY
  5
485
330
487
100
AcDbDictionary
280
     1
281
     1
  3
TC_OPTIONAL_DATA
360
486
  0
DICTIONARY
  5
488
330
48A
100
AcDbDictionary
280
     1
281
     1
  3
TC_OPTIONAL_DATA
360
489
  0
DICTIONARY
  5
48B
330
48D
100
AcDbDictionary
280
     1
281
     1
  3
TC_OPTIONAL_DATA
360
48C
  0
DICTIONARY
  5
48E
330
490
100
AcDbDictionary
280
     1
281
     1
  3
TC_OPTIONAL_DATA
360
48F
  0
DICTIONARY
  5
491
330
493
100
AcDbDictionary
280
     1
281
     1
  3
TC_OPTIONAL_DATA
360
492
  0
DICTIONARY
  5
494
330
496
100
AcDbDictionary
280
     1
281
     1
  3
TC_OPTIONAL_DATA
360
495
  0
DICTIONARY
  5
497
330
499
100
AcDbDictionary
280
     1
281
     1
  3
TC_OPTIONAL_DATA
360
498
  0
DICTIONARY
  5
49A
330
49C
100
AcDbDictionary
280
     1
281
     1
  3
TC_OPTIONAL_DATA
360
49B
  0
DICTIONARY
  5
49D
330
49F
100
AcDbDictionary
280
     1
281
     1
  3
TC_OPTIONAL_DATA
360
49E
  0
DICTIONARY
  5
4A0
330
4A2
100
AcDbDictionary
280
     1
281
     1
  3
TC_OPTIONAL_DATA
360
4A1
  0
DICTIONARY
  5
4A3
330
4A5
100
AcDbDictionary
280
     1
281
     1
  3
TC_OPTIONAL_DATA
360
4A4
  0
DICTIONARY
  5
4A6
330
4A8
100
AcDbDictionary
280
     1
281
     1
  3
TC_OPTIONAL_DATA
360
4A7
  0
DICTIONARY
  5
4A9
330
4AB
100
AcDbDictionary
280
     1
281
     1
  3
TC_OPTIONAL_DATA
360
4AA
  0
DICTIONARY
  5
4AC
330
4AE
100
AcDbDictionary
280
     1
281
     1
  3
TC_OPTIONAL_DATA
360
4AD
  0
DICTIONARY
  5
4AF
330
4B1
100
AcDbDictionary
280
     1
281
     1
  3
TC_OPTIONAL_DATA
360
4B0
  0
DICTIONARY
  5
4B2
330
4B4
100
AcDbDictionary
280
     1
281
     1
  3
TC_OPTIONAL_DATA
360
4B3
  0
DICTIONARY
  5
4B5
330
4B7
100
AcDbDictionary
280
     1
281
     1
  3
TC_OPTIONAL_DATA
360
4B6
  0
DICTIONARY
  5
4B8
330
4BA
100
AcDbDictionary
280
     1
281
     1
  3
TC_OPTIONAL_DATA
360
4B9
  0
DICTIONARY
  5
4BB
330
4BD
100
AcDbDictionary
280
     1
281
     1
  3
TC_OPTIONAL_DATA
360
4BC
  0
DICTIONARY
  5
4BE
330
4C0
100
AcDbDictionary
280
     1
281
     1
  3
TC_OPTIONAL_DATA
360
4BF
  0
DICTIONARY
  5
4C1
330
4C3
100
AcDbDictionary
280
     1
281
     1
  3
TC_OPTIONAL_DATA
360
4C2
  0
DICTIONARY
  5
4C4
330
4C6
100
AcDbDictionary
280
     1
281
     1
  3
TC_OPTIONAL_DATA
360
4C5
  0
DICTIONARY
  5
4C7
330
4C9
100
AcDbDictionary
280
     1
281
     1
  3
TC_OPTIONAL_DATA
360
4C8
  0
DICTIONARY
  5
4CA
330
4CC
100
AcDbDictionary
280
     1
281
     1
  3
TC_OPTIONAL_DATA
360
4CB
  0
DICTIONARY
  5
4CD
330
4CF
100
AcDbDictionary
280
     1
281
     1
  3
TC_OPTIONAL_DATA
360
4CE
  0
DICTIONARY
  5
4D0
330
4D2
100
AcDbDictionary
280
     1
281
     1
  3
TC_OPTIONAL_DATA
360
4D1
  0
DICTIONARY
  5
D
102
{ACAD_REACTORS
330
C
102
}
330
C
100
AcDbDictionary
281
     1
  0
DICTIONARY
  5
1A
102
{ACAD_REACTORS
330
C
102
}
330
C
100
AcDbDictionary
281
     1
  3
Layout1
350
1E
  3
Layout2
350
3C
  3
Model
350
22
  0
DICTIONARY
  5
17
102
{ACAD_REACTORS
330
C
102
}
330
C
100
AcDbDictionary
281
     1
  3
Standard
350
18
  0
DICTIONARY
  5
19
102
{ACAD_REACTORS
330
C
102
}
330
C
100
AcDbDictionary
281
     1
  0
ACDBDICTIONARYWDFLT
  5
E
102
{ACAD_REACTORS
330
C
102
}
330
C
100
AcDbDictionary
281
     1
  3
Normal
350
F
100
AcDbDictionaryWithDefault
340
F
  0
DICTIONARY
  5
4D7
102
{ACAD_REACTORS
330
C
102
}
330
C
100
AcDbDictionary
281
     1
  0
DICTIONARY
  5
2A
102
{ACAD_REACTORS
330
C
102
}
330
C
100
AcDbDictionary
281
     1
  3
2dWireframe
350
2F
  3
3D Hidden
350
31
  3
3dWireframe
350
30
  3
Basic
350
32
  3
Brighten
350
36
  3
ColorChange
350
3A
  3
Conceptual
350
34
  3
Dim
350
35
  3
Facepattern
350
39
  3
Flat
350
2B
  3
FlatWithEdges
350
2C
  3
Gouraud
350
2D
  3
GouraudWithEdges
350
2E
  3
Linepattern
350
38
  3
Realistic
350
33
  3
Thicken
350
37
  0
TCOPTIONALDATA
  5
5A
102
{ACAD_REACTORS
330
59
102
}
330
59
100
TcOptionalData
 70
     1
 70
    32
 40
-3.0
  0
TCOPTIONALDATA
  5
5D
102
{ACAD_REACTORS
330
5C
102
}
330
5C
100
TcOptionalData
 70
     1
 70
    32
 40
-3.0
  0
TCOPTIONALDATA
  5
60
102
{ACAD_REACTORS
330
5F
102
}
330
5F
100
TcOptionalData
 70
     1
 70
    32
 40
-3.0
  0
TCOPTIONALDATA
  5
63
102
{ACAD_REACTORS
330
62
102
}
330
62
100
TcOptionalData
 70
     1
 70
    32
 40
-3.0
  0
TCOPTIONALDATA
  5
66
102
{ACAD_REACTORS
330
65
102
}
330
65
100
TcOptionalData
 70
     1
 70
    32
 40
-3.0
  0
TCOPTIONALDATA
  5
69
102
{ACAD_REACTORS
330
68
102
}
330
68
100
TcOptionalData
 70
     1
 70
    32
 40
-3.0
  0
TCOPTIONALDATA
  5
6C
102
{ACAD_REACTORS
330
6B
102
}
330
6B
100
TcOptionalData
 70
     1
 70
    32
 40
-3.0
  0
TCOPTIONALDATA
  5
6F
102
{ACAD_REACTORS
330
6E
102
}
330
6E
100
TcOptionalData
 70
     1
 70
    32
 40
-3.0
  0
TCOPTIONALDATA
  5
72
102
{ACAD_REACTORS
330
71
102
}
330
71
100
TcOptionalData
 70
     1
 70
    32
 40
-3.0
  0
TCOPTIONALDATA
  5
75
102
{ACAD_REACTORS
330
74
102
}
330
74
100
TcOptionalData
 70
     1
 70
    32
 40
-3.0
  0
TCOPTIONALDATA
  5
78
102
{ACAD_REACTORS
330
77
102
}
330
77
100
TcOptionalData
 70
     1
 70
    32
 40
-3.0
  0
TCOPTIONALDATA
  5
7B
102
{ACAD_REACTORS
330
7A
102
}
330
7A
100
TcOptionalData
 70
     1
 70
    32
 40
-3.0
  0
TCOPTIONALDATA
  5
7E
102
{ACAD_REACTORS
330
7D
102
}
330
7D
100
TcOptionalData
 70
     1
 70
    32
 40
-3.0
  0
TCOPTIONALDATA
  5
81
102
{ACAD_REACTORS
330
80
102
}
330
80
100
TcOptionalData
 70
     1
 70
    32
 40
-3.0
  0
TCOPTIONALDATA
  5
84
102
{ACAD_REACTORS
330
83
102
}
330
83
100
TcOptionalData
 70
     1
 70
    32
 40
-3.0
  0
TCOPTIONALDATA
  5
87
102
{ACAD_REACTORS
330
86
102
}
330
86
100
TcOptionalData
 70
     1
 70
    32
 40
-3.0
  0
TCOPTIONALDATA
  5
8A
102
{ACAD_REACTORS
330
89
102
}
330
89
100
TcOptionalData
 70
     1
 70
    32
 40
-3.0
  0
TCOPTIONALDATA
  5
8D
102
{ACAD_REACTORS
330
8C
102
}
330
8C
100
TcOptionalData
 70
     1
 70
    32
 40
-3.0
  0
TCOPTIONALDATA
  5
90
102
{ACAD_REACTORS
330
8F
102
}
330
8F
100
TcOptionalData
 70
     1
 70
    32
 40
-3.0
  0
TCOPTIONALDATA
  5
93
102
{ACAD_REACTORS
330
92
102
}
330
92
100
TcOptionalData
 70
     1
 70
    32
 40
-3.0
  0
TCOPTIONALDATA
  5
96
102
{ACAD_REACTORS
330
95
102
}
330
95
100
TcOptionalData
 70
     1
 70
    32
 40
-3.0
  0
TCOPTIONALDATA
  5
99
102
{ACAD_REACTORS
330
98
102
}
330
98
100
TcOptionalData
 70
     1
 70
    32
 40
-3.0
  0
TCOPTIONALDATA
  5
9C
102
{ACAD_REACTORS
330
9B
102
}
330
9B
100
TcOptionalData
 70
     1
 70
    32
 40
-3.0
  0
TCOPTIONALDATA
  5
9F
102
{ACAD_REACTORS
330
9E
102
}
330
9E
100
TcOptionalData
 70
     1
 70
    32
 40
-3.0
  0
TCOPTIONALDATA
  5
A2
102
{ACAD_REACTORS
330
A1
102
}
330
A1
100
TcOptionalData
 70
     1
 70
    32
 40
-3.0
  0
TCOPTIONALDATA
  5
A5
102
{ACAD_REACTORS
330
A4
102
}
330
A4
100
TcOptionalData
 70
     1
 70
    32
 40
-3.0
  0
TCOPTIONALDATA
  5
A8
102
{ACAD_REACTORS
330
A7
102
}
330
A7
100
TcOptionalData
 70
     1
 70
    32
 40
-3.0
  0
TCOPTIONALDATA
  5
AB
102
{ACAD_REACTORS
330
AA
102
}
330
AA
100
TcOptionalData
 70
     1
 70
    32
 40
-3.0
  0
TCOPTIONALDATA
  5
AE
102
{ACAD_REACTORS
330
AD
102
}
330
AD
100
TcOptionalData
 70
     1
 70
    32
 40
-3.0
  0
TCOPTIONALDATA
  5
B1
102
{ACAD_REACTORS
330
B0
102
}
330
B0
100
TcOptionalData
 70
     1
 70
    32
 40
-3.0
  0
TCOPTIONALDATA
  5
B4
102
{ACAD_REACTORS
330
B3
102
}
330
B3
100
TcOptionalData
 70
     1
 70
    32
 40
-3.0
  0
TCOPTIONALDATA
  5
B7
102
{ACAD_REACTORS
330
B6
102
}
330
B6
100
TcOptionalData
 70
     1
 70
    32
 40
-3.0
  0
TCOPTIONALDATA
  5
BA
102
{ACAD_REACTORS
330
B9
102
}
330
B9
100
TcOptionalData
 70
     1
 70
    32
 40
-3.0
  0
TCOPTIONALDATA
  5
BD
102
{ACAD_REACTORS
330
BC
102
}
330
BC
100
TcOptionalData
 70
     1
 70
    32
 40
-3.0
  0
TCOPTIONALDATA
  5
C0
102
{ACAD_REACTORS
330
BF
102
}
330
BF
100
TcOptionalData
 70
     1
 70
    32
 40
-3.0
  0
TCOPTIONALDATA
  5
C3
102
{ACAD_REACTORS
330
C2
102
}
330
C2
100
TcOptionalData
 70
     1
 70
    32
 40
-3.0
  0
TCOPTIONALDATA
  5
C6
102
{ACAD_REACTORS
330
C5
102
}
330
C5
100
TcOptionalData
 70
     1
 70
    32
 40
-3.0
  0
TCOPTIONALDATA
  5
C9
102
{ACAD_REACTORS
330
C8
102
}
330
C8
100
TcOptionalData
 70
     1
 70
    32
 40
-3.0
  0
TCOPTIONALDATA
  5
CC
102
{ACAD_REACTORS
330
CB
102
}
330
CB
100
TcOptionalData
 70
     1
 70
    32
 40
-3.0
  0
TCOPTIONALDATA
  5
CF
102
{ACAD_REACTORS
330
CE
102
}
330
CE
100
TcOptionalData
 70
     1
 70
    32
 40
-3.0
  0
TCOPTIONALDATA
  5
D2
102
{ACAD_REACTORS
330
D1
102
}
330
D1
100
TcOptionalData
 70
     1
 70
    32
 40
-3.0
  0
TCOPTIONALDATA
  5
D5
102
{ACAD_REACTORS
330
D4
102
}
330
D4
100
TcOptionalData
 70
     1
 70
    32
 40
-3.0
  0
TCOPTIONALDATA
  5
D8
102
{ACAD_REACTORS
330
D7
102
}
330
D7
100
TcOptionalData
 70
     1
 70
    32
 40
-3.0
  0
TCOPTIONALDATA
  5
DB
102
{ACAD_REACTORS
330
DA
102
}
330
DA
100
TcOptionalData
 70
     1
 70
    32
 40
-3.0
  0
TCOPTIONALDATA
  5
DE
102
{ACAD_REACTORS
330
DD
102
}
330
DD
100
TcOptionalData
 70
     1
 70
    32
 40
-3.0
  0
TCOPTIONALDATA
  5
E1
102
{ACAD_REACTORS
330
E0
102
}
330
E0
100
TcOptionalData
 70
     1
 70
    32
 40
-3.0
  0
TCOPTIONALDATA
  5
E4
102
{ACAD_REACTORS
330
E3
102
}
330
E3
100
TcOptionalData
 70
     1
 70
    32
 40
-3.0
  0
TCOPTIONALDATA
  5
E7
102
{ACAD_REACTORS
330
E6
102
}
330
E6
100
TcOptionalData
 70
     1
 70
    32
 40
-3.0
  0
TCOPTIONALDATA
  5
EA
102
{ACAD_REACTORS
330
E9
102
}
330
E9
100
TcOptionalData
 70
     1
 70
    32
 40
-3.0
  0
TCOPTIONALDATA
  5
ED
102
{ACAD_REACTORS
330
EC
102
}
330
EC
100
TcOptionalData
 70
     1
 70
    32
 40
-3.0
  0
TCOPTIONALDATA
  5
F0
102
{ACAD_REACTORS
330
EF
102
}
330
EF
100
TcOptionalData
 70
     1
 70
    32
 40
-3.0
  0
TCOPTIONALDATA
  5
F3
102
{ACAD_REACTORS
330
F2
102
}
330
F2
100
TcOptionalData
 70
     1
 70
    32
 40
-3.0
  0
TCOPTIONALDATA
  5
F6
102
{ACAD_REACTORS
330
F5
102
}
330
F5
100
TcOptionalData
 70
     1
 70
    32
 40
-3.0
  0
TCOPTIONALDATA
  5
F9
102
{ACAD_REACTORS
330
F8
102
}
330
F8
100
TcOptionalData
 70
     1
 70
    32
 40
-3.0
  0
TCOPTIONALDATA
  5
FC
102
{ACAD_REACTORS
330
FB
102
}
330
FB
100
TcOptionalData
 70
     1
 70
    32
 40
-3.0
  0
TCOPTIONALDATA
  5
FF
102
{ACAD_REACTORS
330
FE
102
}
330
FE
100
TcOptionalData
 70
     1
 70
    32
 40
-3.0
  0
TCOPTIONALDATA
  5
102
102
{ACAD_REACTORS
330
101
102
}
330
101
100
TcOptionalData
 70
     1
 70
    32
 40
-3.0
  0
TCOPTIONALDATA
  5
105
102
{ACAD_REACTORS
330
104
102
}
330
104
100
TcOptionalData
 70
     1
 70
    32
 40
-3.0
  0
TCOPTIONALDATA
  5
108
102
{ACAD_REACTORS
330
107
102
}
330
107
100
TcOptionalData
 70
     1
 70
    32
 40
-3.0
  0
TCOPTIONALDATA
  5
10B
102
{ACAD_REACTORS
330
10A
102
}
330
10A
100
TcOptionalData
 70
     1
 70
    32
 40
-3.0
  0
TCOPTIONALDATA
  5
10E
102
{ACAD_REACTORS
330
10D
102
}
330
10D
100
TcOptionalData
 70
     1
 70
    32
 40
-3.0
  0
TCOPTIONALDATA
  5
111
102
{ACAD_REACTORS
330
110
102
}
330
110
100
TcOptionalData
 70
     1
 70
    32
 40
-3.0
  0
TCOPTIONALDATA
  5
114
102
{ACAD_REACTORS
330
113
102
}
330
113
100
TcOptionalData
 70
     1
 70
    32
 40
-3.0
  0
TCOPTIONALDATA
  5
117
102
{ACAD_REACTORS
330
116
102
}
330
116
100
TcOptionalData
 70
     1
 70
    32
 40
-3.0
  0
TCOPTIONALDATA
  5
11A
102
{ACAD_REACTORS
330
119
102
}
330
119
100
TcOptionalData
 70
     1
 70
    32
 40
-3.0
  0
TCOPTIONALDATA
  5
11D
102
{ACAD_REACTORS
330
11C
102
}
330
11C
100
TcOptionalData
 70
     1
 70
    32
 40
-3.0
  0
TCOPTIONALDATA
  5
120
102
{ACAD_REACTORS
330
11F
102
}
330
11F
100
TcOptionalData
 70
     1
 70
    32
 40
-3.0
  0
TCOPTIONALDATA
  5
123
102
{ACAD_REACTORS
330
122
102
}
330
122
100
TcOptionalData
 70
     1
 70
    32
 40
-3.0
  0
TCOPTIONALDATA
  5
126
102
{ACAD_REACTORS
330
125
102
}
330
125
100
TcOptionalData
 70
     1
 70
    32
 40
-3.0
  0
TCOPTIONALDATA
  5
129
102
{ACAD_REACTORS
330
128
102
}
330
128
100
TcOptionalData
 70
     1
 70
    32
 40
-3.0
  0
TCOPTIONALDATA
  5
12C
102
{ACAD_REACTORS
330
12B
102
}
330
12B
100
TcOptionalData
 70
     1
 70
    32
 40
-3.0
  0
TCOPTIONALDATA
  5
12F
102
{ACAD_REACTORS
330
12E
102
}
330
12E
100
TcOptionalData
 70
     1
 70
    32
 40
-3.0
  0
TCOPTIONALDATA
  5
132
102
{ACAD_REACTORS
330
131
102
}
330
131
100
TcOptionalData
 70
     1
 70
    32
 40
-3.0
  0
TCOPTIONALDATA
  5
135
102
{ACAD_REACTORS
330
134
102
}
330
134
100
TcOptionalData
 70
     1
 70
    32
 40
-3.0
  0
TCOPTIONALDATA
  5
138
102
{ACAD_REACTORS
330
137
102
}
330
137
100
TcOptionalData
 70
     1
 70
    32
 40
-3.0
  0
TCOPTIONALDATA
  5
13B
102
{ACAD_REACTORS
330
13A
102
}
330
13A
100
TcOptionalData
 70
     1
 70
    32
 40
-3.0
  0
TCOPTIONALDATA
  5
13E
102
{ACAD_REACTORS
330
13D
102
}
330
13D
100
TcOptionalData
 70
     1
 70
    32
 40
-3.0
  0
TCOPTIONALDATA
  5
141
102
{ACAD_REACTORS
330
140
102
}
330
140
100
TcOptionalData
 70
     1
 70
    32
 40
-3.0
  0
TCOPTIONALDATA
  5
144
102
{ACAD_REACTORS
330
143
102
}
330
143
100
TcOptionalData
 70
     1
 70
    32
 40
-3.0
  0
TCOPTIONALDATA
  5
147
102
{ACAD_REACTORS
330
146
102
}
330
146
100
TcOptionalData
 70
     1
 70
    32
 40
-3.0
  0
TCOPTIONALDATA
  5
14A
102
{ACAD_REACTORS
330
149
102
}
330
149
100
TcOptionalData
 70
     1
 70
    32
 40
-3.0
  0
TCOPTIONALDATA
  5
14D
102
{ACAD_REACTORS
330
14C
102
}
330
14C
100
TcOptionalData
 70
     1
 70
    32
 40
-3.0
  0
TCOPTIONALDATA
  5
150
102
{ACAD_REACTORS
330
14F
102
}
330
14F
100
TcOptionalData
 70
     1
 70
    32
 40
-3.0
  0
TCOPTIONALDATA
  5
153
102
{ACAD_REACTORS
330
152
102
}
330
152
100
TcOptionalData
 70
     1
 70
    32
 40
-3.0
  0
TCOPTIONALDATA
  5
156
102
{ACAD_REACTORS
330
155
102
}
330
155
100
TcOptionalData
 70
     1
 70
    32
 40
-3.0
  0
TCOPTIONALDATA
  5
159
102
{ACAD_REACTORS
330
158
102
}
330
158
100
TcOptionalData
 70
     1
 70
    32
 40
-3.0
  0
TCOPTIONALDATA
  5
15C
102
{ACAD_REACTORS
330
15B
102
}
330
15B
100
TcOptionalData
 70
     1
 70
    32
 40
-3.0
  0
TCOPTIONALDATA
  5
15F
102
{ACAD_REACTORS
330
15E
102
}
330
15E
100
TcOptionalData
 70
     1
 70
    32
 40
-3.0
  0
TCOPTIONALDATA
  5
162
102
{ACAD_REACTORS
330
161
102
}
330
161
100
TcOptionalData
 70
     1
 70
    32
 40
-3.0
  0
TCOPTIONALDATA
  5
165
102
{ACAD_REACTORS
330
164
102
}
330
164
100
TcOptionalData
 70
     1
 70
    32
 40
-3.0
  0
TCOPTIONALDATA
  5
168
102
{ACAD_REACTORS
330
167
102
}
330
167
100
TcOptionalData
 70
     1
 70
    32
 40
-3.0
  0
TCOPTIONALDATA
  5
16B
102
{ACAD_REACTORS
330
16A
102
}
330
16A
100
TcOptionalData
 70
     1
 70
    32
 40
-3.0
  0
TCOPTIONALDATA
  5
16E
102
{ACAD_REACTORS
330
16D
102
}
330
16D
100
TcOptionalData
 70
     1
 70
    32
 40
-3.0
  0
TCOPTIONALDATA
  5
171
102
{ACAD_REACTORS
330
170
102
}
330
170
100
TcOptionalData
 70
     1
 70
    32
 40
-3.0
  0
TCOPTIONALDATA
  5
174
102
{ACAD_REACTORS
330
173
102
}
330
173
100
TcOptionalData
 70
     1
 70
    32
 40
-3.0
  0
TCOPTIONALDATA
  5
177
102
{ACAD_REACTORS
330
176
102
}
330
176
100
TcOptionalData
 70
     1
 70
    32
 40
-3.0
  0
TCOPTIONALDATA
  5
17A
102
{ACAD_REACTORS
330
179
102
}
330
179
100
TcOptionalData
 70
     1
 70
    32
 40
-3.0
  0
TCOPTIONALDATA
  5
17D
102
{ACAD_REACTORS
330
17C
102
}
330
17C
100
TcOptionalData
 70
     1
 70
    32
 40
-3.0
  0
TCOPTIONALDATA
  5
180
102
{ACAD_REACTORS
330
17F
102
}
330
17F
100
TcOptionalData
 70
     1
 70
    32
 40
-3.0
  0
TCOPTIONALDATA
  5
183
102
{ACAD_REACTORS
330
182
102
}
330
182
100
TcOptionalData
 70
     1
 70
    32
 40
-3.0
  0
TCOPTIONALDATA
  5
186
102
{ACAD_REACTORS
330
185
102
}
330
185
100
TcOptionalData
 70
     1
 70
    32
 40
-3.0
  0
TCOPTIONALDATA
  5
189
102
{ACAD_REACTORS
330
188
102
}
330
188
100
TcOptionalData
 70
     1
 70
    32
 40
-3.0
  0
TCOPTIONALDATA
  5
18C
102
{ACAD_REACTORS
330
18B
102
}
330
18B
100
TcOptionalData
 70
     1
 70
    32
 40
-3.0
  0
TCOPTIONALDATA
  5
18F
102
{ACAD_REACTORS
330
18E
102
}
330
18E
100
TcOptionalData
 70
     1
 70
    32
 40
-3.0
  0
TCOPTIONALDATA
  5
192
102
{ACAD_REACTORS
330
191
102
}
330
191
100
TcOptionalData
 70
     1
 70
    32
 40
-3.0
  0
TCOPTIONALDATA
  5
195
102
{ACAD_REACTORS
330
194
102
}
330
194
100
TcOptionalData
 70
     1
 70
    32
 40
-3.0
  0
TCOPTIONALDATA
  5
198
102
{ACAD_REACTORS
330
197
102
}
330
197
100
TcOptionalData
 70
     1
 70
    32
 40
-3.0
  0
TCOPTIONALDATA
  5
19B
102
{ACAD_REACTORS
330
19A
102
}
330
19A
100
TcOptionalData
 70
     1
 70
    32
 40
-3.0
  0
TCOPTIONALDATA
  5
19E
102
{ACAD_REACTORS
330
19D
102
}
330
19D
100
TcOptionalData
 70
     1
 70
    32
 40
-3.0
  0
TCOPTIONALDATA
  5
1A1
102
{ACAD_REACTORS
330
1A0
102
}
330
1A0
100
TcOptionalData
 70
     1
 70
    32
 40
-3.0
  0
TCOPTIONALDATA
  5
1A4
102
{ACAD_REACTORS
330
1A3
102
}
330
1A3
100
TcOptionalData
 70
     1
 70
    32
 40
-3.0
  0
TCOPTIONALDATA
  5
1A7
102
{ACAD_REACTORS
330
1A6
102
}
330
1A6
100
TcOptionalData
 70
     1
 70
    32
 40
-3.0
  0
TCOPTIONALDATA
  5
1AA
102
{ACAD_REACTORS
330
1A9
102
}
330
1A9
100
TcOptionalData
 70
     1
 70
    32
 40
-3.0
  0
TCOPTIONALDATA
  5
1AD
102
{ACAD_REACTORS
330
1AC
102
}
330
1AC
100
TcOptionalData
 70
     1
 70
    32
 40
-3.0
  0
TCOPTIONALDATA
  5
1B0
102
{ACAD_REACTORS
330
1AF
102
}
330
1AF
100
TcOptionalData
 70
     1
 70
    32
 40
-3.0
  0
TCOPTIONALDATA
  5
1B3
102
{ACAD_REACTORS
330
1B2
102
}
330
1B2
100
TcOptionalData
 70
     1
 70
    32
 40
-3.0
  0
TCOPTIONALDATA
  5
1B6
102
{ACAD_REACTORS
330
1B5
102
}
330
1B5
100
TcOptionalData
 70
     1
 70
    32
 40
-3.0
  0
TCOPTIONALDATA
  5
1B9
102
{ACAD_REACTORS
330
1B8
102
}
330
1B8
100
TcOptionalData
 70
     1
 70
    32
 40
-3.0
  0
TCOPTIONALDATA
  5
1BC
102
{ACAD_REACTORS
330
1BB
102
}
330
1BB
100
TcOptionalData
 70
     1
 70
    32
 40
-3.0
  0
TCOPTIONALDATA
  5
1BF
102
{ACAD_REACTORS
330
1BE
102
}
330
1BE
100
TcOptionalData
 70
     1
 70
    32
 40
-3.0
  0
TCOPTIONALDATA
  5
1C2
102
{ACAD_REACTORS
330
1C1
102
}
330
1C1
100
TcOptionalData
 70
     1
 70
    32
 40
-3.0
  0
TCOPTIONALDATA
  5
1C5
102
{ACAD_REACTORS
330
1C4
102
}
330
1C4
100
TcOptionalData
 70
     1
 70
    32
 40
-3.0
  0
TCOPTIONALDATA
  5
1C8
102
{ACAD_REACTORS
330
1C7
102
}
330
1C7
100
TcOptionalData
 70
     1
 70
    32
 40
-3.0
  0
TCOPTIONALDATA
  5
1CB
102
{ACAD_REACTORS
330
1CA
102
}
330
1CA
100
TcOptionalData
 70
     1
 70
    32
 40
-3.0
  0
TCOPTIONALDATA
  5
1CE
102
{ACAD_REACTORS
330
1CD
102
}
330
1CD
100
TcOptionalData
 70
     1
 70
    32
 40
-3.0
  0
TCOPTIONALDATA
  5
1D1
102
{ACAD_REACTORS
330
1D0
102
}
330
1D0
100
TcOptionalData
 70
     1
 70
    32
 40
-3.0
  0
TCOPTIONALDATA
  5
1D4
102
{ACAD_REACTORS
330
1D3
102
}
330
1D3
100
TcOptionalData
 70
     1
 70
    32
 40
-3.0
  0
TCOPTIONALDATA
  5
1D7
102
{ACAD_REACTORS
330
1D6
102
}
330
1D6
100
TcOptionalData
 70
     1
 70
    32
 40
-3.0
  0
TCOPTIONALDATA
  5
1DA
102
{ACAD_REACTORS
330
1D9
102
}
330
1D9
100
TcOptionalData
 70
     1
 70
    32
 40
-3.0
  0
TCOPTIONALDATA
  5
1DD
102
{ACAD_REACTORS
330
1DC
102
}
330
1DC
100
TcOptionalData
 70
     1
 70
    32
 40
-3.0
  0
TCOPTIONALDATA
  5
1E0
102
{ACAD_REACTORS
330
1DF
102
}
330
1DF
100
TcOptionalData
 70
     1
 70
    32
 40
-3.0
  0
TCOPTIONALDATA
  5
1E3
102
{ACAD_REACTORS
330
1E2
102
}
330
1E2
100
TcOptionalData
 70
     1
 70
    32
 40
-3.0
  0
TCOPTIONALDATA
  5
1E6
102
{ACAD_REACTORS
330
1E5
102
}
330
1E5
100
TcOptionalData
 70
     1
 70
    32
 40
-3.0
  0
TCOPTIONALDATA
  5
1E9
102
{ACAD_REACTORS
330
1E8
102
}
330
1E8
100
TcOptionalData
 70
     1
 70
    32
 40
-3.0
  0
TCOPTIONALDATA
  5
1EC
102
{ACAD_REACTORS
330
1EB
102
}
330
1EB
100
TcOptionalData
 70
     1
 70
    32
 40
-3.0
  0
TCOPTIONALDATA
  5
1EF
102
{ACAD_REACTORS
330
1EE
102
}
330
1EE
100
TcOptionalData
 70
     1
 70
    32
 40
-3.0
  0
TCOPTIONALDATA
  5
1F2
102
{ACAD_REACTORS
330
1F1
102
}
330
1F1
100
TcOptionalData
 70
     1
 70
    32
 40
-3.0
  0
TCOPTIONALDATA
  5
1F5
102
{ACAD_REACTORS
330
1F4
102
}
330
1F4
100
TcOptionalData
 70
     1
 70
    32
 40
-3.0
  0
TCOPTIONALDATA
  5
1F8
102
{ACAD_REACTORS
330
1F7
102
}
330
1F7
100
TcOptionalData
 70
     1
 70
    32
 40
-3.0
  0
TCOPTIONALDATA
  5
1FB
102
{ACAD_REACTORS
330
1FA
102
}
330
1FA
100
TcOptionalData
 70
     1
 70
    32
 40
-3.0
  0
TCOPTIONALDATA
  5
1FE
102
{ACAD_REACTORS
330
1FD
102
}
330
1FD
100
TcOptionalData
 70
     1
 70
    32
 40
-3.0
  0
TCOPTIONALDATA
  5
201
102
{ACAD_REACTORS
330
200
102
}
330
200
100
TcOptionalData
 70
     1
 70
    32
 40
-3.0
  0
TCOPTIONALDATA
  5
204
102
{ACAD_REACTORS
330
203
102
}
330
203
100
TcOptionalData
 70
     1
 70
    32
 40
-3.0
  0
TCOPTIONALDATA
  5
207
102
{ACAD_REACTORS
330
206
102
}
330
206
100
TcOptionalData
 70
     1
 70
    32
 40
-3.0
  0
TCOPTIONALDATA
  5
20A
102
{ACAD_REACTORS
330
209
102
}
330
209
100
TcOptionalData
 70
     1
 70
    32
 40
-3.0
  0
TCOPTIONALDATA
  5
20D
102
{ACAD_REACTORS
330
20C
102
}
330
20C
100
TcOptionalData
 70
     1
 70
    32
 40
-3.0
  0
TCOPTIONALDATA
  5
210
102
{ACAD_REACTORS
330
20F
102
}
330
20F
100
TcOptionalData
 70
     1
 70
    32
 40
-3.0
  0
TCOPTIONALDATA
  5
213
102
{ACAD_REACTORS
330
212
102
}
330
212
100
TcOptionalData
 70
     1
 70
    32
 40
-3.0
  0
TCOPTIONALDATA
  5
216
102
{ACAD_REACTORS
330
215
102
}
330
215
100
TcOptionalData
 70
     1
 70
    32
 40
-3.0
  0
TCOPTIONALDATA
  5
219
102
{ACAD_REACTORS
330
218
102
}
330
218
100
TcOptionalData
 70
     1
 70
    32
 40
-3.0
  0
TCOPTIONALDATA
  5
21C
102
{ACAD_REACTORS
330
21B
102
}
330
21B
100
TcOptionalData
 70
     1
 70
    32
 40
-3.0
  0
TCOPTIONALDATA
  5
21F
102
{ACAD_REACTORS
330
21E
102
}
330
21E
100
TcOptionalData
 70
     1
 70
    32
 40
-3.0
  0
TCOPTIONALDATA
  5
222
102
{ACAD_REACTORS
330
221
102
}
330
221
100
TcOptionalData
 70
     1
 70
    32
 40
-3.0
  0
TCOPTIONALDATA
  5
225
102
{ACAD_REACTORS
330
224
102
}
330
224
100
TcOptionalData
 70
     1
 70
    32
 40
-3.0
  0
TCOPTIONALDATA
  5
228
102
{ACAD_REACTORS
330
227
102
}
330
227
100
TcOptionalData
 70
     1
 70
    32
 40
-3.0
  0
TCOPTIONALDATA
  5
22B
102
{ACAD_REACTORS
330
22A
102
}
330
22A
100
TcOptionalData
 70
     1
 70
    32
 40
-3.0
  0
TCOPTIONALDATA
  5
22E
102
{ACAD_REACTORS
330
22D
102
}
330
22D
100
TcOptionalData
 70
     1
 70
    32
 40
-3.0
  0
TCOPTIONALDATA
  5
231
102
{ACAD_REACTORS
330
230
102
}
330
230
100
TcOptionalData
 70
     1
 70
    32
 40
-3.0
  0
TCOPTIONALDATA
  5
234
102
{ACAD_REACTORS
330
233
102
}
330
233
100
TcOptionalData
 70
     1
 70
    32
 40
-3.0
  0
TCOPTIONALDATA
  5
237
102
{ACAD_REACTORS
330
236
102
}
330
236
100
TcOptionalData
 70
     1
 70
    32
 40
-3.0
  0
TCOPTIONALDATA
  5
23A
102
{ACAD_REACTORS
330
239
102
}
330
239
100
TcOptionalData
 70
     1
 70
    32
 40
-3.0
  0
TCOPTIONALDATA
  5
23D
102
{ACAD_REACTORS
330
23C
102
}
330
23C
100
TcOptionalData
 70
     1
 70
    32
 40
-3.0
  0
TCOPTIONALDATA
  5
240
102
{ACAD_REACTORS
330
23F
102
}
330
23F
100
TcOptionalData
 70
     1
 70
    32
 40
-3.0
  0
TCOPTIONALDATA
  5
243
102
{ACAD_REACTORS
330
242
102
}
330
242
100
TcOptionalData
 70
     1
 70
    32
 40
-3.0
  0
TCOPTIONALDATA
  5
246
102
{ACAD_REACTORS
330
245
102
}
330
245
100
TcOptionalData
 70
     1
 70
    32
 40
-3.0
  0
TCOPTIONALDATA
  5
249
102
{ACAD_REACTORS
330
248
102
}
330
248
100
TcOptionalData
 70
     1
 70
    32
 40
-3.0
  0
TCOPTIONALDATA
  5
24C
102
{ACAD_REACTORS
330
24B
102
}
330
24B
100
TcOptionalData
 70
     1
 70
    32
 40
-3.0
  0
TCOPTIONALDATA
  5
24F
102
{ACAD_REACTORS
330
24E
102
}
330
24E
100
TcOptionalData
 70
     1
 70
    32
 40
-3.0
  0
TCOPTIONALDATA
  5
252
102
{ACAD_REACTORS
330
251
102
}
330
251
100
TcOptionalData
 70
     1
 70
    32
 40
-3.0
  0
TCOPTIONALDATA
  5
255
102
{ACAD_REACTORS
330
254
102
}
330
254
100
TcOptionalData
 70
     1
 70
    32
 40
-3.0
  0
TCOPTIONALDATA
  5
258
102
{ACAD_REACTORS
330
257
102
}
330
257
100
TcOptionalData
 70
     1
 70
    32
 40
-3.0
  0
TCOPTIONALDATA
  5
25B
102
{ACAD_REACTORS
330
25A
102
}
330
25A
100
TcOptionalData
 70
     1
 70
    32
 40
-3.0
  0
TCOPTIONALDATA
  5
25E
102
{ACAD_REACTORS
330
25D
102
}
330
25D
100
TcOptionalData
 70
     1
 70
    32
 40
-3.0
  0
TCOPTIONALDATA
  5
261
102
{ACAD_REACTORS
330
260
102
}
330
260
100
TcOptionalData
 70
     1
 70
    32
 40
-3.0
  0
TCOPTIONALDATA
  5
264
102
{ACAD_REACTORS
330
263
102
}
330
263
100
TcOptionalData
 70
     1
 70
    32
 40
-3.0
  0
TCOPTIONALDATA
  5
267
102
{ACAD_REACTORS
330
266
102
}
330
266
100
TcOptionalData
 70
     1
 70
    32
 40
-3.0
  0
TCOPTIONALDATA
  5
26A
102
{ACAD_REACTORS
330
269
102
}
330
269
100
TcOptionalData
 70
     1
 70
    32
 40
-3.0
  0
TCOPTIONALDATA
  5
26D
102
{ACAD_REACTORS
330
26C
102
}
330
26C
100
TcOptionalData
 70
     1
 70
    32
 40
-3.0
  0
TCOPTIONALDATA
  5
270
102
{ACAD_REACTORS
330
26F
102
}
330
26F
100
TcOptionalData
 70
     1
 70
    32
 40
-3.0
  0
TCOPTIONALDATA
  5
273
102
{ACAD_REACTORS
330
272
102
}
330
272
100
TcOptionalData
 70
     1
 70
    32
 40
-3.0
  0
TCOPTIONALDATA
  5
276
102
{ACAD_REACTORS
330
275
102
}
330
275
100
TcOptionalData
 70
     1
 70
    32
 40
-3.0
  0
TCOPTIONALDATA
  5
279
102
{ACAD_REACTORS
330
278
102
}
330
278
100
TcOptionalData
 70
     1
 70
    32
 40
-3.0
  0
TCOPTIONALDATA
  5
27C
102
{ACAD_REACTORS
330
27B
102
}
330
27B
100
TcOptionalData
 70
     1
 70
    32
 40
-3.0
  0
TCOPTIONALDATA
  5
27F
102
{ACAD_REACTORS
330
27E
102
}
330
27E
100
TcOptionalData
 70
     1
 70
    32
 40
-3.0
  0
TCOPTIONALDATA
  5
282
102
{ACAD_REACTORS
330
281
102
}
330
281
100
TcOptionalData
 70
     1
 70
    32
 40
-3.0
  0
TCOPTIONALDATA
  5
285
102
{ACAD_REACTORS
330
284
102
}
330
284
100
TcOptionalData
 70
     1
 70
    32
 40
-3.0
  0
TCOPTIONALDATA
  5
288
102
{ACAD_REACTORS
330
287
102
}
330
287
100
TcOptionalData
 70
     1
 70
    32
 40
-3.0
  0
TCOPTIONALDATA
  5
28B
102
{ACAD_REACTORS
330
28A
102
}
330
28A
100
TcOptionalData
 70
     1
 70
    32
 40
-3.0
  0
TCOPTIONALDATA
  5
28E
102
{ACAD_REACTORS
330
28D
102
}
330
28D
100
TcOptionalData
 70
     1
 70
    32
 40
-3.0
  0
TCOPTIONALDATA
  5
291
102
{ACAD_REACTORS
330
290
102
}
330
290
100
TcOptionalData
 70
     1
 70
    32
 40
-3.0
  0
TCOPTIONALDATA
  5
294
102
{ACAD_REACTORS
330
293
102
}
330
293
100
TcOptionalData
 70
     1
 70
    32
 40
-3.0
  0
TCOPTIONALDATA
  5
297
102
{ACAD_REACTORS
330
296
102
}
330
296
100
TcOptionalData
 70
     1
 70
    32
 40
-3.0
  0
TCOPTIONALDATA
  5
29A
102
{ACAD_REACTORS
330
299
102
}
330
299
100
TcOptionalData
 70
     1
 70
    32
 40
-3.0
  0
TCOPTIONALDATA
  5
29D
102
{ACAD_REACTORS
330
29C
102
}
330
29C
100
TcOptionalData
 70
     1
 70
    32
 40
-3.0
  0
TCOPTIONALDATA
  5
2A0
102
{ACAD_REACTORS
330
29F
102
}
330
29F
100
TcOptionalData
 70
     1
 70
    32
 40
-3.0
  0
TCOPTIONALDATA
  5
2A3
102
{ACAD_REACTORS
330
2A2
102
}
330
2A2
100
TcOptionalData
 70
     1
 70
    32
 40
-3.0
  0
TCOPTIONALDATA
  5
2A6
102
{ACAD_REACTORS
330
2A5
102
}
330
2A5
100
TcOptionalData
 70
     1
 70
    32
 40
-3.0
  0
TCOPTIONALDATA
  5
2A9
102
{ACAD_REACTORS
330
2A8
102
}
330
2A8
100
TcOptionalData
 70
     1
 70
    32
 40
-3.0
  0
TCOPTIONALDATA
  5
2AC
102
{ACAD_REACTORS
330
2AB
102
}
330
2AB
100
TcOptionalData
 70
     1
 70
    32
 40
-3.0
  0
TCOPTIONALDATA
  5
2AF
102
{ACAD_REACTORS
330
2AE
102
}
330
2AE
100
TcOptionalData
 70
     1
 70
    32
 40
-3.0
  0
TCOPTIONALDATA
  5
2B2
102
{ACAD_REACTORS
330
2B1
102
}
330
2B1
100
TcOptionalData
 70
     1
 70
    32
 40
-3.0
  0
TCOPTIONALDATA
  5
2B5
102
{ACAD_REACTORS
330
2B4
102
}
330
2B4
100
TcOptionalData
 70
     1
 70
    32
 40
-3.0
  0
TCOPTIONALDATA
  5
2B8
102
{ACAD_REACTORS
330
2B7
102
}
330
2B7
100
TcOptionalData
 70
     1
 70
    32
 40
-3.0
  0
TCOPTIONALDATA
  5
2BB
102
{ACAD_REACTORS
330
2BA
102
}
330
2BA
100
TcOptionalData
 70
     1
 70
    32
 40
-3.0
  0
TCOPTIONALDATA
  5
2BE
102
{ACAD_REACTORS
330
2BD
102
}
330
2BD
100
TcOptionalData
 70
     1
 70
    32
 40
-3.0
  0
TCOPTIONALDATA
  5
2C1
102
{ACAD_REACTORS
330
2C0
102
}
330
2C0
100
TcOptionalData
 70
     1
 70
    32
 40
-3.0
  0
TCOPTIONALDATA
  5
2C4
102
{ACAD_REACTORS
330
2C3
102
}
330
2C3
100
TcOptionalData
 70
     1
 70
    32
 40
-3.0
  0
TCOPTIONALDATA
  5
2C7
102
{ACAD_REACTORS
330
2C6
102
}
330
2C6
100
TcOptionalData
 70
     1
 70
    32
 40
-3.0
  0
TCOPTIONALDATA
  5
2CA
102
{ACAD_REACTORS
330
2C9
102
}
330
2C9
100
TcOptionalData
 70
     1
 70
    32
 40
-3.0
  0
TCOPTIONALDATA
  5
2CD
102
{ACAD_REACTORS
330
2CC
102
}
330
2CC
100
TcOptionalData
 70
     1
 70
    32
 40
-3.0
  0
TCOPTIONALDATA
  5
2D0
102
{ACAD_REACTORS
330
2CF
102
}
330
2CF
100
TcOptionalData
 70
     1
 70
    32
 40
-3.0
  0
TCOPTIONALDATA
  5
2D3
102
{ACAD_REACTORS
330
2D2
102
}
330
2D2
100
TcOptionalData
 70
     1
 70
    32
 40
-3.0
  0
TCOPTIONALDATA
  5
2D6
102
{ACAD_REACTORS
330
2D5
102
}
330
2D5
100
TcOptionalData
 70
     1
 70
    32
 40
-3.0
  0
TCOPTIONALDATA
  5
2D9
102
{ACAD_REACTORS
330
2D8
102
}
330
2D8
100
TcOptionalData
 70
     1
 70
    32
 40
-3.0
  0
TCOPTIONALDATA
  5
2DC
102
{ACAD_REACTORS
330
2DB
102
}
330
2DB
100
TcOptionalData
 70
     1
 70
    32
 40
-3.0
  0
TCOPTIONALDATA
  5
2DF
102
{ACAD_REACTORS
330
2DE
102
}
330
2DE
100
TcOptionalData
 70
     1
 70
    32
 40
-3.0
  0
TCOPTIONALDATA
  5
2E2
102
{ACAD_REACTORS
330
2E1
102
}
330
2E1
100
TcOptionalData
 70
     1
 70
    32
 40
-3.0
  0
TCOPTIONALDATA
  5
2E5
102
{ACAD_REACTORS
330
2E4
102
}
330
2E4
100
TcOptionalData
 70
     1
 70
    32
 40
-3.0
  0
TCOPTIONALDATA
  5
2E8
102
{ACAD_REACTORS
330
2E7
102
}
330
2E7
100
TcOptionalData
 70
     1
 70
    32
 40
-3.0
  0
TCOPTIONALDATA
  5
2EB
102
{ACAD_REACTORS
330
2EA
102
}
330
2EA
100
TcOptionalData
 70
     1
 70
    32
 40
-3.0
  0
TCOPTIONALDATA
  5
2EE
102
{ACAD_REACTORS
330
2ED
102
}
330
2ED
100
TcOptionalData
 70
     1
 70
    32
 40
-3.0
  0
TCOPTIONALDATA
  5
2F1
102
{ACAD_REACTORS
330
2F0
102
}
330
2F0
100
TcOptionalData
 70
     1
 70
    32
 40
-3.0
  0
TCOPTIONALDATA
  5
2F4
102
{ACAD_REACTORS
330
2F3
102
}
330
2F3
100
TcOptionalData
 70
     1
 70
    32
 40
-3.0
  0
TCOPTIONALDATA
  5
2F7
102
{ACAD_REACTORS
330
2F6
102
}
330
2F6
100
TcOptionalData
 70
     1
 70
    32
 40
-3.0
  0
TCOPTIONALDATA
  5
2FA
102
{ACAD_REACTORS
330
2F9
102
}
330
2F9
100
TcOptionalData
 70
     1
 70
    32
 40
-3.0
  0
TCOPTIONALDATA
  5
2FD
102
{ACAD_REACTORS
330
2FC
102
}
330
2FC
100
TcOptionalData
 70
     1
 70
    32
 40
-3.0
  0
TCOPTIONALDATA
  5
300
102
{ACAD_REACTORS
330
2FF
102
}
330
2FF
100
TcOptionalData
 70
     1
 70
    32
 40
-3.0
  0
TCOPTIONALDATA
  5
303
102
{ACAD_REACTORS
330
302
102
}
330
302
100
TcOptionalData
 70
     1
 70
    32
 40
-3.0
  0
TCOPTIONALDATA
  5
306
102
{ACAD_REACTORS
330
305
102
}
330
305
100
TcOptionalData
 70
     1
 70
    32
 40
-3.0
  0
TCOPTIONALDATA
  5
309
102
{ACAD_REACTORS
330
308
102
}
330
308
100
TcOptionalData
 70
     1
 70
    32
 40
-3.0
  0
TCOPTIONALDATA
  5
30C
102
{ACAD_REACTORS
330
30B
102
}
330
30B
100
TcOptionalData
 70
     1
 70
    32
 40
-3.0
  0
TCOPTIONALDATA
  5
30F
102
{ACAD_REACTORS
330
30E
102
}
330
30E
100
TcOptionalData
 70
     1
 70
    32
 40
-3.0
  0
TCOPTIONALDATA
  5
312
102
{ACAD_REACTORS
330
311
102
}
330
311
100
TcOptionalData
 70
     1
 70
    32
 40
-3.0
  0
TCOPTIONALDATA
  5
315
102
{ACAD_REACTORS
330
314
102
}
330
314
100
TcOptionalData
 70
     1
 70
    32
 40
-3.0
  0
TCOPTIONALDATA
  5
318
102
{ACAD_REACTORS
330
317
102
}
330
317
100
TcOptionalData
 70
     1
 70
    32
 40
-3.0
  0
TCOPTIONALDATA
  5
31B
102
{ACAD_REACTORS
330
31A
102
}
330
31A
100
TcOptionalData
 70
     1
 70
    32
 40
-3.0
  0
TCOPTIONALDATA
  5
31E
102
{ACAD_REACTORS
330
31D
102
}
330
31D
100
TcOptionalData
 70
     1
 70
    32
 40
-3.0
  0
TCOPTIONALDATA
  5
321
102
{ACAD_REACTORS
330
320
102
}
330
320
100
TcOptionalData
 70
     1
 70
    32
 40
-3.0
  0
TCOPTIONALDATA
  5
324
102
{ACAD_REACTORS
330
323
102
}
330
323
100
TcOptionalData
 70
     1
 70
    32
 40
-3.0
  0
TCOPTIONALDATA
  5
327
102
{ACAD_REACTORS
330
326
102
}
330
326
100
TcOptionalData
 70
     1
 70
    32
 40
-3.0
  0
TCOPTIONALDATA
  5
32A
102
{ACAD_REACTORS
330
329
102
}
330
329
100
TcOptionalData
 70
     1
 70
    32
 40
-3.0
  0
TCOPTIONALDATA
  5
32D
102
{ACAD_REACTORS
330
32C
102
}
330
32C
100
TcOptionalData
 70
     1
 70
    32
 40
-3.0
  0
TCOPTIONALDATA
  5
330
102
{ACAD_REACTORS
330
32F
102
}
330
32F
100
TcOptionalData
 70
     1
 70
    32
 40
-3.0
  0
TCOPTIONALDATA
  5
333
102
{ACAD_REACTORS
330
332
102
}
330
332
100
TcOptionalData
 70
     1
 70
    32
 40
-3.0
  0
TCOPTIONALDATA
  5
336
102
{ACAD_REACTORS
330
335
102
}
330
335
100
TcOptionalData
 70
     1
 70
    32
 40
-3.0
  0
TCOPTIONALDATA
  5
339
102
{ACAD_REACTORS
330
338
102
}
330
338
100
TcOptionalData
 70
     1
 70
    32
 40
-3.0
  0
TCOPTIONALDATA
  5
33C
102
{ACAD_REACTORS
330
33B
102
}
330
33B
100
TcOptionalData
 70
     1
 70
    32
 40
-3.0
  0
TCOPTIONALDATA
  5
33F
102
{ACAD_REACTORS
330
33E
102
}
330
33E
100
TcOptionalData
 70
     1
 70
    32
 40
-3.0
  0
TCOPTIONALDATA
  5
342
102
{ACAD_REACTORS
330
341
102
}
330
341
100
TcOptionalData
 70
     1
 70
    32
 40
-3.0
  0
TCOPTIONALDATA
  5
345
102
{ACAD_REACTORS
330
344
102
}
330
344
100
TcOptionalData
 70
     1
 70
    32
 40
-3.0
  0
TCOPTIONALDATA
  5
348
102
{ACAD_REACTORS
330
347
102
}
330
347
100
TcOptionalData
 70
     1
 70
    32
 40
-3.0
  0
TCOPTIONALDATA
  5
34B
102
{ACAD_REACTORS
330
34A
102
}
330
34A
100
TcOptionalData
 70
     1
 70
    32
 40
-3.0
  0
TCOPTIONALDATA
  5
34E
102
{ACAD_REACTORS
330
34D
102
}
330
34D
100
TcOptionalData
 70
     1
 70
    32
 40
-3.0
  0
TCOPTIONALDATA
  5
351
102
{ACAD_REACTORS
330
350
102
}
330
350
100
TcOptionalData
 70
     1
 70
    32
 40
-3.0
  0
TCOPTIONALDATA
  5
354
102
{ACAD_REACTORS
330
353
102
}
330
353
100
TcOptionalData
 70
     1
 70
    32
 40
-3.0
  0
TCOPTIONALDATA
  5
357
102
{ACAD_REACTORS
330
356
102
}
330
356
100
TcOptionalData
 70
     1
 70
    32
 40
-3.0
  0
TCOPTIONALDATA
  5
35A
102
{ACAD_REACTORS
330
359
102
}
330
359
100
TcOptionalData
 70
     1
 70
    32
 40
-3.0
  0
TCOPTIONALDATA
  5
35D
102
{ACAD_REACTORS
330
35C
102
}
330
35C
100
TcOptionalData
 70
     1
 70
    32
 40
-3.0
  0
TCOPTIONALDATA
  5
360
102
{ACAD_REACTORS
330
35F
102
}
330
35F
100
TcOptionalData
 70
     1
 70
    32
 40
-3.0
  0
TCOPTIONALDATA
  5
363
102
{ACAD_REACTORS
330
362
102
}
330
362
100
TcOptionalData
 70
     1
 70
    32
 40
-3.0
  0
TCOPTIONALDATA
  5
366
102
{ACAD_REACTORS
330
365
102
}
330
365
100
TcOptionalData
 70
     1
 70
    32
 40
-3.0
  0
TCOPTIONALDATA
  5
369
102
{ACAD_REACTORS
330
368
102
}
330
368
100
TcOptionalData
 70
     1
 70
    32
 40
-3.0
  0
TCOPTIONALDATA
  5
36C
102
{ACAD_REACTORS
330
36B
102
}
330
36B
100
TcOptionalData
 70
     1
 70
    32
 40
-3.0
  0
TCOPTIONALDATA
  5
36F
102
{ACAD_REACTORS
330
36E
102
}
330
36E
100
TcOptionalData
 70
     1
 70
    32
 40
-3.0
  0
TCOPTIONALDATA
  5
372
102
{ACAD_REACTORS
330
371
102
}
330
371
100
TcOptionalData
 70
     1
 70
    32
 40
-3.0
  0
TCOPTIONALDATA
  5
375
102
{ACAD_REACTORS
330
374
102
}
330
374
100
TcOptionalData
 70
     1
 70
    32
 40
-3.0
  0
TCOPTIONALDATA
  5
378
102
{ACAD_REACTORS
330
377
102
}
330
377
100
TcOptionalData
 70
     1
 70
    32
 40
-3.0
  0
TCOPTIONALDATA
  5
37B
102
{ACAD_REACTORS
330
37A
102
}
330
37A
100
TcOptionalData
 70
     1
 70
    32
 40
-3.0
  0
TCOPTIONALDATA
  5
37E
102
{ACAD_REACTORS
330
37D
102
}
330
37D
100
TcOptionalData
 70
     1
 70
    32
 40
-3.0
  0
TCOPTIONALDATA
  5
381
102
{ACAD_REACTORS
330
380
102
}
330
380
100
TcOptionalData
 70
     1
 70
    32
 40
-3.0
  0
TCOPTIONALDATA
  5
384
102
{ACAD_REACTORS
330
383
102
}
330
383
100
TcOptionalData
 70
     1
 70
    32
 40
-3.0
  0
TCOPTIONALDATA
  5
387
102
{ACAD_REACTORS
330
386
102
}
330
386
100
TcOptionalData
 70
     1
 70
    32
 40
-3.0
  0
TCOPTIONALDATA
  5
38A
102
{ACAD_REACTORS
330
389
102
}
330
389
100
TcOptionalData
 70
     1
 70
    32
 40
-3.0
  0
TCOPTIONALDATA
  5
38D
102
{ACAD_REACTORS
330
38C
102
}
330
38C
100
TcOptionalData
 70
     1
 70
    32
 40
-3.0
  0
TCOPTIONALDATA
  5
390
102
{ACAD_REACTORS
330
38F
102
}
330
38F
100
TcOptionalData
 70
     1
 70
    32
 40
-3.0
  0
TCOPTIONALDATA
  5
393
102
{ACAD_REACTORS
330
392
102
}
330
392
100
TcOptionalData
 70
     1
 70
    32
 40
-3.0
  0
TCOPTIONALDATA
  5
396
102
{ACAD_REACTORS
330
395
102
}
330
395
100
TcOptionalData
 70
     1
 70
    32
 40
-3.0
  0
TCOPTIONALDATA
  5
399
102
{ACAD_REACTORS
330
398
102
}
330
398
100
TcOptionalData
 70
     1
 70
    32
 40
-3.0
  0
TCOPTIONALDATA
  5
39C
102
{ACAD_REACTORS
330
39B
102
}
330
39B
100
TcOptionalData
 70
     1
 70
    32
 40
-3.0
  0
TCOPTIONALDATA
  5
39F
102
{ACAD_REACTORS
330
39E
102
}
330
39E
100
TcOptionalData
 70
     1
 70
    32
 40
-3.0
  0
TCOPTIONALDATA
  5
3A2
102
{ACAD_REACTORS
330
3A1
102
}
330
3A1
100
TcOptionalData
 70
     1
 70
    32
 40
-3.0
  0
TCOPTIONALDATA
  5
3A5
102
{ACAD_REACTORS
330
3A4
102
}
330
3A4
100
TcOptionalData
 70
     1
 70
    32
 40
-3.0
  0
TCOPTIONALDATA
  5
3A8
102
{ACAD_REACTORS
330
3A7
102
}
330
3A7
100
TcOptionalData
 70
     1
 70
    32
 40
-3.0
  0
TCOPTIONALDATA
  5
3AB
102
{ACAD_REACTORS
330
3AA
102
}
330
3AA
100
TcOptionalData
 70
     1
 70
    32
 40
-3.0
  0
TCOPTIONALDATA
  5
3AE
102
{ACAD_REACTORS
330
3AD
102
}
330
3AD
100
TcOptionalData
 70
     1
 70
    32
 40
-3.0
  0
TCOPTIONALDATA
  5
3B1
102
{ACAD_REACTORS
330
3B0
102
}
330
3B0
100
TcOptionalData
 70
     1
 70
    32
 40
-3.0
  0
TCOPTIONALDATA
  5
3B4
102
{ACAD_REACTORS
330
3B3
102
}
330
3B3
100
TcOptionalData
 70
     1
 70
    32
 40
-3.0
  0
TCOPTIONALDATA
  5
3B7
102
{ACAD_REACTORS
330
3B6
102
}
330
3B6
100
TcOptionalData
 70
     1
 70
    32
 40
-3.0
  0
TCOPTIONALDATA
  5
3BA
102
{ACAD_REACTORS
330
3B9
102
}
330
3B9
100
TcOptionalData
 70
     1
 70
    32
 40
-3.0
  0
TCOPTIONALDATA
  5
3BD
102
{ACAD_REACTORS
330
3BC
102
}
330
3BC
100
TcOptionalData
 70
     1
 70
    32
 40
-3.0
  0
TCOPTIONALDATA
  5
3C0
102
{ACAD_REACTORS
330
3BF
102
}
330
3BF
100
TcOptionalData
 70
     1
 70
    32
 40
-3.0
  0
TCOPTIONALDATA
  5
3C3
102
{ACAD_REACTORS
330
3C2
102
}
330
3C2
100
TcOptionalData
 70
     1
 70
    32
 40
-3.0
  0
TCOPTIONALDATA
  5
3C6
102
{ACAD_REACTORS
330
3C5
102
}
330
3C5
100
TcOptionalData
 70
     1
 70
    32
 40
-3.0
  0
TCOPTIONALDATA
  5
3C9
102
{ACAD_REACTORS
330
3C8
102
}
330
3C8
100
TcOptionalData
 70
     1
 70
    32
 40
-3.0
  0
TCOPTIONALDATA
  5
3CC
102
{ACAD_REACTORS
330
3CB
102
}
330
3CB
100
TcOptionalData
 70
     1
 70
    32
 40
-3.0
  0
TCOPTIONALDATA
  5
3CF
102
{ACAD_REACTORS
330
3CE
102
}
330
3CE
100
TcOptionalData
 70
     1
 70
    32
 40
-3.0
  0
TCOPTIONALDATA
  5
3D2
102
{ACAD_REACTORS
330
3D1
102
}
330
3D1
100
TcOptionalData
 70
     1
 70
    32
 40
-3.0
  0
TCOPTIONALDATA
  5
3D5
102
{ACAD_REACTORS
330
3D4
102
}
330
3D4
100
TcOptionalData
 70
     1
 70
    32
 40
-3.0
  0
TCOPTIONALDATA
  5
3D8
102
{ACAD_REACTORS
330
3D7
102
}
330
3D7
100
TcOptionalData
 70
     1
 70
    32
 40
-3.0
  0
TCOPTIONALDATA
  5
3DB
102
{ACAD_REACTORS
330
3DA
102
}
330
3DA
100
TcOptionalData
 70
     1
 70
    32
 40
-3.0
  0
TCOPTIONALDATA
  5
3DE
102
{ACAD_REACTORS
330
3DD
102
}
330
3DD
100
TcOptionalData
 70
     1
 70
    32
 40
-3.0
  0
TCOPTIONALDATA
  5
3E1
102
{ACAD_REACTORS
330
3E0
102
}
330
3E0
100
TcOptionalData
 70
     1
 70
    32
 40
-3.0
  0
TCOPTIONALDATA
  5
3E4
102
{ACAD_REACTORS
330
3E3
102
}
330
3E3
100
TcOptionalData
 70
     1
 70
    32
 40
-3.0
  0
TCOPTIONALDATA
  5
3E7
102
{ACAD_REACTORS
330
3E6
102
}
330
3E6
100
TcOptionalData
 70
     1
 70
    32
 40
-3.0
  0
TCOPTIONALDATA
  5
3EA
102
{ACAD_REACTORS
330
3E9
102
}
330
3E9
100
TcOptionalData
 70
     1
 70
    32
 40
-3.0
  0
TCOPTIONALDATA
  5
3ED
102
{ACAD_REACTORS
330
3EC
102
}
330
3EC
100
TcOptionalData
 70
     1
 70
    32
 40
-3.0
  0
TCOPTIONALDATA
  5
3F0
102
{ACAD_REACTORS
330
3EF
102
}
330
3EF
100
TcOptionalData
 70
     1
 70
    32
 40
-3.0
  0
TCOPTIONALDATA
  5
3F3
102
{ACAD_REACTORS
330
3F2
102
}
330
3F2
100
TcOptionalData
 70
     1
 70
    32
 40
-3.0
  0
TCOPTIONALDATA
  5
3F6
102
{ACAD_REACTORS
330
3F5
102
}
330
3F5
100
TcOptionalData
 70
     1
 70
    32
 40
-3.0
  0
TCOPTIONALDATA
  5
3F9
102
{ACAD_REACTORS
330
3F8
102
}
330
3F8
100
TcOptionalData
 70
     1
 70
    32
 40
-3.0
  0
TCOPTIONALDATA
  5
3FC
102
{ACAD_REACTORS
330
3FB
102
}
330
3FB
100
TcOptionalData
 70
     1
 70
    32
 40
-3.0
  0
TCOPTIONALDATA
  5
3FF
102
{ACAD_REACTORS
330
3FE
102
}
330
3FE
100
TcOptionalData
 70
     1
 70
    32
 40
-3.0
  0
TCOPTIONALDATA
  5
402
102
{ACAD_REACTORS
330
401
102
}
330
401
100
TcOptionalData
 70
     1
 70
    32
 40
-3.0
  0
TCOPTIONALDATA
  5
405
102
{ACAD_REACTORS
330
404
102
}
330
404
100
TcOptionalData
 70
     1
 70
    32
 40
-3.0
  0
TCOPTIONALDATA
  5
408
102
{ACAD_REACTORS
330
407
102
}
330
407
100
TcOptionalData
 70
     1
 70
    32
 40
-3.0
  0
TCOPTIONALDATA
  5
40B
102
{ACAD_REACTORS
330
40A
102
}
330
40A
100
TcOptionalData
 70
     1
 70
    32
 40
-3.0
  0
TCOPTIONALDATA
  5
40E
102
{ACAD_REACTORS
330
40D
102
}
330
40D
100
TcOptionalData
 70
     1
 70
    32
 40
-3.0
  0
TCOPTIONALDATA
  5
411
102
{ACAD_REACTORS
330
410
102
}
330
410
100
TcOptionalData
 70
     1
 70
    32
 40
-3.0
  0
TCOPTIONALDATA
  5
414
102
{ACAD_REACTORS
330
413
102
}
330
413
100
TcOptionalData
 70
     1
 70
    32
 40
-3.0
  0
TCOPTIONALDATA
  5
417
102
{ACAD_REACTORS
330
416
102
}
330
416
100
TcOptionalData
 70
     1
 70
    32
 40
-3.0
  0
TCOPTIONALDATA
  5
41A
102
{ACAD_REACTORS
330
419
102
}
330
419
100
TcOptionalData
 70
     1
 70
    32
 40
-3.0
  0
TCOPTIONALDATA
  5
41D
102
{ACAD_REACTORS
330
41C
102
}
330
41C
100
TcOptionalData
 70
     1
 70
    32
 40
-3.0
  0
TCOPTIONALDATA
  5
420
102
{ACAD_REACTORS
330
41F
102
}
330
41F
100
TcOptionalData
 70
     1
 70
    32
 40
-3.0
  0
TCOPTIONALDATA
  5
423
102
{ACAD_REACTORS
330
422
102
}
330
422
100
TcOptionalData
 70
     1
 70
    32
 40
-3.0
  0
TCOPTIONALDATA
  5
426
102
{ACAD_REACTORS
330
425
102
}
330
425
100
TcOptionalData
 70
     1
 70
    32
 40
-3.0
  0
TCOPTIONALDATA
  5
429
102
{ACAD_REACTORS
330
428
102
}
330
428
100
TcOptionalData
 70
     1
 70
    32
 40
-3.0
  0
TCOPTIONALDATA
  5
42C
102
{ACAD_REACTORS
330
42B
102
}
330
42B
100
TcOptionalData
 70
     1
 70
    32
 40
-3.0
  0
TCOPTIONALDATA
  5
42F
102
{ACAD_REACTORS
330
42E
102
}
330
42E
100
TcOptionalData
 70
     1
 70
    32
 40
-3.0
  0
TCOPTIONALDATA
  5
432
102
{ACAD_REACTORS
330
431
102
}
330
431
100
TcOptionalData
 70
     1
 70
    32
 40
-3.0
  0
TCOPTIONALDATA
  5
435
102
{ACAD_REACTORS
330
434
102
}
330
434
100
TcOptionalData
 70
     1
 70
    32
 40
-3.0
  0
TCOPTIONALDATA
  5
438
102
{ACAD_REACTORS
330
437
102
}
330
437
100
TcOptionalData
 70
     1
 70
    32
 40
-3.0
  0
TCOPTIONALDATA
  5
43B
102
{ACAD_REACTORS
330
43A
102
}
330
43A
100
TcOptionalData
 70
     1
 70
    32
 40
-3.0
  0
TCOPTIONALDATA
  5
43E
102
{ACAD_REACTORS
330
43D
102
}
330
43D
100
TcOptionalData
 70
     1
 70
    32
 40
-3.0
  0
TCOPTIONALDATA
  5
441
102
{ACAD_REACTORS
330
440
102
}
330
440
100
TcOptionalData
 70
     1
 70
    32
 40
-3.0
  0
TCOPTIONALDATA
  5
444
102
{ACAD_REACTORS
330
443
102
}
330
443
100
TcOptionalData
 70
     1
 70
    32
 40
-3.0
  0
TCOPTIONALDATA
  5
447
102
{ACAD_REACTORS
330
446
102
}
330
446
100
TcOptionalData
 70
     1
 70
    32
 40
-3.0
  0
TCOPTIONALDATA
  5
44A
102
{ACAD_REACTORS
330
449
102
}
330
449
100
TcOptionalData
 70
     1
 70
    32
 40
-3.0
  0
TCOPTIONALDATA
  5
44D
102
{ACAD_REACTORS
330
44C
102
}
330
44C
100
TcOptionalData
 70
     1
 70
    32
 40
-3.0
  0
TCOPTIONALDATA
  5
450
102
{ACAD_REACTORS
330
44F
102
}
330
44F
100
TcOptionalData
 70
     1
 70
    32
 40
-3.0
  0
TCOPTIONALDATA
  5
453
102
{ACAD_REACTORS
330
452
102
}
330
452
100
TcOptionalData
 70
     1
 70
    32
 40
-3.0
  0
TCOPTIONALDATA
  5
456
102
{ACAD_REACTORS
330
455
102
}
330
455
100
TcOptionalData
 70
     1
 70
    32
 40
-3.0
  0
TCOPTIONALDATA
  5
459
102
{ACAD_REACTORS
330
458
102
}
330
458
100
TcOptionalData
 70
     1
 70
    32
 40
-3.0
  0
TCOPTIONALDATA
  5
45C
102
{ACAD_REACTORS
330
45B
102
}
330
45B
100
TcOptionalData
 70
     1
 70
    32
 40
-3.0
  0
TCOPTIONALDATA
  5
45F
102
{ACAD_REACTORS
330
45E
102
}
330
45E
100
TcOptionalData
 70
     1
 70
    32
 40
-3.0
  0
TCOPTIONALDATA
  5
462
102
{ACAD_REACTORS
330
461
102
}
330
461
100
TcOptionalData
 70
     1
 70
    32
 40
-3.0
  0
TCOPTIONALDATA
  5
465
102
{ACAD_REACTORS
330
464
102
}
330
464
100
TcOptionalData
 70
     1
 70
    32
 40
-3.0
  0
TCOPTIONALDATA
  5
468
102
{ACAD_REACTORS
330
467
102
}
330
467
100
TcOptionalData
 70
     1
 70
    32
 40
-3.0
  0
TCOPTIONALDATA
  5
46B
102
{ACAD_REACTORS
330
46A
102
}
330
46A
100
TcOptionalData
 70
     1
 70
    32
 40
-3.0
  0
TCOPTIONALDATA
  5
46E
102
{ACAD_REACTORS
330
46D
102
}
330
46D
100
TcOptionalData
 70
     1
 70
    32
 40
-3.0
  0
TCOPTIONALDATA
  5
471
102
{ACAD_REACTORS
330
470
102
}
330
470
100
TcOptionalData
 70
     1
 70
    32
 40
-3.0
  0
TCOPTIONALDATA
  5
474
102
{ACAD_REACTORS
330
473
102
}
330
473
100
TcOptionalData
 70
     1
 70
    32
 40
-3.0
  0
TCOPTIONALDATA
  5
477
102
{ACAD_REACTORS
330
476
102
}
330
476
100
TcOptionalData
 70
     1
 70
    32
 40
-3.0
  0
TCOPTIONALDATA
  5
47A
102
{ACAD_REACTORS
330
479
102
}
330
479
100
TcOptionalData
 70
     1
 70
    32
 40
-3.0
  0
TCOPTIONALDATA
  5
47D
102
{ACAD_REACTORS
330
47C
102
}
330
47C
100
TcOptionalData
 70
     1
 70
    32
 40
-3.0
  0
TCOPTIONALDATA
  5
480
102
{ACAD_REACTORS
330
47F
102
}
330
47F
100
TcOptionalData
 70
     1
 70
    32
 40
-3.0
  0
TCOPTIONALDATA
  5
483
102
{ACAD_REACTORS
330
482
102
}
330
482
100
TcOptionalData
 70
     1
 70
    32
 40
-3.0
  0
TCOPTIONALDATA
  5
486
102
{ACAD_REACTORS
330
485
102
}
330
485
100
TcOptionalData
 70
     1
 70
    32
 40
-3.0
  0
TCOPTIONALDATA
  5
489
102
{ACAD_REACTORS
330
488
102
}
330
488
100
TcOptionalData
 70
     1
 70
    32
 40
-3.0
  0
TCOPTIONALDATA
  5
48C
102
{ACAD_REACTORS
330
48B
102
}
330
48B
100
TcOptionalData
 70
     1
 70
    32
 40
-3.0
  0
TCOPTIONALDATA
  5
48F
102
{ACAD_REACTORS
330
48E
102
}
330
48E
100
TcOptionalData
 70
     1
 70
    32
 40
-3.0
  0
TCOPTIONALDATA
  5
492
102
{ACAD_REACTORS
330
491
102
}
330
491
100
TcOptionalData
 70
     1
 70
    32
 40
-3.0
  0
TCOPTIONALDATA
  5
495
102
{ACAD_REACTORS
330
494
102
}
330
494
100
TcOptionalData
 70
     1
 70
    32
 40
-3.0
  0
TCOPTIONALDATA
  5
498
102
{ACAD_REACTORS
330
497
102
}
330
497
100
TcOptionalData
 70
     1
 70
    32
 40
-3.0
  0
TCOPTIONALDATA
  5
49B
102
{ACAD_REACTORS
330
49A
102
}
330
49A
100
TcOptionalData
 70
     1
 70
    32
 40
-3.0
  0
TCOPTIONALDATA
  5
49E
102
{ACAD_REACTORS
330
49D
102
}
330
49D
100
TcOptionalData
 70
     1
 70
    32
 40
-3.0
  0
TCOPTIONALDATA
  5
4A1
102
{ACAD_REACTORS
330
4A0
102
}
330
4A0
100
TcOptionalData
 70
     1
 70
    32
 40
-3.0
  0
TCOPTIONALDATA
  5
4A4
102
{ACAD_REACTORS
330
4A3
102
}
330
4A3
100
TcOptionalData
 70
     1
 70
    32
 40
-3.0
  0
TCOPTIONALDATA
  5
4A7
102
{ACAD_REACTORS
330
4A6
102
}
330
4A6
100
TcOptionalData
 70
     1
 70
    32
 40
-3.0
  0
TCOPTIONALDATA
  5
4AA
102
{ACAD_REACTORS
330
4A9
102
}
330
4A9
100
TcOptionalData
 70
     1
 70
    32
 40
-3.0
  0
TCOPTIONALDATA
  5
4AD
102
{ACAD_REACTORS
330
4AC
102
}
330
4AC
100
TcOptionalData
 70
     1
 70
    32
 40
-3.0
  0
TCOPTIONALDATA
  5
4B0
102
{ACAD_REACTORS
330
4AF
102
}
330
4AF
100
TcOptionalData
 70
     1
 70
    32
 40
-3.0
  0
TCOPTIONALDATA
  5
4B3
102
{ACAD_REACTORS
330
4B2
102
}
330
4B2
100
TcOptionalData
 70
     1
 70
    32
 40
-3.0
  0
TCOPTIONALDATA
  5
4B6
102
{ACAD_REACTORS
330
4B5
102
}
330
4B5
100
TcOptionalData
 70
     1
 70
    32
 40
-3.0
  0
TCOPTIONALDATA
  5
4B9
102
{ACAD_REACTORS
330
4B8
102
}
330
4B8
100
TcOptionalData
 70
     1
 70
    32
 40
-3.0
  0
TCOPTIONALDATA
  5
4BC
102
{ACAD_REACTORS
330
4BB
102
}
330
4BB
100
TcOptionalData
 70
     1
 70
    32
 40
-3.0
  0
TCOPTIONALDATA
  5
4BF
102
{ACAD_REACTORS
330
4BE
102
}
330
4BE
100
TcOptionalData
 70
     1
 70
    32
 40
-3.0
  0
TCOPTIONALDATA
  5
4C2
102
{ACAD_REACTORS
330
4C1
102
}
330
4C1
100
TcOptionalData
 70
     1
 70
    32
 40
-3.0
  0
TCOPTIONALDATA
  5
4C5
102
{ACAD_REACTORS
330
4C4
102
}
330
4C4
100
TcOptionalData
 70
     1
 70
    32
 40
-3.0
  0
TCOPTIONALDATA
  5
4C8
102
{ACAD_REACTORS
330
4C7
102
}
330
4C7
100
TcOptionalData
 70
     1
 70
    32
 40
-3.0
  0
TCOPTIONALDATA
  5
4CB
102
{ACAD_REACTORS
330
4CA
102
}
330
4CA
100
TcOptionalData
 70
     1
 70
    32
 40
-3.0
  0
TCOPTIONALDATA
  5
4CE
102
{ACAD_REACTORS
330
4CD
102
}
330
4CD
100
TcOptionalData
 70
     1
 70
    32
 40
-3.0
  0
TCOPTIONALDATA
  5
4D1
102
{ACAD_REACTORS
330
4D0
102
}
330
4D0
100
TcOptionalData
 70
     1
 70
    32
 40
-3.0
  0
LAYOUT
  5
1E
102
{ACAD_REACTORS
330
1A
102
}
330
1A
100
AcDbPlotSettings
  1

  2
none_device
  4
ISO_A4_(210.00_x_297.00_MM)
  6

 40
4.18041658401489
 41
13.23975372314453
 42
4.18040466308594
 43
3.17498779296875
 44
210.0
 45
297.0
 46
-1.20634217591106
 47
0.0923129968142611
 48
0.0
 49
0.0
140
0.0
141
0.0
142
1.0
143
1.0
 70
   672
 72
     1
 73
     1
 74
     5
  7

 75
    16
 76
     0
 77
     2
 78
   300
147
1.0
148
0.0
149
0.0
100
AcDbLayout
  1
Layout1
 70
     1
 71
     1
 10
-2.97407440810383
 20
-13.33206671995879
 11
294.0259255918962
 21
196.6679332800412
 12
0.0
 22
0.0
 32
0.0
 14
-2.97407440810383
 24
-13.33206671995879
 34
0.0
 15
294.0259255918962
 25
196.6679332800412
 35
0.0
146
0.0
 13
0.0
 23
0.0
 33
0.0
 16
1.0
 26
0.0
 36
0.0
 17
0.0
 27
1.0
 37
0.0
 76
     0
330
1B
331
4D4
  0
LAYOUT
  5
3C
102
{ACAD_REACTORS
330
1A
102
}
330
1A
100
AcDbPlotSettings
  1

  2
none_device
  4
ISO_C5_(229.00_x_162.00_MM)
  6

 40
0.0
 41
0.0
 42
0.0
 43
0.0
 44
229.0
 45
162.0
 46
0.0
 47
0.0
 48
0.0
 49
0.0
140
0.0
141
0.0
142
1.0
143
1.0
 70
   672
 72
     1
 73
     0
 74
     5
  7

 75
    16
 76
     0
 77
     2
 78
   300
147
1.0
148
0.0
149
0.0
100
AcDbLayout
  1
Layout2
 70
     1
 71
     2
 10
0.0
 20
0.0
 11
162.0
 21
229.0
 12
0.0
 22
0.0
 32
0.0
 14
0.0
 24
0.0
 34
0.0
 15
162.0
 25
229.0
 35
0.0
146
0.0
 13
0.0
 23
0.0
 33
0.0
 16
1.0
 26
0.0
 36
0.0
 17
0.0
 27
1.0
 37
0.0
 76
     0
330
3B
331
4D6
  0
LAYOUT
  5
22
102
{ACAD_REACTORS
330
1A
102
}
330
1A
100
AcDbPlotSettings
  1

  2
none_device
  4
ISO_A4_(210.00_x_297.00_MM)
  6

 40
4.18041658401489
 41
13.23975372314453
 42
4.18040466308594
 43
3.17498779296875
 44
210.0
 45
297.0
 46
3.42041871230929
 47
-83.08388366161464
 48
0.0
 49
0.0
140
0.0
141
0.0
142
1.0
143
1.038579
 70
  1696
 72
     1
 73
     1
 74
     0
  7

 75
     0
 76
     0
 77
     2
 78
   300
147
1.0
148
0.0
149
0.0
100
AcDbLayout
  1
Model
 70
     1
 71
     0
 10
-7.89406792122107
 20
72.53864662736633
 11
300.5639747411189
 21
290.6402929542734
 12
0.0
 22
0.0
 32
0.0
 14
-7.89406792122107
 24
72.53864662736633
 34
0.0
 15
300.5639747411189
 25
290.6402929542734
 35
0.0
146
0.0
 13
0.0
 23
0.0
 33
0.0
 16
1.0
 26
0.0
 36
0.0
 17
0.0
 27
1.0
 37
0.0
 76
     0
330
1F
331
29
  0
MLINESTYLE
  5
18
102
{ACAD_REACTORS
330
17
102
}
330
17
100
AcDbMlineStyle
  2
Standard
 70
     0
  3

 62
   256
 51
90.0
 52
90.0
 71
     6
 49
0.5
 62
   256
  6
BYLAYER
 49
-0.5
 62
   256
  6
BYLAYER
 49
0.5
 62
   256
  6
BYLAYER
 49
-0.5
 62
   256
  6
BYLAYER
 49
0.5
 62
   256
  6
BYLAYER
 49
-0.5
 62
   256
  6
BYLAYER
  0
ACDBPLACEHOLDER
  5
F
102
{ACAD_REACTORS
330
E
102
}
330
E
  0
VISUALSTYLE
  5
2F
102
{ACAD_REACTORS
330
2A
102
}
330
2A
100
AcDbVisualStyle
  2
2dWireframe
 70
     4
 71
     0
 72
     2
 73
     0
 90
        0
 40
-0.6
 41
-30.0
 62
     5
 63
     7
421
 16777215
 74
     1
 91
        4
 64
     7
 65
   257
 75
     1
175
     1
 42
1.0
 92
        0
 66
   257
 43
1.0
 76
     1
 77
     6
 78
     2
 67
     7
 79
     5
170
     0
171
     0
290
     0
174
     0
 93
        1
 44
0.0
173
     0
291
     0
 45
0.0
1001
ACAD
1000
AcDbSavedByObjectVersion
1070
     0
  0
VISUALSTYLE
  5
31
102
{ACAD_REACTORS
330
2A
102
}
330
2A
100
AcDbVisualStyle
  2
3D Hidden
 70
     6
 71
     1
 72
     2
 73
     2
 90
        0
 40
-0.6
 41
-30.0
 62
     5
 63
     7
421
 16777215
 74
     2
 91
        2
 64
     7
 65
   257
 75
     2
175
     1
 42
40.0
 92
        0
 66
   257
 43
1.0
 76
     1
 77
     6
 78
     2
 67
     7
 79
     3
170
     0
171
     0
290
     0
174
     0
 93
        1
 44
0.0
173
     0
291
     0
 45
0.0
1001
ACAD
1000
AcDbSavedByObjectVersion
1070
     0
  0
VISUALSTYLE
  5
30
102
{ACAD_REACTORS
330
2A
102
}
330
2A
100
AcDbVisualStyle
  2
3dWireframe
 70
     5
 71
     0
 72
     2
 73
     0
 90
        0
 40
-0.6
 41
-30.0
 62
     5
 63
     7
421
 16777215
 74
     1
 91
        4
 64
     7
 65
   257
 75
     1
175
     1
 42
1.0
 92
        0
 66
   257
 43
1.0
 76
     1
 77
     6
 78
     2
 67
     7
 79
     5
170
     0
171
     0
290
     0
174
     0
 93
        1
 44
0.0
173
     0
291
     0
 45
0.0
1001
ACAD
1000
AcDbSavedByObjectVersion
1070
     0
  0
VISUALSTYLE
  5
32
102
{ACAD_REACTORS
330
2A
102
}
330
2A
100
AcDbVisualStyle
  2
Basic
 70
     7
 71
     1
 72
     0
 73
     1
 90
        0
 40
-0.6
 41
-30.0
 62
     5
 63
     7
421
 16777215
 74
     0
 91
        4
 64
     7
 65
   257
 75
     1
175
     1
 42
1.0
 92
        8
 66
     7
 43
1.0
 76
     1
 77
     6
 78
     2
 67
     7
 79
     5
170
     0
171
     0
290
     0
174
     0
 93
        1
 44
0.0
173
     0
291
     1
 45
0.0
1001
ACAD
1000
AcDbSavedByObjectVersion
1070
     0
  0
VISUALSTYLE
  5
36
102
{ACAD_REACTORS
330
2A
102
}
330
2A
100
AcDbVisualStyle
  2
Brighten
 70
    12
 71
     2
 72
     2
 73
     0
 90
        0
 40
-0.6
 41
-30.0
 62
     5
 63
     7
421
 16777215
 74
     1
 91
        4
 64
     7
 65
   257
 75
     1
175
     1
 42
1.0
 92
        8
 66
     7
 43
1.0
 76
     1
 77
     6
 78
     2
 67
     7
 79
     5
170
     0
171
     0
290
     0
174
     0
 93
        1
 44
50.0
173
     0
291
     1
 45
0.0
1001
ACAD
1000
AcDbSavedByObjectVersion
1070
     0
  0
VISUALSTYLE
  5
3A
102
{ACAD_REACTORS
330
2A
102
}
330
2A
100
AcDbVisualStyle
  2
ColorChange
 70
    16
 71
     2
 72
     2
 73
     3
 90
        0
 40
-0.6
 41
-30.0
 62
     5
 63
     8
421
  8421504
 74
     1
 91
        4
 64
     7
 65
   257
 75
     1
175
     1
 42
1.0
 92
        8
 66
     8
424
  8421504
 43
1.0
 76
     1
 77
     6
 78
     2
 67
     7
 79
     5
170
     0
171
     0
290
     0
174
     0
 93
        1
 44
0.0
173
     0
291
     1
 45
0.0
1001
ACAD
1000
AcDbSavedByObjectVersion
1070
     0
  0
VISUALSTYLE
  5
34
102
{ACAD_REACTORS
330
2A
102
}
330
2A
100
AcDbVisualStyle
  2
Conceptual
 70
     9
 71
     3
 72
     2
 73
     0
 90
        0
 40
-0.6
 41
-30.0
 62
     5
 63
     7
421
 16777215
 74
     2
 91
        2
 64
     7
 65
   257
 75
     1
175
     1
 42
40.0
 92
        8
 66
     7
 43
1.0
 76
     1
 77
     6
 78
     2
 67
     7
 79
     3
170
     0
171
     0
290
     0
174
     0
 93
        1
 44
0.0
173
     0
291
     0
 45
0.0
1001
ACAD
1000
AcDbSavedByObjectVersion
1070
     0
  0
VISUALSTYLE
  5
35
102
{ACAD_REACTORS
330
2A
102
}
330
2A
100
AcDbVisualStyle
  2
Dim
 70
    11
 71
     2
 72
     2
 73
     0
 90
        0
 40
-0.6
 41
-30.0
 62
     5
 63
     7
421
 16777215
 74
     1
 91
        4
 64
     7
 65
   257
 75
     1
175
     1
 42
1.0
 92
        8
 66
     7
 43
1.0
 76
     1
 77
     6
 78
     2
 67
     7
 79
     5
170
     0
171
     0
290
     0
174
     0
 93
        1
 44
-50.0
173
     0
291
     1
 45
0.0
1001
ACAD
1000
AcDbSavedByObjectVersion
1070
     0
  0
VISUALSTYLE
  5
39
102
{ACAD_REACTORS
330
2A
102
}
330
2A
100
AcDbVisualStyle
  2
Facepattern
 70
    15
 71
     2
 72
     2
 73
     0
 90
        0
 40
-0.6
 41
-30.0
 62
     5
 63
     7
421
 16777215
 74
     1
 91
        4
 64
     7
 65
   257
 75
     1
175
     1
 42
1.0
 92
        8
 66
     7
 43
1.0
 76
     1
 77
     6
 78
     2
 67
     7
 79
     5
170
     0
171
     0
290
     0
174
     0
 93
        1
 44
0.0
173
     0
291
     1
 45
0.0
1001
ACAD
1000
AcDbSavedByObjectVersion
1070
     0
  0
VISUALSTYLE
  5
2B
102
{ACAD_REACTORS
330
2A
102
}
330
2A
100
AcDbVisualStyle
  2
Flat
 70
     0
 71
     2
 72
     1
 73
     1
 90
        2
 40
-0.6
 41
30.0
 62
     5
 63
     7
421
 16777215
 74
     0
 91
        4
 64
     7
 65
   257
 75
     1
175
     1
 42
1.0
 92
        8
 66
     7
 43
1.0
 76
     1
 77
     6
 78
     2
 67
     7
 79
     5
170
     0
171
     0
290
     0
174
     0
 93
       13
 44
0.0
173
     0
291
     1
 45
0.0
1001
ACAD
1000
AcDbSavedByObjectVersion
1070
     0
  0
VISUALSTYLE
  5
2C
102
{ACAD_REACTORS
330
2A
102
}
330
2A
100
AcDbVisualStyle
  2
FlatWithEdges
 70
     1
 71
     2
 72
     1
 73
     1
 90
        2
 40
-0.6
 41
30.0
 62
     5
 63
     7
421
 16777215
 74
     1
 91
        4
 64
     7
 65
   257
 75
     1
175
     1
 42
1.0
 92
        0
 66
   257
 43
1.0
 76
     1
 77
     6
 78
     2
 67
     7
 79
     5
170
     0
171
     0
290
     0
174
     0
 93
       13
 44
0.0
173
     0
291
     1
 45
0.0
1001
ACAD
1000
AcDbSavedByObjectVersion
1070
     0
  0
VISUALSTYLE
  5
2D
102
{ACAD_REACTORS
330
2A
102
}
330
2A
100
AcDbVisualStyle
  2
Gouraud
 70
     2
 71
     2
 72
     2
 73
     1
 90
        2
 40
-0.6
 41
30.0
 62
     5
 63
     7
421
 16777215
 74
     0
 91
        4
 64
     7
 65
   257
 75
     1
175
     1
 42
1.0
 92
        0
 66
     7
 43
1.0
 76
     1
 77
     6
 78
     2
 67
     7
 79
     5
170
     0
171
     0
290
     0
174
     0
 93
       13
 44
0.0
173
     0
291
     1
 45
0.0
1001
ACAD
1000
AcDbSavedByObjectVersion
1070
     0
  0
VISUALSTYLE
  5
2E
102
{ACAD_REACTORS
330
2A
102
}
330
2A
100
AcDbVisualStyle
  2
GouraudWithEdges
 70
     3
 71
     2
 72
     2
 73
     1
 90
        2
 40
-0.6
 41
30.0
 62
     5
 63
     7
421
 16777215
 74
     1
 91
        4
 64
     7
 65
   257
 75
     1
175
     1
 42
1.0
 92
        0
 66
   257
 43
1.0
 76
     1
 77
     6
 78
     2
 67
     7
 79
     5
170
     0
171
     0
290
     0
174
     0
 93
       13
 44
0.0
173
     0
291
     1
 45
0.0
1001
ACAD
1000
AcDbSavedByObjectVersion
1070
     0
  0
VISUALSTYLE
  5
38
102
{ACAD_REACTORS
330
2A
102
}
330
2A
100
AcDbVisualStyle
  2
Linepattern
 70
    14
 71
     2
 72
     2
 73
     0
 90
        0
 40
-0.6
 41
-30.0
 62
     5
 63
     7
421
 16777215
 74
     1
 91
        4
 64
     7
 65
   257
 75
     7
175
     7
 42
1.0
 92
        8
 66
     7
 43
1.0
 76
     1
 77
     6
 78
     2
 67
     7
 79
     5
170
     0
171
     0
290
     0
174
     0
 93
        1
 44
0.0
173
     0
291
     1
 45
0.0
1001
ACAD
1000
AcDbSavedByObjectVersion
1070
     0
  0
VISUALSTYLE
  5
33
102
{ACAD_REACTORS
330
2A
102
}
330
2A
100
AcDbVisualStyle
  2
Realistic
 70
     8
 71
     2
 72
     2
 73
     0
 90
        0
 40
-0.6
 41
-30.0
 62
     5
 63
     7
421
 16777215
 74
     1
 91
        0
 64
     7
 65
   257
 75
     1
175
     1
 42
1.0
 92
        8
 66
     8
424
  7895160
 43
1.0
 76
     1
 77
     6
 78
     2
 67
     7
 79
     5
170
     0
171
     0
290
     0
174
     0
 93
       13
 44
0.0
173
     0
291
     0
 45
0.0
1001
ACAD
1000
AcDbSavedByObjectVersion
1070
     0
  0
VISUALSTYLE
  5
37
102
{ACAD_REACTORS
330
2A
102
}
330
2A
100
AcDbVisualStyle
  2
Thicken
 70
    13
 71
     2
 72
     2
 73
     0
 90
        0
 40
-0.6
 41
-30.0
 62
     5
 63
     7
421
 16777215
 74
     1
 91
        4
 64
     7
 65
   257
 75
     1
175
     1
 42
1.0
 92
       12
 66
     7
 43
1.0
 76
     1
 77
     6
 78
     2
 67
     7
 79
     5
170
     0
171
     0
290
     0
174
     0
 93
        1
 44
0.0
173
     0
291
     1
 45
0.0
1001
ACAD
1000
AcDbSavedByObjectVersion
1070
     0
  0
ENDSEC
  0
SECTION
  2
THUMBNAILIMAGE
 90
    16364
310
28000000B40000005500000001000800000000000000000000000000000000000000000000000000FFFFFF000000FF0000FFFF0000FF0000FFFF0000FF000000FF00FF000000000080808000C0C0C0000000FF007F7FFF000000A5005252A50000007F003F3F7F0000004C0026264C000000260013132600003FFF007F9FFF
310
000029A5005267A500001F7F003F4F7F0000134C00262F4C000009260013172600007FFF007FBFFF000052A500527CA500003F7F003F5F7F0000264C0026394C0000132600131C260000BFFF007FDFFF00007CA5005291A500005F7F003F6F7F0000394C0026424C00001C26001321260000FFFF007FFFFF0000A5A50052A5
310
A500007F7F003F7F7F00004C4C00264C4C00002626001326260000FFBF007FFFDF0000A57C0052A59100007F5F003F7F6F00004C3900264C420000261C001326210000FF7F007FFFBF0000A5520052A57C00007F3F003F7F5F00004C2600264C39000026130013261C0000FF3F007FFF9F0000A5290052A56700007F1F003F
310
7F4F00004C1300264C2F00002609001326170000FF00007FFF7F0000A5000052A55200007F00003F7F3F00004C0000264C260000260000132613003FFF00009FFF7F0029A5000067A552001F7F00004F7F3F00134C00002F4C260009260000172613007FFF0000BFFF7F0052A500007CA552003F7F00005F7F3F00264C0000
310
394C2600132600001C261300BFFF0000DFFF7F007CA5000091A552005F7F00006F7F3F00394C0000424C26001C26000021261300FFFF0000FFFF7F00A5A50000A5A552007F7F00007F7F3F004C4C00004C4C26002626000026261300FFBF0000FFDF7F00A57C0000A59152007F5F00007F6F3F004C3900004C422600261C00
310
0026211300FF7F0000FFBF7F00A5520000A57C52007F3F00007F5F3F004C2600004C39260026130000261C1300FF3F0000FF9F7F00A5290000A56752007F1F00007F4F3F004C1300004C2F26002609000026171300FF000000FF7F7F00A5000000A55252007F0000007F3F3F004C0000004C2626002600000026131300FF00
310
3F00FF7F9F00A5002900A55267007F001F007F3F4F004C0013004C262F002600090026131700FF007F00FF7FBF00A5005200A5527C007F003F007F3F5F004C0026004C2639002600130026131C00FF00BF00FF7FDF00A5007C00A55291007F005F007F3F6F004C0039004C26420026001C0026132100FF00FF00FF7FFF00A5
310
00A500A552A5007F007F007F3F7F004C004C004C264C002600260026132600BF00FF00DF7FFF007C00A5009152A5005F007F006F3F7F0039004C0042264C001C002600211326007F00FF00BF7FFF005200A5007C52A5003F007F005F3F7F0026004C0039264C00130026001C1326003F00FF009F7FFF002900A5006752A500
310
1F007F004F3F7F0013004C002F264C000900260017132600000000002D2D2D005B5B5B0089898900B7B7B700B3B3B30000000000000000000000000000000000000000000000000000000000000000000000000000000000000000000000000000000000000000010101010101010000000000000000000000000000000000
310
00000000000000000000000000000000000000000000000000000000000000000000000000000000000000000000000000000000000000000000000000000000000000010101010101010101010101000000000000000000000000000000000000000000000000000000000000000000000000000000000000000000000000
310
00000000000000000000000000000000000000000000000000000000010000000000000001000000000000000000000000000000000000000000000000000000000000000000000000000000000000000000000000000000000000000000000000000000000000000000000000000000000000000000000001000000000000
310
00000000010000000000000000000000000000000000000000000000000000000000000000000000000000000000000000000000000000000000000000000000000000000000000000000000000101010101000000000000000101010101000000000000000000000000000000000000000000000000000000000000000000
310
00000000000000000000000000000000000000000000000000000000000000000000000000000000000000000000010101010101010101010101000000000000000000000000000000000000000000000000000000000000000000000000000000000000000000000000000000000000000000000000000000000000000000
310
00010100010001000001010101010000010001000101000000000000000000000000000000000000000000000000000000000000000000000000000000000000000000000000000000000000000000000000000000000000000000000000000000000001000000000000000000000100000000000000000000000000000000
310
00000000000000000000000000000000000000000000000000000000000000000000000000000000000000000000000000000001010100000000010100000100000001000001010000000001010100000000000000000000000000000000000000000000000000000000000000000000000000000000000000000000000000
310
00000000000000000000000000000000000000000000000000010000000000000000000001000000000000000000000000000000000000000000000000000000000000000000000000000000000000000000000000000000000000000000000000000000000101010000000001010000000001000000000001000000000001
310
01000000010101000000000000000000000000000000000000000000000000000000000000000000000000000000000000000000000000000000000000000000000000000000000000000000000001000000000000000000000100000000000000000000000000000000000000000000000000000000000000000000000000
310
00000000000000000000000000000000000000000001010100000100000000010101000100000000010000000000010000000001000001010100000001010001010100000000000000000000000000000000000000000000000000000000000000000000000000000000000000000000000000000000000000000000000000
310
00000000010101010101010101010101000000000000000000000000000000000000000000000000000000000000000000000000000000000000000000000000000000000000000000010000000101010000010100000000000101010100000000000000010101010000000000000101000100010100000101000000000000
310
00000000000000000000000000000000000000000000000000000000000000000000000000000000000000000000000000000000000000000001000000000000000000000100000000000000000000000000000000000000000000000000000000000000000000000000000000000000000000000000000000000000000100
310
00000000010100010000000000000000000000000000000000000000000000000000000000010001010000000000000100000000000000000000000000000000000000000000000000000000000000000000000000000000000000000000000000000000000000000000000000000100000000000000000000010000000000
310
00000000000000000000000000000000000000000000000000000000000000000000000000000000000000000000000000010100000101000000000001000000000000000000000000000000000000000000000000000000000001000000000001010000000100000000000000000000000000000000000000000000000000
310
00000000000000000000000000000000000000000000000000000000000000000000000001000000000000000000000100000000000000000000000000000000000000000000000000000000000000000000000000000000000000000000000000000000000100000001000001010000010000000000000000000000000000
310
00000000000000000000000000000000010000000001000001000000010000000000000000000000000000000000000000000000000000000000000000000000000000000000000000000000000000000000000000000000000100000000000000000000010000000000000000000000000000000000000000000000000000
310
00000000000000000000000000000000000000000000000000000001000001000000000001010100000000000000000000000000000000000000000000000000000000000000010101010000000001000001000000000000000000000000000000000000000000000000000000000000000000000000000000000000000000
310
00000000000000000000000000000001010101010101010101010100000000000000000000000000000000000000000000000000000000000000000000000000000000000000000000000000000000000100000100000000000000000000000000000000000000000000000000000000000000000000000000000000000000
310
00000000010000010000000000000000000000000000000000000000000000000000000000000000000000000000000000000000000000000000000000000000000000000101010101010101010101010000000000000000000000000000000000000000000000000000000000000000000000000000000000000000000000
310
00000000000100010000010000000000000000000000000000000000000000000000000000000000000000000000000000000000000000000001000100010000000000000000000000000000000000000000000000000000000000000000000000000000000000000000000000000000000000000000000000010000000001
310
01000000000100000000000000000000000000000000000000000000000000000000000000000000000000000000000000000000000000000001010001000001000000000000000000000000000000000000000000000000000000000000000000000000000000000000000000000100010001010000000000000000000000
310
00000000000000000000000000000000000000000000000000000000000000000000000000000000000000000000000101010101010101010101010000000000000000000000000000000000000000000000000000000000000000000000000000000000000000000000000000000100010100000100000000000000000000
310
00000000000000000000000000000000000000000000000000000000000000000000000001000001000101000000000000000000000000000000000000000000000000000000000000000000000000000000000000000000000000000000000000000000010000000000000000000001000000000000000000000000000000
310
00000000000000000000000000000000000000000000000000000000000000000000000100000000000100000000000000000000000000000000000000000000000000000000000000000000000000000000000000000000000100000000000001000000000000000000000000000000000000000000000000000000000000
310
00000000000000000000000000000000000000000000000000000100000000000000000000010000000000000000000000000000000000000000000000000000000000000000000000000000000000000000000000000001000001010101010000000000000000000000000000000000000000000000000000000000000000
310
00000000000000000000000000000001010101010000010000000000000000000000000000000000000000000000000000000000000000000000000000000000000000000000000000000000000000010000000000000000000001000000000000000000000000000000000000000000000000000000000000000000000000
310
00000000000000000000000001000001000000000000000000000000000000000000000000000000000000000000000000000000000000000000000000000000000000000000000000010000010000000000000000000000000000000000000000000000000000000000000000000000000000000000000000000000000000
310
00000000000100000000000000000000010000000000000000000000000000000000000000000000000000000000000000000000000000000000000000000000010000000100000000000000000000000000000000000000000000000000000000000000000000000000000000000000000000000000000000000000000001
310
00000001000000000000000000000000000000000000000000000000000000000000000000000000000000000000000000000000000000000000010000000000000000000001000000000000000000000000000000000000000000000000000000000000000000000000000000000000000000000001000001000000000000
310
00000000000000000000000000000000000000000000000000000000000000000000000000000000000000000000000000000000000100000100000000000000000000000000000000000000000000000000000000000000000000000000000000000000000000000000000000000001000000000000000000000100000000
310
00000000000000000000000000000000000000000000000000000000000000000000000000000000000001000001000000000000000000000000010101010101010101010101010101010101010101010101010101010101010101010101010000000000000000000000000100000100000000000000000000000000000000
310
00000000000000000000000000000000000000000000000000000000000000000000000000010000000000000000000001000000000000000000000000000000000000000000000000000000000000000000000000000000000000000000010100010000000000000000000000010100000000000000000000000000000000
310
00000000000000000000000000000000000000000001010000000000000000000000010000010000000000000000000000000000000000000000000000000000000000000000000000000000000000000000000000000000000001010101010101010101010100000000000000000000000000000000000000000000000000
310
00000000000000000000000000000000000000000101000100000000000000000000010000000000000000000000000000000000000000000000000000000000000000000000000000000000010000000000000000000100000001000000000000000000000000000000000000000000000000000000000000000000000000
310
00000000000000000000000000000000010000000001010000000001000000000000000000000000000000000000000000000000000000000000000000000000000000000000000001000100000100000000000000000001000000000000000000000000000000000000000000000000000000000000000000000000000000
310
00000100000000000000000001000001000100000000000000000000000000000000000000000000000000000000000000000000000000000000000000000000000000000001010101010101010101010100000000000000000000000000000000000000000000000000000000000000000000000000000000000000010101
310
01000001000000000000000000010000000001010101010101010101010101010101010101010101010101010101010101010101000000010000000000000000000100000101010100000000000000000000000000000000000000000000000000000000000000000000000000000000000000000000000000000101010101
310
01010101010101000000000000000000000000000000000000000000000000000000000000000000000000000000000001010000000000000100000000000000000001000000000100000000000000000000000000000000000000000000000000000000000000000100000001000000000000000000010000000000000101
310
00000000000000000000000000000000000000000000000000000000000000000000000000000000000000000000000001000000000000000000000100000000000000000000000000000000000000000000000000000000000000000000000000000000000100000000000001000000000000000000000100000000010000
310
00000000000000000000000000000000000000000000000000000000000001000000010000000000000000000001000000000000010000000000000000000000000000000000000000000000000000000000000000000000000000000000000000000000000100000000000000000000010000000000000000000000000000
310
00000000000000000000000000000000000000000000000000000001000001010101000000000000000000000001000000000100000000000000000000000000000000000000000000000000000000000000000100000001000000000000000000000001010101010000010000000000000000000000000000000000000000
310
00000000000000000000000000000000000000000000010101010101000000000000000000000101010101010000000000000000000000000000000000000000000000000000000000000000000000000100010000000000000000000000000000000100000000010000000000000000000000000000000000000000000000
310
00000000000000000001000000010000000000000000000000000000000100000100000000000000000000000000000000000000000000000000000000000000000000000000000000000001000000000100000000000000000000010000000001000000000000000000000000000000000000000000000000000000000000
310
00000000000100000100000000000000000000000000000001000000000100000000000000000000000000000000000000000000000000000000000000000100000001000000000000000000000000000000010000010000000000000000000000000000000000000000000000000000000000000000000000000000000000
310
00010000000001000000000000000000000100000000010000000000000000000000000000000000000000000000000000000000000000000000010000010000000000000000000000000000000100000000010000000000000000000000000000000000000000000000000000000000000000010000000100000000000000
310
00000000000000000101000001000000000000000000000000000000000000000000000000000000000000000000000000000000000001000000000100000000000000000000010000000001000000000000000000000000000000000000000000000000000000000000000000000001000000010000000000000000000000
310
00000001000000000100000000000000000000000000000000000000000000000000000000000000000100000001000000000000000000000000000001000000010000000000000000000000000000000000000000000000000000000000000000000000000000000000000100000000010101010101010101010101000000
310
00010000000000000000000000000000000000000000000000000000000000000000000000010000000001000000000000000000000000000100000001010000000000000000000000000000000000000000000000000000000000000000010000000100000000000000000000000000010000000001000000000000000000
310
00000000000000000000000000000000000000000000000000000000000000000001000000000100000000000000000000010000000001000000000000000000000000000000000000000000000000000000000000000000000000010100000100000000000000000000000000010000000100000000000000000000000000
310
00000000000000000000000000000000000000000100000001000000000000000000000000010000000101000000000000000000000000000000000000000000000000000000000000000000000000000000000000000100000000010101010101010101010101000000000100000000000000000000000000000000000000
310
00000000000000000000000000000000000100010000010000000000000000000000000100000001000000000000000000000000000000000000000000000000000000000000000000010000000100000000000000000000000001000001000100000000000000000000000000000000000000000000000000000000000000
310
00000000000000000000000001000000000101010101010101010101010000000001000000000000000000000000000000000000000000000000000000000000000000000000010100000100000000000000000000000000010000000100000000000000000000000000000000000000000000000000000000000000000001
310
00000001000000000000000000000000010000000101010000000000000000000000000000000000000000000000000000000000000000000000000000000000000100000000010000000001010000000001000000000100000000000000000000000000000000000000000000000000000000000000000000000001000000
310
01000000000000000000000000000100000001000000000000000000000000000000000000000000000000000000000000000000010000000100000000000000000000000000010000000001000000000000000000000000000000000000000000000000000000000000000000000000000000000000010000000001010101
310
01010101010101010000000001000000000000000000000000000000000000000000000000000000000000000000000000010001010000000000000000000000000000010000000100000000000000000000000000000000000000000000000000000000000000000001000000010000000000000000000000000000010100
310
00010000000000000000000000000000000000000000000000000000000000000000000000000000000000000100000000010000000000000000000001000000000100000000000000000000000000000000000000000000000000000000000000000000000001000100000000000000000000000000000001000000010000
310
00000000000000000000000000000000000000000000000000000000000000010000000100000000000000000000000000000001000001000000000000000000000000000000000000000000000000000000000000000000000000000000000000010000000001000000000000000000000100000000010000000000000000
310
00000000000000000000000000000000000000000000000000000000010001000000000000000000000000000000010000000100000000000000000000000000000000000000000000000000000000000000000001000000010000000000000000000000000000000100000100000000000000000000000000000000000000
310
00000000000000000000000000000000000000000000000100000000010000000000000000000001000000000100000000000000000000000000000000000000000000000000000000000000000000000001000100000000000000000000000000000001000000010000000000000000000000000000000000000000000000
310
00000000000000000000010000000100000000000000000000000000000001000001000000000000000000000000000000000000000000000000000000000000000000000000000000000000010000000001000000000000000000000100000000010000000000000000000000000000000000000000000000000000000000
310
00000000000000010001000000000000000000000000000000010000000100000000000000000000000000000000000000000000000000000000000000000001000000010000000000000000000000000000000100000100000000000000000000000000000000000000000000000000000000000000000000000000000000
310
00000100000000000000000000000000000000000000000100000000000000000000000000000000000000000000000000000000000000000000000001000100000000000000000000000000000001000000010000000000000000000000000000000000000000000000000000000000000000000100000001000000000000
310
00000000000000000001000001000000000000000000000000000000000000000000000000000000000000000000000000000000000000010000000000000000000000000000000000000000010000000000000000000000000000000000000000000000000000000000000000000000000100010000000000000000000000
310
00000000010000000100000000000000000000000000000000000000000000000000000000000000000001000000010000000000000000000000000000000100000100000000000000000000000000000000000000000000000000000000000000000000000000000000000001000000000000000000000000000000000000
310
00000100000000000000000000000000000000000000000000000000000000000000000000000001000100000000000000000000000000000001000000010000000000000000000000000000000000000000000000000000000000000000000100000001000000000000000000000000000000010000010000000000000000
310
00000000000000000000000000000000000000000000000000000000000000000000010000000000000000000000000000000000000000010000000000000000000000000000000000000000000000000000000000000000000000000100000101000000000000000000000000000100000001000000000000000000000000
310
00000000000000000000000000000000000000000001000000010000000000000000000000000001010000000100000000000000000000000000000000000000000000000000000000000000000000000000000000000001000000000000000000000000000000000000000001000000000000000000000000000000000000
310
00000000000000000000000000000000000001000000010000000000000000000000000001000000010000000000000000000000000000000000000000000000000000000000000000000100000001000000000000000000000000010000000001010000000000000000000000000000000000000000000000000000000000
310
00000000000000000000000000010000000000000000000000000000000000000000010000000000000000000000000000000000000000000000000000000000000000000000000101010000010000000000000000000000000100000001000000000000000000000000000000000000000000000000000000000000000000
310
01000000010000000000000000000000000100000101010000000000000000000000000000000000000000000000000000000000000000000000000000000000000001000000000000000000000000000000000000000001000000000000000000000000000000000000000000000000000000000000000000000000010100
310
00010000000000000000000000000001000000010000000000000000000000000000000000000000000000000000000000000000000100000001000000000000000000000000010000000101000000000000000000000000000000000000000000000000000000000000000000000000000000000000000100000000000000
310
00000000000000000000000000010000000000000000000000000000000000000000000000000000000000000000000000010000000001000000000000000000000000000100000001010000000000000000000000000000000000000000000000000000000000000000010000000100000000000000000000000000010000
310
00000100000000000000000000000000000000000000000000000000000000000000000000000000000000000001010101010101010101010101010101010101010101000000000000000000000000000000000000000000000000000000000000000000000001000000010000000000000000000000000000010000000001
310
00000000000000000000000000000000000000000000000000000000000000000100000001000000000000000000000000000001000000010000000000000000000000000000000000000000000000000000000000000000000000000000000000000100000000000000000000000000000000000000000100000000000000
310
00000000000000000000000000000000000000000000000000000000010000010000000000000000000000000000000100000000010000000000000000000000000000000000000000000000000000000000000000010000000100000000000000000000000000000001010000010000000000000000000000000000000000
310
00000000000000000000000000000000000000000000000001000000000000000000000000000000000000000001000000000000000000000000000000000000000000000000000000000000000000000001000001000000000000000000000000000000010000000001000000000000000000000000000000000000000000
310
00000000000000000000000100000001000000000000000000000000000000010000010000000000000000000000000000000000000000000000000000000000000000000000000000000000000100000000000000000000000000000000000000000100000000000000000000000000000000000000000000000000000000
310
00000000000000000100010000000000000000000000000000000100000000010000000000000000000000000000000000000000000000000000000000000000010000000100000000000000000000000000000001000001000000000000000000000000000000000000000000000000000000000000000000000000000000
310
00000001000000000000000000000000000000000000000001000000000000000000000000000000000000000000000000000000000000000000000000010000010101010000000000000000000000010000000001000000000000000000000000000000000000000000000000000000000000000001000000010000000000
310
00000000000001010101010000010000000000000000000000000000000000000000000000000000000000000000000000000000000000000100000000000000000000000000000000000000000100000000000000000000000000000000000000000000000000000000000000000000000001000000000000010000000000
310
00000000000100000000010000000000000000000000000000000000000000000000000000000000000000010000000100000000000000000000010000000000000100000000000000000000000000000000000000000000000000000000000000000000000000000000000000010000000000000000000000000000000000
310
00000001000000000000000000000000000000000000000000000000000000000000000000000000010000000000000001000000000000000000010000000001000000000000000000000000000000000000000000000000000000000000000001000000010000000000000000000100000000000000010000000000000000
310
00000000000000000000000000000000000000000000000000000000000000000000000100000000000000000000000000000000000000000100000000000000000000000000000000000000000000000000000000000000000000000000010101010100000100000000000000000001000000000101010101010101010101
310
01010101010101010101010101010101010101010101010000000100000000000000000001000001010101010000000000000000000000000000000000000000000000000000000000000000000000000000000000000000010101010101010101010101010101010101010101010000000000000000000000000000000000
310
00000000000000000000000000000000000000000000010001000001000000000000000000010000000000000000000000000000000000000000000000000000000000000000000000000000000000010000000000000000000100000100010000000000000000000000000000000000000000000000000000000000000000
310
00000000000000000000000000000101000100000100000100010000000100000100010100000000000000000000000000000000000000000000000000000000000000000000000000000000010100010000000000000000000001000000000000000000000000000000000000000000000000000000000000000000000000
310
00000000000100000000000000000001000000010000000000000000000000000000000000000000000000000000000000000000000000000000000000000000000000010100000100000100000100010000000100000100010000000000000000000000000000000000000000000000000000000000000000000000000000
310
00000101000100000000000000000000000100000000000000000000000000000000000000000000000000000000000000000000000000000001000000000000000000000001000001000000000000000000000000000000000000000000000000000000000000000000000000000000000000000000000001000100000100
310
00010000010001010000010000010100000000000000000000000000000000000000000000000000000000000000000000000000000000000100000100000000000000000000000101010101010101010101010101010101010101010101010101010101010101010101010101010000000000000000000000010000010000
310
00000000000000000000000000000000000000000000000000000000000000000000000000000000000000000000010101010101010101010000010101010101010101010000000000000000000000000000000000000000000000000000000000000000000000000000000000000100000100000000000000000000000000
310
00000000000000000000000000000000000000000000000000000000000000000000000000000000000000000000010000010000000000000000000000000000000000000000000000000000000000000000000000000000000000000000000000000000000000000100000001010001000000010000000000000000000000
310
00000000000000000000000000000000000000000000000000000000000000000000000001000000010000000000000000000000000000000000000000000000000000000000000000000000000000000000000000000000000000000000000000000100000001000000000000000000000000000000000000000000000000
310
00000000000000000000000000000000000000000000000000000000000001000000010001010000000100000000000000000000000000000000000000000000000000000000000000000000000000000000000000000000000001000001000000000000000000000000000000000000000000000000000000000000000000
310
00000000000000000000000000000000000000000000000001000001000000000000000000000000000000000000000000000000000000000000000000000000000000000000000000000000000000000000000100000001000001000000010000000000000000000000000000000000000000000000000000000000000000
310
00000000000000000000000000000000000100000101010101000000000000000000000000000000000000000000000000000000000000000000000000000000000000000000000001010101010000010000000000000000000000000000000000000000000000000000000000000000000000000000000000000000000000
310
00000000000000000001000000010100010000000100000000000000000000000000000000000000000000000000000000000000000000000000000000000000000000000000000100000000000100000000000000000000000000000000000000000000000000000000000000000000000000000000000000000000000100
310
00000000000100000000000000000000000000000000000000000000000000000000000000000000000000000000000000000000000000000000000000000100000001000101000000010000000000000000000000000000000000000000000000000000000000000000000000000000000000000000000000000000000100
310
00010000010000000000000000000000000000000000000000000000000000000000000000000000000000000000000000000001000001000001000000000000000000000000000000000000000000000000000000000000000000000000000000000000000000000000000000000000000000010000000100000100000001
310
00000000000000000000000000000000000000000000000000000000000000000000000000000000000000000000000000000001010101000001000000000000000000000000000000000000000000000000000000000000000000000000000000000000000000000100010001010000000000000000000000000000000000
310
00000000000000000000000000000000000000000000000000000000000000000000000000000000000100000001010001000000010000000000000000000000000000000000000000000000000000000000000000000000000000000000000000000000000000000001000100000100000000000000000000000000000000
310
00000000000000000000000000000000000000000000000000000000000001000100010000000000000000000000000000000000000000000000000000000000000000000000000000000000000000000000000000000000000000000000010000000100010100000001000000000000000000000000000000000000000000
310
00000000000000000000000000000000000000000000000000000000000000000100000100000000000000000000000000000000000000000000000000000000000000000000000000000000000000000000000100000100000000000000000000000000000000000000000000000000000000000000000000000000000000
310
00000000000000000000000000000000000000000100000001000001000000010000000000000000000000000000000000000000000000000000000000000000000000000000000000000000000000000000000000010000010000000000010101000000000000000000000000000000000000000000000000000000000000
310
00010101010000000001000001000000000000000000000000000000000000000000000000000000000000000000000000000000000000000000000000000000000000000000000000010000000101000100000001000000000000000000000000000000000000000000000000000000000000000000000000000000000000
310
00000000000000000000000100000001000001010000010000000000000000000000000000000000000000000000000000000000000100000000010000010000000100000000000000000000000000000000000000000000000000000000000000000000000000000000000000000000000000000000000000000000000001
310
00000001000101000000010000000000000000000000000000000000000000000000000000000000000000000000000000000000000000000000000000000000000101000001010000000000010000000000000000000000000000000000000000000000000000000000010000000000010100000001000000000000000000
310
00000000000000000000000000000000000000000000000000000000000000000000000000000000000000000000000000000000010000000100000100000001000000000000000000000000000000000000000000000000000000000000000000000000000000000000000000000000000000000000000001000000000001
310
01000100000000000000000000000000000000000000000000000000000000000100010100000000000001000000000000000000000000000000000000000000000000000000000000000000000000000000000000000000000000000000000000000000000000000001000000010101010000000100000000000000000000
310
00000000000000000000000000000000000000000000000000000000000000000000000000000000000000000000000100000001000100000101000000000001010100000000000000000001010100000000000001010001000101000001010000000000000000000000000000000000000000000000000000000000000000
310
00000000000000000000000000000000000000000000000000000000000000010000000100000100000001000000000000000000000000000000000000000000000000000000000000000000000000000000000000000000000000000000000000000000000101010001010000000001010100010000000101000000000001
310
01000000010000010101000000010100010101000000000000000000000000000000000000000000000000000000000000000000000000000000000000000000000000000000000000000000000000000000000001000000010000010000000100000000000000000000000000000000000000000000000000000000000000
310
00000000000000000000000000000000000000000000000000000000000000000001010000000000010100000000010000000000010000000000010100000000010100000000000000000000000000000000000000000000000000000000000000000000000000000000000000000000000000000000000000000000000000
310
00000000000000000000010000000101010100000001000000000000000000000000000000000000000000000000000000000000000000000000000000000000000000000000000000000000000000000000000000000000010101000000000001010000010000000100000101000000000001010100000000000000000000
310
00000000000000000000000000000000000000000000000000000000000000000000000000000000000000000000000000000000000000000000000000000001000000010000010000000100000000000000000000000000000000000000000000000000000000000000000000000000000000000000000000000000000000
310
00000000000000000000000000000000000101000001000100000101010101000001000100000101000000000000000000000000000000000000000000000000000000000000000000000000000000000000000000000000000000000000000000000000000000000000000000000000000000000101010101000001010101
310
01000000000000000000000000000000000000000000000000000000000000000000000000000000000000000000000000000000000000000000000000000000000000000000000001010101010100000000000000010101010101000000000000000000000000000000000000000000000000000000000000000000000000
310
00000000000000000000000000000000000000000000000000000000000000000000000000000000000001000001000100000001000100000000000000000000000000000000000000000000000000000000000000000000000000000000000000000000000000000000000000000000000000000000000000000000000000
310
00000001000000000000000100000000000000000000000000000000000000000000000000000000000000000000000000000000000000000000000000000000000000000000000000000000000000000000000000000000000000000000000101000001000100000001010000000000000000000000000000000000000000
310
00000000000000000000000000000000000000000000000000000000000000000000000000000000000000000000000000000000000000000001010101010101000000000000000000000000000000000000000000000000000000000000000000000000000000000000000000000000000000000000000000000000000000
310
00000000000000000000000000000000000000000001010101010101010101010100000000000000000000000000000000000000000000000000000000000000000000000000000000000000000000000000000000000000000000000000000000000000000000000000000000000000000000000000000000000000000000
310
000000000000000000000000000000000000000000000000000000000000000000000000000000000000000000000000000000000000000000000000000000000000000000000000000000000000000000000000000000000000000000000000000000000000000000000000
  0
ENDSEC
  0
EOF
