999
DXF file: s3-0_flt_pmu_h100.dxf
999
Pro/ENGINEER 2008490 by Parametric Technology Corporation
  0
SECTION
  2
HEADER
  9
$ACADVER
  1
AC1015
  9
$DWGCODEPAGE
  3
ANSI_1252
  9
$EXTMAX
 10
297.0
 20
210.0
 30
0.0
  9
$EXTMIN
 10
0.0
 20
0.0
 30
0.0
  9
$LIMMIN
 10
0.0
 20
0.0
  9
$LIMMAX
 10
297.0
 20
210.0
  9
$VIEWCTR
 10
148.5
 20
105.0
  9
$VIEWSIZE
 40
210.0
  9
$CLAYER
  8
0
  9
$LTSCALE
 40
16.335
  9
$CELTYPE
  6
BYLAYER
  9
$DIMSCALE
 40
1.0
  9
$DIMASZ
 40
3.5
  9
$DIMEXO
 40
1.85625
  9
$DIMDLI
 40
11.286
  9
$DIMEXE
 40
5.346
  9
$DIMCEN
 40
2.673
  9
$DIMLFAC
 40
1.0
  9
$DIMBLK
  1
_FILLED
  9
$DIMTXT
 40
3.5
  9
$DIMTOL
 70
1
  9
$DIMLIM
 70
0
  9
$DIMTFAC
 40
1.0
  9
$DIMTP
 40
0.005
  9
$DIMTM
 40
0.005
  9
$PDMODE
 70
3
  9
$PDSIZE
 40
0.3125
  9
$HANDSEED
  5
46E
  9
$TILEMODE
 70
1
  9
$MEASUREMENT
 70
1
  9
$INSUNITS
 70
4
  0
ENDSEC
  0
SECTION
  2
CLASSES
  0
CLASS
  1
ACDBDICTIONARYWDFLT
  2
AcDbDictionaryWithDefault
  3
AutoCAD 2000
 90
0
280
0
281
0
  0
CLASS
  1
ACDBPLACEHOLDER
  2
AcDbPlaceHolder
  3
AutoCAD 2000
 90
0
280
0
281
0
  0
CLASS
  1
LAYOUT
  2
AcDbLayout
  3
AutoCAD 2000
 90
0
280
0
281
0
  0
ENDSEC
  0
SECTION
  2
TABLES
  0
TABLE
  2
VPORT
  5
8
100
AcDbSymbolTable
 70
2
  0
VPORT
  5
1F4
100
AcDbSymbolTableRecord
100
AcDbViewportTableRecord
  2
*ACTIVE
 70
0
 10
0.0
 20
0.0
 11
1.0
 21
1.0
 12
148.5
 22
105.0
 13
0.0
 23
0.0
 14
1.0
 24
1.0
 15
0.0
 25
0.0
 16
0.0
 26
0.0
 36
1.0
 17
0.0
 27
0.0
 37
0.0
 40
210.0
 41
1.4142857143
 42
50.0
 43
0.0
 44
0.0
 50
0.0
 51
0.0
 71
0
 72
100
 73
1
 74
1
 75
0
 76
0
 77
0
 78
0
  0
ENDTAB
  0
TABLE
  2
LTYPE
  5
5
100
AcDbSymbolTable
 70
6
  0
LTYPE
  5
14
100
AcDbSymbolTableRecord
100
AcDbLinetypeTableRecord
  2
BYBLOCK
 70
0
  3

 72
65
 73
0
 40
0.0
  0
LTYPE
  5
15
100
AcDbSymbolTableRecord
100
AcDbLinetypeTableRecord
  2
BYLAYER
 70
0
  3

 72
65
 73
0
 40
0.0
  0
LTYPE
  5
16
100
AcDbSymbolTableRecord
100
AcDbLinetypeTableRecord
  2
CONTINUOUS
 70
64
  3
Solid line
 72
65
 73
0
 40
0.0
  0
LTYPE
  5
1F5
100
AcDbSymbolTableRecord
100
AcDbLinetypeTableRecord
  2
CENTER
 70
64
  3
____ _ ____ _ ____ _ ____ _ ____ _ ____ _ ____
 72
65
 73
4
 40
0.6
 49
0.375
 74
0
 49
-0.075
 74
0
 49
0.075
 74
0
 49
-0.075
 74
0
  0
LTYPE
  5
1F6
100
AcDbSymbolTableRecord
100
AcDbLinetypeTableRecord
  2
HIDDEN
 70
64
  3
- - - - - - - - - - - - - - - - - - - -
 72
65
 73
2
 40
0.2
 49
0.1
 74
0
 49
-0.1
 74
0
  0
LTYPE
  5
1F7
100
AcDbSymbolTableRecord
100
AcDbLinetypeTableRecord
  2
PHANTOM
 70
64
  3
_____ _ _ _____ _ _ _____ _ _ _____
 72
65
 73
6
 40
0.8
 49
0.45
 74
0
 49
-0.05
 74
0
 49
0.1
 74
0
 49
-0.05
 74
0
 49
0.1
 74
0
 49
-0.05
 74
0
  0
LTYPE
  5
1F8
100
AcDbSymbolTableRecord
100
AcDbLinetypeTableRecord
  2
DOT
 70
64
  3
. . . . . . . . . . . . . . . . . . . .
 72
65
 73
2
 40
0.2
 49
0.1
 74
0
 49
-0.1
 74
0
  0
LTYPE
  5
1F9
100
AcDbSymbolTableRecord
100
AcDbLinetypeTableRecord
  2
DASHED
 70
64
  3
- - - - - - - - - - - - - - - - - - - -
 72
65
 73
2
 40
0.2
 49
0.1
 74
0
 49
-0.1
 74
0
  0
ENDTAB
  0
TABLE
  2
LAYER
  5
2
100
AcDbSymbolTable
 70
36
  0
LAYER
  5
10
100
AcDbSymbolTableRecord
100
AcDbLayerTableRecord
  2
0
 70
0
 62
7
  6
CONTINUOUS
370
-3
390
F
  0
LAYER
  5
1FA
100
AcDbSymbolTableRecord
100
AcDbLayerTableRecord
  2
DEFAULT_1
 70
0
 62
7
  6
CENTER
370
-3
390
F
  0
LAYER
  5
1FB
100
AcDbSymbolTableRecord
100
AcDbLayerTableRecord
  2
DEFAULT_2
 70
0
 62
8
  6
HIDDEN
370
-3
390
F
  0
LAYER
  5
1FC
100
AcDbSymbolTableRecord
100
AcDbLayerTableRecord
  2
DEFAULT_3
 70
0
 62
7
  6
PHANTOM
370
-3
390
F
  0
LAYER
  5
1FD
100
AcDbSymbolTableRecord
100
AcDbLayerTableRecord
  2
01___PRT_ALL_DTM_PLN
 70
0
 62
7
  6
CONTINUOUS
370
-3
390
F
  0
LAYER
  5
1FE
100
AcDbSymbolTableRecord
100
AcDbLayerTableRecord
  2
01___PRT_DEF_DTM_PLN
 70
0
 62
7
  6
CONTINUOUS
370
-3
390
F
  0
LAYER
  5
1FF
100
AcDbSymbolTableRecord
100
AcDbLayerTableRecord
  2
02___PRT_ALL_AXES
 70
0
 62
7
  6
CONTINUOUS
370
-3
390
F
  0
LAYER
  5
200
100
AcDbSymbolTableRecord
100
AcDbLayerTableRecord
  2
03___PRT_ALL_CURVES
 70
0
 62
7
  6
CONTINUOUS
370
-3
390
F
  0
LAYER
  5
201
100
AcDbSymbolTableRecord
100
AcDbLayerTableRecord
  2
04___PRT_ALL_DTM_PNT
 70
0
 62
7
  6
CONTINUOUS
370
-3
390
F
  0
LAYER
  5
202
100
AcDbSymbolTableRecord
100
AcDbLayerTableRecord
  2
05___PRT_ALL_DTM_CSYS
 70
0
 62
7
  6
CONTINUOUS
370
-3
390
F
  0
LAYER
  5
203
100
AcDbSymbolTableRecord
100
AcDbLayerTableRecord
  2
05___PRT_DEF_DTM_CSYS
 70
0
 62
7
  6
CONTINUOUS
370
-3
390
F
  0
LAYER
  5
204
100
AcDbSymbolTableRecord
100
AcDbLayerTableRecord
  2
06___PRT_ALL_SURFS
 70
0
 62
7
  6
CONTINUOUS
370
-3
390
F
  0
LAYER
  5
205
100
AcDbSymbolTableRecord
100
AcDbLayerTableRecord
  2
AUSFORMSCHRAEGEN
 70
0
 62
7
  6
CONTINUOUS
370
-3
390
F
  0
LAYER
  5
206
100
AcDbSymbolTableRecord
100
AcDbLayerTableRecord
  2
BEZUGS-KOORDINATENSYSTEME
 70
0
 62
7
  6
CONTINUOUS
370
-3
390
F
  0
LAYER
  5
207
100
AcDbSymbolTableRecord
100
AcDbLayerTableRecord
  2
BEZUGSACHSEN
 70
0
 62
7
  6
CONTINUOUS
370
-3
390
F
  0
LAYER
  5
208
100
AcDbSymbolTableRecord
100
AcDbLayerTableRecord
  2
BEZUGSEBENEN
 70
0
 62
7
  6
CONTINUOUS
370
-3
390
F
  0
LAYER
  5
209
100
AcDbSymbolTableRecord
100
AcDbLayerTableRecord
  2
BOHRUNGEN
 70
0
 62
7
  6
CONTINUOUS
370
-3
390
F
  0
LAYER
  5
20A
100
AcDbSymbolTableRecord
100
AcDbLayerTableRecord
  2
FLAECHEN
 70
0
 62
7
  6
CONTINUOUS
370
-3
390
F
  0
LAYER
  5
20B
100
AcDbSymbolTableRecord
100
AcDbLayerTableRecord
  2
RUNDUNGEN
 70
0
 62
7
  6
CONTINUOUS
370
-3
390
F
  0
LAYER
  5
20C
100
AcDbSymbolTableRecord
100
AcDbLayerTableRecord
  2
SAMMELFLÄCHEN
 70
0
 62
7
  6
CONTINUOUS
370
-3
390
F
  0
ENDTAB
  0
TABLE
  2
STYLE
  5
3
100
AcDbSymbolTable
 70
1
  0
STYLE
  5
11
100
AcDbSymbolTableRecord
100
AcDbTextStyleTableRecord
  2
STANDARD
 70
0
 40
0.0
 41
0.7
 50
0.0
 71
0
 42
0.2
  3
txt
  4

  0
STYLE
  5
20D
100
AcDbSymbolTableRecord
100
AcDbTextStyleTableRecord
  2
TEXTSTYLE_1
 70
0
 40
0.0
 41
0.8
 50
0.0
 71
0
 42
0.2
  3
gdt
  4

  0
ENDTAB
  0
TABLE
  2
VIEW
  5
6
100
AcDbSymbolTable
 70
0
  0
ENDTAB
  0
TABLE
  2
UCS
  5
7
100
AcDbSymbolTable
 70
0
  0
ENDTAB
  0
TABLE
  2
APPID
  5
9
100
AcDbSymbolTable
 70
1
  0
APPID
  5
20E
100
AcDbSymbolTableRecord
100
AcDbRegAppTableRecord
  2
ACAD
 70
0
  0
ENDTAB
  0
TABLE
  2
BLOCK_RECORD
  5
1
100
AcDbSymbolTable
 70
0
  0
BLOCK_RECORD
  5
20F
100
AcDbSymbolTableRecord
100
AcDbBlockTableRecord
  2
*Model_Space
  0
BLOCK_RECORD
  5
210
100
AcDbSymbolTableRecord
100
AcDbBlockTableRecord
  2
*Paper_Space
  0
ENDTAB
  0
TABLE
  2
DIMSTYLE
  5
A
100
AcDbSymbolTable
 70
1
100
AcDbDimStyleTable
 71
0
  0
DIMSTYLE
105
211
100
AcDbSymbolTableRecord
100
AcDbDimStyleTableRecord
  2
STANDARD
 70
0
  3

  4

 40
1.0
 41
3.5
 42
0.0625
 43
0.38
 44
0.18
 45
0.0
 46
0.0
 47
0.005
 48
0.005
140
3.5
141
0.09
142
0.0
143
25.4
144
1.0
145
0.0
146
1.0
147
0.09
 71
1.0
 72
0.0
 73
0
 74
0
 75
0
 76
0
 77
1
 78
8
170
0
171
2
172
0
173
0
174
0
175
0
176
0
177
0
178
5
270
2
271
3
272
3
273
2
274
2
275
0
280
0
281
0
282
0
283
1
284
8
285
0
286
0
287
3
288
0
340
11
  0
ENDTAB
  0
ENDSEC
  0
SECTION
  2
BLOCKS
  0
BLOCK
  5
20
100
AcDbEntity
  8
0
100
AcDbBlockBegin
  2
*Model_Space
 70
0
 10
0.0
 20
0.0
 30
0.0
  3
*Model_Space
  1

  0
ENDBLK
  5
21
100
AcDbEntity
  8
0
100
AcDbBlockEnd
  0
BLOCK
  5
1C
100
AcDbEntity
  8
0
100
AcDbBlockBegin
  2
*Paper_Space
 70
0
 10
0.0
 20
0.0
 30
0.0
  3
*Paper_Space
  1

  0
ENDBLK
  5
1D
100
AcDbEntity
  8
0
100
AcDbBlockEnd
  0
ENDSEC
  0
SECTION
  2
ENTITIES
  0
LINE
  5
212
100
AcDbEntity
  8
0
100
AcDbLine
 62
7
  6
CONTINUOUS
 10
0.0
 20
0.0
 11
0.0
 21
210.0
  0
LINE
  5
213
100
AcDbEntity
  8
0
100
AcDbLine
 62
7
  6
CONTINUOUS
 10
0.0
 20
0.0
 11
297.0
 21
0.0
  0
LINE
  5
214
100
AcDbEntity
  8
0
100
AcDbLine
 62
7
  6
CONTINUOUS
 10
0.0
 20
210.0
 11
297.0
 21
210.0
  0
LINE
  5
215
100
AcDbEntity
  8
0
100
AcDbLine
 62
7
  6
CONTINUOUS
 10
297.0
 20
0.0
 11
297.0
 21
210.0
  0
LINE
  5
216
100
AcDbEntity
  8
0
100
AcDbLine
 62
7
  6
CONTINUOUS
 10
14.4859176157
 20
90.7096664278
 11
14.2072776973
 21
91.5065765944
  0
LINE
  5
217
100
AcDbEntity
  8
0
100
AcDbLine
 62
7
  6
CONTINUOUS
 10
14.9013841517
 20
92.1760977492
 11
14.4860006647
 21
102.212445983
  0
LINE
  5
218
100
AcDbEntity
  8
0
100
AcDbLine
 62
7
  6
CONTINUOUS
 10
12.4860006647
 20
106.212445983
 11
12.4860006647
 21
93.5694289077
  0
LINE
  5
219
100
AcDbEntity
  8
RUNDUNGEN
100
AcDbLine
 62
7
  6
CONTINUOUS
 10
12.4860006647
 20
106.212445983
 11
12.4860006647
 21
203.2307161938
  0
LINE
  5
21A
100
AcDbEntity
  8
0
100
AcDbLine
 62
7
  6
CONTINUOUS
 10
12.4860006647
 20
203.2307161938
 11
12.4860006647
 21
206.212445983
  0
LINE
  5
21B
100
AcDbEntity
  8
0
100
AcDbLine
 62
7
  6
CONTINUOUS
 10
12.5860006647
 20
91.5065765944
 11
12.5860006647
 21
106.212445983
  0
LINE
  5
21C
100
AcDbEntity
  8
0
100
AcDbLine
 62
7
  6
CONTINUOUS
 10
24.4859176157
 20
90.7096664278
 11
23.4860006647
 21
93.5694289077
  0
LINE
  5
21D
100
AcDbEntity
  8
0
100
AcDbLine
 62
7
  6
CONTINUOUS
 10
14.4860006647
 20
102.212445983
 11
14.4860006647
 21
102.260902479
  0
LINE
  5
21E
100
AcDbEntity
  8
0
100
AcDbLine
 62
7
  6
CONTINUOUS
 10
18.0860006647
 20
90.2127325302
 11
18.0860006647
 21
92.1760977492
  0
LINE
  5
21F
100
AcDbEntity
  8
0
100
AcDbLine
 62
7
  6
CONTINUOUS
 10
20.4860006647
 20
102.212445983
 11
20.4860006647
 21
102.260902479
  0
LINE
  5
220
100
AcDbEntity
  8
0
100
AcDbLine
 62
7
  6
CONTINUOUS
 10
34.4859176157
 20
90.7096664278
 11
33.4860006647
 21
93.5694289077
  0
LINE
  5
221
100
AcDbEntity
  8
0
100
AcDbLine
 62
7
  6
CONTINUOUS
 10
24.9826378704
 20
90.2128742655
 11
24.9620865111
 21
90.7094289077
  0
LINE
  5
222
100
AcDbEntity
  8
0
100
AcDbLine
 62
7
  6
CONTINUOUS
 10
22.3860006647
 20
102.212445983
 11
22.3860006647
 21
106.212445983
  0
LINE
  5
223
100
AcDbEntity
  8
0
100
AcDbLine
 62
7
  6
CONTINUOUS
 10
20.4860006647
 20
102.212445983
 11
19.9893462754
 21
90.2124590803
  0
LINE
  5
224
100
AcDbEntity
  8
0
100
AcDbLine
 62
7
  6
CONTINUOUS
 10
34.9826555453
 20
90.2124472096
 11
34.4860006647
 21
102.212445983
  0
LINE
  5
225
100
AcDbEntity
  8
0
100
AcDbLine
 62
7
  6
CONTINUOUS
 10
32.5860006647
 20
102.212445983
 11
32.5860006647
 21
106.212445983
  0
LINE
  5
226
100
AcDbEntity
  8
0
100
AcDbLine
 62
7
  6
CONTINUOUS
 10
34.4860006647
 20
102.212445983
 11
34.4860006647
 21
102.260902479
  0
LINE
  5
227
100
AcDbEntity
  8
0
100
AcDbLine
 62
7
  6
CONTINUOUS
 10
30.0099148184
 20
90.7094289077
 11
29.9893634591
 21
90.2128742655
  0
LINE
  5
228
100
AcDbEntity
  8
0
100
AcDbLine
 62
7
  6
CONTINUOUS
 10
44.4859176157
 20
90.7096664278
 11
43.4860006647
 21
93.5694289077
  0
LINE
  5
229
100
AcDbEntity
  8
0
100
AcDbLine
 62
7
  6
CONTINUOUS
 10
44.9826378704
 20
90.2128742655
 11
44.9620865111
 21
90.7094289077
  0
LINE
  5
22A
100
AcDbEntity
  8
0
100
AcDbLine
 62
7
  6
CONTINUOUS
 10
40.4860006647
 20
102.212445983
 11
40.4860006647
 21
102.260902479
  0
LINE
  5
22B
100
AcDbEntity
  8
0
100
AcDbLine
 62
7
  6
CONTINUOUS
 10
42.3860006647
 20
102.212445983
 11
42.3860006647
 21
106.212445983
  0
LINE
  5
22C
100
AcDbEntity
  8
0
100
AcDbLine
 62
7
  6
CONTINUOUS
 10
40.4860006647
 20
102.212445983
 11
39.9893457841
 21
90.2124472096
  0
LINE
  5
22D
100
AcDbEntity
  8
0
100
AcDbLine
 62
7
  6
CONTINUOUS
 10
54.4859176157
 20
90.7096664278
 11
53.4860006647
 21
93.5694289077
  0
LINE
  5
22E
100
AcDbEntity
  8
0
100
AcDbLine
 62
7
  6
CONTINUOUS
 10
21.4860006647
 20
93.5694289077
 11
20.4860837137
 21
90.7096664278
  0
LINE
  5
22F
100
AcDbEntity
  8
0
100
AcDbLine
 62
7
  6
CONTINUOUS
 10
64.4859176157
 20
90.7096664278
 11
63.4860006647
 21
93.5694289077
  0
LINE
  5
230
100
AcDbEntity
  8
0
100
AcDbLine
 62
7
  6
CONTINUOUS
 10
54.9826534465
 20
90.2124979206
 11
54.4860006647
 21
102.212445983
  0
LINE
  5
231
100
AcDbEntity
  8
0
100
AcDbLine
 62
7
  6
CONTINUOUS
 10
52.5860006647
 20
102.212445983
 11
52.5860006647
 21
106.212445983
  0
LINE
  5
232
100
AcDbEntity
  8
0
100
AcDbLine
 62
7
  6
CONTINUOUS
 10
54.4860006647
 20
102.212445983
 11
54.4860006647
 21
102.260902479
  0
LINE
  5
233
100
AcDbEntity
  8
0
100
AcDbLine
 62
7
  6
CONTINUOUS
 10
50.0099148184
 20
90.7094289077
 11
49.9893634591
 21
90.2128742655
  0
LINE
  5
234
100
AcDbEntity
  8
0
100
AcDbLine
 62
7
  6
CONTINUOUS
 10
31.4860006647
 20
93.5694289077
 11
30.4860837137
 21
90.7096664278
  0
LINE
  5
235
100
AcDbEntity
  8
02___PRT_ALL_AXES
100
AcDbLine
 62
7
  6
CONTINUOUS
 10
199.9912929099
 20
90.212445983
 11
194.9807084196
 21
90.212445983
  0
LINE
  5
236
100
AcDbEntity
  8
02___PRT_ALL_AXES
100
AcDbLine
 62
7
  6
CONTINUOUS
 10
179.9912931179
 20
90.212445983
 11
174.9807082115
 21
90.212445983
  0
LINE
  5
237
100
AcDbEntity
  8
02___PRT_ALL_AXES
100
AcDbLine
 62
7
  6
CONTINUOUS
 10
159.99129322
 20
90.212445983
 11
154.9807081094
 21
90.212445983
  0
LINE
  5
238
100
AcDbEntity
  8
02___PRT_ALL_AXES
100
AcDbLine
 62
7
  6
CONTINUOUS
 10
139.9909796676
 20
90.212445983
 11
134.9810216618
 21
90.212445983
  0
LINE
  5
239
100
AcDbEntity
  8
02___PRT_ALL_AXES
100
AcDbLine
 62
7
  6
CONTINUOUS
 10
119.9909796687
 20
90.212445983
 11
114.9810216607
 21
90.212445983
  0
LINE
  5
23A
100
AcDbEntity
  8
02___PRT_ALL_AXES
100
AcDbLine
 62
7
  6
CONTINUOUS
 10
99.990543104
 20
90.212445983
 11
94.9814582254
 21
90.212445983
  0
LINE
  5
23B
100
AcDbEntity
  8
02___PRT_ALL_AXES
100
AcDbLine
 62
7
  6
CONTINUOUS
 10
79.9905431046
 20
90.212445983
 11
74.9814582249
 21
90.212445983
  0
LINE
  5
23C
100
AcDbEntity
  8
02___PRT_ALL_AXES
100
AcDbLine
 62
7
  6
CONTINUOUS
 10
59.990044254
 20
90.212445983
 11
54.9819570754
 21
90.212445983
  0
LINE
  5
23D
100
AcDbEntity
  8
02___PRT_ALL_AXES
100
AcDbLine
 62
7
  6
CONTINUOUS
 10
39.9895153549
 20
90.212445983
 11
34.9824859745
 21
90.212445983
  0
LINE
  5
23E
100
AcDbEntity
  8
02___PRT_ALL_AXES
100
AcDbLine
 62
7
  6
CONTINUOUS
 10
19.989648704
 20
90.212445983
 11
18.0860006647
 21
90.212445983
  0
LINE
  5
23F
100
AcDbEntity
  8
02___PRT_ALL_AXES
100
AcDbLine
 62
7
  6
CONTINUOUS
 10
24.9807084202
 20
90.212445983
 11
29.9912929092
 21
90.212445983
  0
LINE
  5
240
100
AcDbEntity
  8
02___PRT_ALL_AXES
100
AcDbLine
 62
7
  6
CONTINUOUS
 10
44.9807084202
 20
90.212445983
 11
49.9912929092
 21
90.212445983
  0
LINE
  5
241
100
AcDbEntity
  8
02___PRT_ALL_AXES
100
AcDbLine
 62
7
  6
CONTINUOUS
 10
64.9807084202
 20
90.212445983
 11
69.9912929092
 21
90.212445983
  0
LINE
  5
242
100
AcDbEntity
  8
02___PRT_ALL_AXES
100
AcDbLine
 62
7
  6
CONTINUOUS
 10
84.9807084202
 20
90.212445983
 11
89.9912929092
 21
90.212445983
  0
LINE
  5
243
100
AcDbEntity
  8
02___PRT_ALL_AXES
100
AcDbLine
 62
7
  6
CONTINUOUS
 10
104.9807084202
 20
90.212445983
 11
109.9912929092
 21
90.212445983
  0
LINE
  5
244
100
AcDbEntity
  8
02___PRT_ALL_AXES
100
AcDbLine
 62
7
  6
CONTINUOUS
 10
124.9807084202
 20
90.212445983
 11
129.9912929092
 21
90.212445983
  0
LINE
  5
245
100
AcDbEntity
  8
02___PRT_ALL_AXES
100
AcDbLine
 62
7
  6
CONTINUOUS
 10
144.9807084202
 20
90.212445983
 11
149.9912929092
 21
90.212445983
  0
LINE
  5
246
100
AcDbEntity
  8
02___PRT_ALL_AXES
100
AcDbLine
 62
7
  6
CONTINUOUS
 10
164.9807084202
 20
90.212445983
 11
169.9912929092
 21
90.212445983
  0
LINE
  5
247
100
AcDbEntity
  8
02___PRT_ALL_AXES
100
AcDbLine
 62
7
  6
CONTINUOUS
 10
184.9807084202
 20
90.212445983
 11
189.9912929092
 21
90.212445983
  0
LINE
  5
248
100
AcDbEntity
  8
0
100
AcDbLine
 62
7
  6
CONTINUOUS
 10
204.9806216596
 20
90.212445983
 11
206.8860006647
 21
90.212445983
  0
LINE
  5
249
100
AcDbEntity
  8
0
100
AcDbLine
 62
9
  6
CONTINUOUS
 10
190.0055510817
 20
90.6039938527
 11
184.9664502477
 21
90.6039938527
  0
LINE
  5
24A
100
AcDbEntity
  8
0
100
AcDbLine
 62
9
  6
CONTINUOUS
 10
170.0055510817
 20
90.6039938527
 11
164.9664502477
 21
90.6039938527
  0
LINE
  5
24B
100
AcDbEntity
  8
0
100
AcDbLine
 62
9
  6
CONTINUOUS
 10
150.0055510817
 20
90.6039938527
 11
144.9664502477
 21
90.6039938527
  0
LINE
  5
24C
100
AcDbEntity
  8
0
100
AcDbLine
 62
9
  6
CONTINUOUS
 10
130.0055510817
 20
90.6039938527
 11
124.9664502477
 21
90.6039938527
  0
LINE
  5
24D
100
AcDbEntity
  8
0
100
AcDbLine
 62
9
  6
CONTINUOUS
 10
110.0055510817
 20
90.6039938527
 11
104.9664502477
 21
90.6039938527
  0
LINE
  5
24E
100
AcDbEntity
  8
0
100
AcDbLine
 62
9
  6
CONTINUOUS
 10
90.0055510817
 20
90.6039938527
 11
84.9664502477
 21
90.6039938527
  0
LINE
  5
24F
100
AcDbEntity
  8
0
100
AcDbLine
 62
9
  6
CONTINUOUS
 10
70.0055510817
 20
90.6039938527
 11
64.9664502477
 21
90.6039938527
  0
LINE
  5
250
100
AcDbEntity
  8
0
100
AcDbLine
 62
9
  6
CONTINUOUS
 10
50.0055510817
 20
90.6039938527
 11
44.9664502477
 21
90.6039938527
  0
LINE
  5
251
100
AcDbEntity
  8
0
100
AcDbLine
 62
9
  6
CONTINUOUS
 10
30.0055510817
 20
90.6039938527
 11
24.9664502477
 21
90.6039938527
  0
LINE
  5
252
100
AcDbEntity
  8
0
100
AcDbLine
 62
9
  6
CONTINUOUS
 10
204.9664502477
 20
90.6039938527
 11
206.8860006647
 21
90.6039938527
  0
LINE
  5
253
100
AcDbEntity
  8
0
100
AcDbLine
 62
7
  6
CONTINUOUS
 10
14.4818588826
 20
90.7094289077
 11
18.0860006647
 21
90.7094289077
  0
LINE
  5
254
100
AcDbEntity
  8
0
100
AcDbLine
 62
7
  6
CONTINUOUS
 10
20.0099148184
 20
90.7094289077
 11
20.4901424468
 21
90.7094289077
  0
LINE
  5
255
100
AcDbEntity
  8
0
100
AcDbLine
 62
7
  6
CONTINUOUS
 10
24.4818588826
 20
90.7094289077
 11
30.4901424468
 21
90.7094289077
  0
LINE
  5
256
100
AcDbEntity
  8
0
100
AcDbLine
 62
7
  6
CONTINUOUS
 10
34.4818588826
 20
90.7094289077
 11
34.9620865111
 21
90.7094289077
  0
LINE
  5
257
100
AcDbEntity
  8
0
100
AcDbLine
 62
7
  6
CONTINUOUS
 10
40.0099148184
 20
90.7094289077
 11
40.4901424468
 21
90.7094289077
  0
LINE
  5
258
100
AcDbEntity
  8
0
100
AcDbLine
 62
7
  6
CONTINUOUS
 10
44.4818588826
 20
90.7094289077
 11
50.4901424468
 21
90.7094289077
  0
LINE
  5
259
100
AcDbEntity
  8
0
100
AcDbLine
 62
7
  6
CONTINUOUS
 10
54.4818588826
 20
90.7094289077
 11
54.9620865111
 21
90.7094289077
  0
LINE
  5
25A
100
AcDbEntity
  8
0
100
AcDbLine
 62
7
  6
CONTINUOUS
 10
60.0099148184
 20
90.7094289077
 11
60.4901424468
 21
90.7094289077
  0
LINE
  5
25B
100
AcDbEntity
  8
0
100
AcDbLine
 62
7
  6
CONTINUOUS
 10
64.4818588826
 20
90.7094289077
 11
70.4901424468
 21
90.7094289077
  0
LINE
  5
25C
100
AcDbEntity
  8
0
100
AcDbLine
 62
7
  6
CONTINUOUS
 10
74.4818588826
 20
90.7094289077
 11
74.9620865111
 21
90.7094289077
  0
LINE
  5
25D
100
AcDbEntity
  8
0
100
AcDbLine
 62
7
  6
CONTINUOUS
 10
80.0099148184
 20
90.7094289077
 11
80.4901424468
 21
90.7094289077
  0
LINE
  5
25E
100
AcDbEntity
  8
0
100
AcDbLine
 62
7
  6
CONTINUOUS
 10
84.4818588826
 20
90.7094289077
 11
90.4901424468
 21
90.7094289077
  0
LINE
  5
25F
100
AcDbEntity
  8
0
100
AcDbLine
 62
7
  6
CONTINUOUS
 10
94.4818588826
 20
90.7094289077
 11
94.9620865111
 21
90.7094289077
  0
LINE
  5
260
100
AcDbEntity
  8
0
100
AcDbLine
 62
7
  6
CONTINUOUS
 10
100.0099148184
 20
90.7094289077
 11
100.4901424468
 21
90.7094289077
  0
LINE
  5
261
100
AcDbEntity
  8
0
100
AcDbLine
 62
7
  6
CONTINUOUS
 10
104.4818588826
 20
90.7094289077
 11
110.4901424468
 21
90.7094289077
  0
LINE
  5
262
100
AcDbEntity
  8
0
100
AcDbLine
 62
7
  6
CONTINUOUS
 10
114.4818588826
 20
90.7094289077
 11
114.9620865111
 21
90.7094289077
  0
LINE
  5
263
100
AcDbEntity
  8
0
100
AcDbLine
 62
7
  6
CONTINUOUS
 10
120.0099148184
 20
90.7094289077
 11
120.4901424468
 21
90.7094289077
  0
LINE
  5
264
100
AcDbEntity
  8
0
100
AcDbLine
 62
7
  6
CONTINUOUS
 10
124.4818588826
 20
90.7094289077
 11
130.4901424468
 21
90.7094289077
  0
LINE
  5
265
100
AcDbEntity
  8
0
100
AcDbLine
 62
7
  6
CONTINUOUS
 10
134.4818588826
 20
90.7094289077
 11
134.9620865111
 21
90.7094289077
  0
LINE
  5
266
100
AcDbEntity
  8
0
100
AcDbLine
 62
7
  6
CONTINUOUS
 10
140.0099148184
 20
90.7094289077
 11
140.4901424468
 21
90.7094289077
  0
LINE
  5
267
100
AcDbEntity
  8
0
100
AcDbLine
 62
7
  6
CONTINUOUS
 10
144.4818588826
 20
90.7094289077
 11
150.4901424468
 21
90.7094289077
  0
LINE
  5
268
100
AcDbEntity
  8
0
100
AcDbLine
 62
7
  6
CONTINUOUS
 10
154.4818588826
 20
90.7094289077
 11
154.9620865111
 21
90.7094289077
  0
LINE
  5
269
100
AcDbEntity
  8
0
100
AcDbLine
 62
7
  6
CONTINUOUS
 10
160.0099148184
 20
90.7094289077
 11
160.4901424468
 21
90.7094289077
  0
LINE
  5
26A
100
AcDbEntity
  8
0
100
AcDbLine
 62
7
  6
CONTINUOUS
 10
164.4818588826
 20
90.7094289077
 11
170.4901424468
 21
90.7094289077
  0
LINE
  5
26B
100
AcDbEntity
  8
0
100
AcDbLine
 62
7
  6
CONTINUOUS
 10
174.4818588826
 20
90.7094289077
 11
174.9620865111
 21
90.7094289077
  0
LINE
  5
26C
100
AcDbEntity
  8
0
100
AcDbLine
 62
7
  6
CONTINUOUS
 10
180.0099148184
 20
90.7094289077
 11
180.4901424468
 21
90.7094289077
  0
LINE
  5
26D
100
AcDbEntity
  8
0
100
AcDbLine
 62
7
  6
CONTINUOUS
 10
184.4818588826
 20
90.7094289077
 11
190.4901424468
 21
90.7094289077
  0
LINE
  5
26E
100
AcDbEntity
  8
0
100
AcDbLine
 62
7
  6
CONTINUOUS
 10
194.4818588826
 20
90.7094289077
 11
194.9620865111
 21
90.7094289077
  0
LINE
  5
26F
100
AcDbEntity
  8
0
100
AcDbLine
 62
7
  6
CONTINUOUS
 10
200.0099148184
 20
90.7094289077
 11
200.4901424468
 21
90.7094289077
  0
LINE
  5
270
100
AcDbEntity
  8
0
100
AcDbLine
 62
7
  6
CONTINUOUS
 10
204.4818588826
 20
90.7094289077
 11
210.4901424468
 21
90.7094289077
  0
LINE
  5
271
100
AcDbEntity
  8
0
100
AcDbLine
 62
9
  6
CONTINUOUS
 10
14.4359068288
 20
90.8526972784
 11
18.0860006647
 21
90.8526972784
  0
LINE
  5
272
100
AcDbEntity
  8
0
100
AcDbLine
 62
9
  6
CONTINUOUS
 10
20.0158443969
 20
90.8526972784
 11
20.5360945006
 21
90.8526972784
  0
LINE
  5
273
100
AcDbEntity
  8
0
100
AcDbLine
 62
9
  6
CONTINUOUS
 10
24.4359068288
 20
90.8526972784
 11
30.5360945006
 21
90.8526972784
  0
LINE
  5
274
100
AcDbEntity
  8
0
100
AcDbLine
 62
9
  6
CONTINUOUS
 10
34.4359068288
 20
90.8526972784
 11
34.9561569325
 21
90.8526972784
  0
LINE
  5
275
100
AcDbEntity
  8
0
100
AcDbLine
 62
9
  6
CONTINUOUS
 10
40.0158443969
 20
90.8526972784
 11
40.5360945006
 21
90.8526972784
  0
LINE
  5
276
100
AcDbEntity
  8
0
100
AcDbLine
 62
9
  6
CONTINUOUS
 10
44.4359068288
 20
90.8526972784
 11
50.5360945006
 21
90.8526972784
  0
LINE
  5
277
100
AcDbEntity
  8
0
100
AcDbLine
 62
9
  6
CONTINUOUS
 10
54.4359068288
 20
90.8526972784
 11
54.9561569325
 21
90.8526972784
  0
LINE
  5
278
100
AcDbEntity
  8
0
100
AcDbLine
 62
9
  6
CONTINUOUS
 10
60.0158443969
 20
90.8526972784
 11
60.5360945006
 21
90.8526972784
  0
LINE
  5
279
100
AcDbEntity
  8
0
100
AcDbLine
 62
9
  6
CONTINUOUS
 10
64.4359068288
 20
90.8526972784
 11
70.5360945006
 21
90.8526972784
  0
LINE
  5
27A
100
AcDbEntity
  8
0
100
AcDbLine
 62
9
  6
CONTINUOUS
 10
74.4359068288
 20
90.8526972784
 11
74.9561569325
 21
90.8526972784
  0
LINE
  5
27B
100
AcDbEntity
  8
0
100
AcDbLine
 62
9
  6
CONTINUOUS
 10
80.0158443969
 20
90.8526972784
 11
80.5360945006
 21
90.8526972784
  0
LINE
  5
27C
100
AcDbEntity
  8
0
100
AcDbLine
 62
9
  6
CONTINUOUS
 10
84.4359068288
 20
90.8526972784
 11
90.5360945006
 21
90.8526972784
  0
LINE
  5
27D
100
AcDbEntity
  8
0
100
AcDbLine
 62
9
  6
CONTINUOUS
 10
94.4359068288
 20
90.8526972784
 11
94.9561569325
 21
90.8526972784
  0
LINE
  5
27E
100
AcDbEntity
  8
0
100
AcDbLine
 62
9
  6
CONTINUOUS
 10
100.0158443969
 20
90.8526972784
 11
100.5360945006
 21
90.8526972784
  0
LINE
  5
27F
100
AcDbEntity
  8
0
100
AcDbLine
 62
9
  6
CONTINUOUS
 10
104.4359068288
 20
90.8526972784
 11
110.5360945006
 21
90.8526972784
  0
LINE
  5
280
100
AcDbEntity
  8
0
100
AcDbLine
 62
9
  6
CONTINUOUS
 10
114.4359068288
 20
90.8526972784
 11
114.9561569325
 21
90.8526972784
  0
LINE
  5
281
100
AcDbEntity
  8
0
100
AcDbLine
 62
9
  6
CONTINUOUS
 10
120.0158443969
 20
90.8526972784
 11
120.5360945006
 21
90.8526972784
  0
LINE
  5
282
100
AcDbEntity
  8
0
100
AcDbLine
 62
9
  6
CONTINUOUS
 10
124.4359068288
 20
90.8526972784
 11
130.5360945006
 21
90.8526972784
  0
LINE
  5
283
100
AcDbEntity
  8
0
100
AcDbLine
 62
9
  6
CONTINUOUS
 10
134.4359068288
 20
90.8526972784
 11
134.9561569325
 21
90.8526972784
  0
LINE
  5
284
100
AcDbEntity
  8
0
100
AcDbLine
 62
9
  6
CONTINUOUS
 10
140.0158443969
 20
90.8526972784
 11
140.5360945006
 21
90.8526972784
  0
LINE
  5
285
100
AcDbEntity
  8
0
100
AcDbLine
 62
9
  6
CONTINUOUS
 10
144.4359068288
 20
90.8526972784
 11
150.5360945006
 21
90.8526972784
  0
LINE
  5
286
100
AcDbEntity
  8
0
100
AcDbLine
 62
9
  6
CONTINUOUS
 10
154.4359068288
 20
90.8526972784
 11
154.9561569325
 21
90.8526972784
  0
LINE
  5
287
100
AcDbEntity
  8
0
100
AcDbLine
 62
9
  6
CONTINUOUS
 10
160.0158443969
 20
90.8526972784
 11
160.5360945006
 21
90.8526972784
  0
LINE
  5
288
100
AcDbEntity
  8
0
100
AcDbLine
 62
9
  6
CONTINUOUS
 10
164.4359068288
 20
90.8526972784
 11
170.5360945006
 21
90.8526972784
  0
LINE
  5
289
100
AcDbEntity
  8
0
100
AcDbLine
 62
9
  6
CONTINUOUS
 10
174.4359068288
 20
90.8526972784
 11
174.9561569325
 21
90.8526972784
  0
LINE
  5
28A
100
AcDbEntity
  8
0
100
AcDbLine
 62
9
  6
CONTINUOUS
 10
180.0158443969
 20
90.8526972784
 11
180.5360945006
 21
90.8526972784
  0
LINE
  5
28B
100
AcDbEntity
  8
0
100
AcDbLine
 62
9
  6
CONTINUOUS
 10
184.4359068288
 20
90.8526972784
 11
190.5360945006
 21
90.8526972784
  0
LINE
  5
28C
100
AcDbEntity
  8
0
100
AcDbLine
 62
9
  6
CONTINUOUS
 10
194.4359068288
 20
90.8526972784
 11
194.9561569325
 21
90.8526972784
  0
LINE
  5
28D
100
AcDbEntity
  8
0
100
AcDbLine
 62
9
  6
CONTINUOUS
 10
200.0158443969
 20
90.8526972784
 11
200.5360945006
 21
90.8526972784
  0
LINE
  5
28E
100
AcDbEntity
  8
0
100
AcDbLine
 62
9
  6
CONTINUOUS
 10
204.4359068288
 20
90.8526972784
 11
210.5360945006
 21
90.8526972784
  0
LINE
  5
28F
100
AcDbEntity
  8
0
100
AcDbLine
 62
7
  6
CONTINUOUS
 10
212.3860006647
 20
91.1816568981
 11
210.6511153467
 21
91.1816568981
  0
LINE
  5
290
100
AcDbEntity
  8
0
100
AcDbLine
 62
7
  6
CONTINUOUS
 10
12.5860006647
 20
91.5065765944
 11
18.0860006647
 21
91.5065765944
  0
LINE
  5
291
100
AcDbEntity
  8
0
100
AcDbLine
 62
7
  6
CONTINUOUS
 10
18.0860006647
 20
92.1760977492
 11
14.9013841517
 21
92.1760977492
  0
LINE
  5
292
100
AcDbEntity
  8
0
100
AcDbLine
 62
7
  6
CONTINUOUS
 10
12.4860006647
 20
93.5694289077
 11
12.5860006647
 21
93.5694289077
  0
LINE
  5
293
100
AcDbEntity
  8
0
100
AcDbLine
 62
7
  6
CONTINUOUS
 10
21.4860006647
 20
93.5694289077
 11
23.4860006647
 21
93.5694289077
  0
LINE
  5
294
100
AcDbEntity
  8
0
100
AcDbLine
 62
7
  6
CONTINUOUS
 10
31.4860006647
 20
93.5694289077
 11
33.4860006647
 21
93.5694289077
  0
LINE
  5
295
100
AcDbEntity
  8
0
100
AcDbLine
 62
7
  6
CONTINUOUS
 10
41.4860006647
 20
93.5694289077
 11
43.4860006647
 21
93.5694289077
  0
LINE
  5
296
100
AcDbEntity
  8
0
100
AcDbLine
 62
7
  6
CONTINUOUS
 10
51.4860006647
 20
93.5694289077
 11
53.4860006647
 21
93.5694289077
  0
LINE
  5
297
100
AcDbEntity
  8
0
100
AcDbLine
 62
7
  6
CONTINUOUS
 10
61.4860006647
 20
93.5694289077
 11
63.4860006647
 21
93.5694289077
  0
LINE
  5
298
100
AcDbEntity
  8
0
100
AcDbLine
 62
7
  6
CONTINUOUS
 10
71.4860006647
 20
93.5694289077
 11
73.4860006647
 21
93.5694289077
  0
LINE
  5
299
100
AcDbEntity
  8
0
100
AcDbLine
 62
7
  6
CONTINUOUS
 10
81.4860006647
 20
93.5694289077
 11
83.4860006647
 21
93.5694289077
  0
LINE
  5
29A
100
AcDbEntity
  8
0
100
AcDbLine
 62
7
  6
CONTINUOUS
 10
91.4860006647
 20
93.5694289077
 11
93.4860006647
 21
93.5694289077
  0
LINE
  5
29B
100
AcDbEntity
  8
0
100
AcDbLine
 62
7
  6
CONTINUOUS
 10
101.4860006647
 20
93.5694289077
 11
103.4860006647
 21
93.5694289077
  0
LINE
  5
29C
100
AcDbEntity
  8
0
100
AcDbLine
 62
7
  6
CONTINUOUS
 10
111.4860006647
 20
93.5694289077
 11
113.4860006647
 21
93.5694289077
  0
LINE
  5
29D
100
AcDbEntity
  8
0
100
AcDbLine
 62
7
  6
CONTINUOUS
 10
121.4860006647
 20
93.5694289077
 11
123.4860006647
 21
93.5694289077
  0
LINE
  5
29E
100
AcDbEntity
  8
0
100
AcDbLine
 62
7
  6
CONTINUOUS
 10
131.4860006647
 20
93.5694289077
 11
133.4860006647
 21
93.5694289077
  0
LINE
  5
29F
100
AcDbEntity
  8
0
100
AcDbLine
 62
7
  6
CONTINUOUS
 10
141.4860006647
 20
93.5694289077
 11
143.4860006647
 21
93.5694289077
  0
LINE
  5
2A0
100
AcDbEntity
  8
0
100
AcDbLine
 62
7
  6
CONTINUOUS
 10
151.4860006647
 20
93.5694289077
 11
153.4860006647
 21
93.5694289077
  0
LINE
  5
2A1
100
AcDbEntity
  8
0
100
AcDbLine
 62
7
  6
CONTINUOUS
 10
161.4860006647
 20
93.5694289077
 11
163.4860006647
 21
93.5694289077
  0
LINE
  5
2A2
100
AcDbEntity
  8
0
100
AcDbLine
 62
7
  6
CONTINUOUS
 10
171.4860006647
 20
93.5694289077
 11
173.4860006647
 21
93.5694289077
  0
LINE
  5
2A3
100
AcDbEntity
  8
0
100
AcDbLine
 62
7
  6
CONTINUOUS
 10
181.4860006647
 20
93.5694289077
 11
183.4860006647
 21
93.5694289077
  0
LINE
  5
2A4
100
AcDbEntity
  8
0
100
AcDbLine
 62
7
  6
CONTINUOUS
 10
191.4860006647
 20
93.5694289077
 11
193.4860006647
 21
93.5694289077
  0
LINE
  5
2A5
100
AcDbEntity
  8
0
100
AcDbLine
 62
7
  6
CONTINUOUS
 10
201.4860006647
 20
93.5694289077
 11
203.4860006647
 21
93.5694289077
  0
LINE
  5
2A6
100
AcDbEntity
  8
0
100
AcDbLine
 62
7
  6
CONTINUOUS
 10
211.4860006647
 20
93.5694289077
 11
212.4860006647
 21
93.5694289077
  0
LINE
  5
2A7
100
AcDbEntity
  8
0
100
AcDbLine
 62
7
  6
CONTINUOUS
 10
12.4860006647
 20
93.632445983
 11
12.5860006647
 21
93.632445983
  0
LINE
  5
2A8
100
AcDbEntity
  8
0
100
AcDbLine
 62
7
  6
CONTINUOUS
 10
20.1308923888
 20
93.632445983
 11
34.8411089406
 21
93.632445983
  0
LINE
  5
2A9
100
AcDbEntity
  8
0
100
AcDbLine
 62
7
  6
CONTINUOUS
 10
40.1308923888
 20
93.632445983
 11
54.8411089406
 21
93.632445983
  0
LINE
  5
2AA
100
AcDbEntity
  8
0
100
AcDbLine
 62
7
  6
CONTINUOUS
 10
60.1308923888
 20
93.632445983
 11
74.8411089406
 21
93.632445983
  0
LINE
  5
2AB
100
AcDbEntity
  8
0
100
AcDbLine
 62
7
  6
CONTINUOUS
 10
80.1308923888
 20
93.632445983
 11
94.8411089406
 21
93.632445983
  0
LINE
  5
2AC
100
AcDbEntity
  8
0
100
AcDbLine
 62
7
  6
CONTINUOUS
 10
100.1308923888
 20
93.632445983
 11
114.8411089406
 21
93.632445983
  0
LINE
  5
2AD
100
AcDbEntity
  8
0
100
AcDbLine
 62
7
  6
CONTINUOUS
 10
120.1308923888
 20
93.632445983
 11
134.8411089406
 21
93.632445983
  0
LINE
  5
2AE
100
AcDbEntity
  8
0
100
AcDbLine
 62
7
  6
CONTINUOUS
 10
140.1308923888
 20
93.632445983
 11
154.8411089406
 21
93.632445983
  0
LINE
  5
2AF
100
AcDbEntity
  8
0
100
AcDbLine
 62
7
  6
CONTINUOUS
 10
160.1308923888
 20
93.632445983
 11
174.8411089406
 21
93.632445983
  0
LINE
  5
2B0
100
AcDbEntity
  8
0
100
AcDbLine
 62
7
  6
CONTINUOUS
 10
180.1308923888
 20
93.632445983
 11
194.8411089406
 21
93.632445983
  0
LINE
  5
2B1
100
AcDbEntity
  8
0
100
AcDbLine
 62
7
  6
CONTINUOUS
 10
200.1308923888
 20
93.632445983
 11
212.4860006647
 21
93.632445983
  0
LINE
  5
2B2
100
AcDbEntity
  8
0
100
AcDbLine
 62
7
  6
CONTINUOUS
 10
74.4859176157
 20
90.7096664278
 11
73.4860006647
 21
93.5694289077
  0
LINE
  5
2B3
100
AcDbEntity
  8
0
100
AcDbLine
 62
7
  6
CONTINUOUS
 10
64.9826378704
 20
90.2128742655
 11
64.9620865111
 21
90.7094289077
  0
LINE
  5
2B4
100
AcDbEntity
  8
0
100
AcDbLine
 62
7
  6
CONTINUOUS
 10
60.4860006647
 20
102.212445983
 11
60.4860006647
 21
102.260902479
  0
LINE
  5
2B5
100
AcDbEntity
  8
0
100
AcDbLine
 62
7
  6
CONTINUOUS
 10
62.3860006647
 20
102.212445983
 11
62.3860006647
 21
106.212445983
  0
LINE
  5
2B6
100
AcDbEntity
  8
0
100
AcDbLine
 62
7
  6
CONTINUOUS
 10
60.4860006647
 20
102.212445983
 11
59.9893478829
 21
90.2124979206
  0
LINE
  5
2B7
100
AcDbEntity
  8
0
100
AcDbLine
 62
7
  6
CONTINUOUS
 10
41.4860006647
 20
93.5694289077
 11
40.4860837137
 21
90.7096664278
  0
LINE
  5
2B8
100
AcDbEntity
  8
0
100
AcDbLine
 62
9
  6
CONTINUOUS
 10
12.5860006647
 20
98.212445983
 11
14.6515523085
 21
98.212445983
  0
LINE
  5
2B9
100
AcDbEntity
  8
0
100
AcDbLine
 62
7
  6
CONTINUOUS
 10
12.4860006647
 20
102.212445983
 11
14.4860006647
 21
102.212445983
  0
LINE
  5
2BA
100
AcDbEntity
  8
0
100
AcDbLine
 62
7
  6
CONTINUOUS
 10
20.4860006647
 20
102.212445983
 11
34.4860006647
 21
102.212445983
  0
LINE
  5
2BB
100
AcDbEntity
  8
0
100
AcDbLine
 62
7
  6
CONTINUOUS
 10
40.4860006647
 20
102.212445983
 11
54.4860006647
 21
102.212445983
  0
LINE
  5
2BC
100
AcDbEntity
  8
0
100
AcDbLine
 62
7
  6
CONTINUOUS
 10
60.4860006647
 20
102.212445983
 11
74.4860006647
 21
102.212445983
  0
LINE
  5
2BD
100
AcDbEntity
  8
0
100
AcDbLine
 62
7
  6
CONTINUOUS
 10
80.4860006647
 20
102.212445983
 11
94.4860006647
 21
102.212445983
  0
LINE
  5
2BE
100
AcDbEntity
  8
0
100
AcDbLine
 62
7
  6
CONTINUOUS
 10
100.4860006647
 20
102.212445983
 11
114.4860006647
 21
102.212445983
  0
LINE
  5
2BF
100
AcDbEntity
  8
0
100
AcDbLine
 62
7
  6
CONTINUOUS
 10
120.4860006647
 20
102.212445983
 11
134.4860006647
 21
102.212445983
  0
LINE
  5
2C0
100
AcDbEntity
  8
0
100
AcDbLine
 62
7
  6
CONTINUOUS
 10
140.4860006647
 20
102.212445983
 11
154.4860006647
 21
102.212445983
  0
LINE
  5
2C1
100
AcDbEntity
  8
0
100
AcDbLine
 62
7
  6
CONTINUOUS
 10
160.4860006647
 20
102.212445983
 11
174.4860006647
 21
102.212445983
  0
LINE
  5
2C2
100
AcDbEntity
  8
0
100
AcDbLine
 62
7
  6
CONTINUOUS
 10
180.4860006647
 20
102.212445983
 11
194.4860006647
 21
102.212445983
  0
LINE
  5
2C3
100
AcDbEntity
  8
0
100
AcDbLine
 62
7
  6
CONTINUOUS
 10
200.4860006647
 20
102.212445983
 11
212.4860006647
 21
102.212445983
  0
LINE
  5
2C4
100
AcDbEntity
  8
0
100
AcDbLine
 62
7
  6
CONTINUOUS
 10
84.4859176157
 20
90.7096664278
 11
83.4860006647
 21
93.5694289077
  0
LINE
  5
2C5
100
AcDbEntity
  8
0
100
AcDbLine
 62
7
  6
CONTINUOUS
 10
74.982649298
 20
90.2125981559
 11
74.4860006647
 21
102.212445983
  0
LINE
  5
2C6
100
AcDbEntity
  8
0
100
AcDbLine
 62
7
  6
CONTINUOUS
 10
72.5860006647
 20
102.212445983
 11
72.5860006647
 21
106.212445983
  0
LINE
  5
2C7
100
AcDbEntity
  8
0
100
AcDbLine
 62
7
  6
CONTINUOUS
 10
74.4860006647
 20
102.212445983
 11
74.4860006647
 21
102.260902479
  0
LINE
  5
2C8
100
AcDbEntity
  8
0
100
AcDbLine
 62
7
  6
CONTINUOUS
 10
70.0099148184
 20
90.7094289077
 11
69.9893634591
 21
90.2128742655
  0
LINE
  5
2C9
100
AcDbEntity
  8
0
100
AcDbLine
 62
7
  6
CONTINUOUS
 10
51.4860006647
 20
93.5694289077
 11
50.4860837137
 21
90.7096664278
  0
LINE
  5
2CA
100
AcDbEntity
  8
0
100
AcDbLine
 62
7
  6
CONTINUOUS
 10
12.4860006647
 20
105.212445983
 11
12.5860006647
 21
105.212445983
  0
LINE
  5
2CB
100
AcDbEntity
  8
0
100
AcDbLine
 62
7
  6
CONTINUOUS
 10
22.3860006647
 20
105.212445983
 11
32.5860006647
 21
105.212445983
  0
LINE
  5
2CC
100
AcDbEntity
  8
0
100
AcDbLine
 62
7
  6
CONTINUOUS
 10
42.3860006647
 20
105.212445983
 11
52.5860006647
 21
105.212445983
  0
LINE
  5
2CD
100
AcDbEntity
  8
0
100
AcDbLine
 62
7
  6
CONTINUOUS
 10
62.3860006647
 20
105.212445983
 11
72.5860006647
 21
105.212445983
  0
LINE
  5
2CE
100
AcDbEntity
  8
0
100
AcDbLine
 62
7
  6
CONTINUOUS
 10
82.3860006647
 20
105.212445983
 11
92.5860006647
 21
105.212445983
  0
LINE
  5
2CF
100
AcDbEntity
  8
0
100
AcDbLine
 62
7
  6
CONTINUOUS
 10
102.3860006647
 20
105.212445983
 11
112.5860006647
 21
105.212445983
  0
LINE
  5
2D0
100
AcDbEntity
  8
0
100
AcDbLine
 62
7
  6
CONTINUOUS
 10
122.3860006647
 20
105.212445983
 11
132.5860006647
 21
105.212445983
  0
LINE
  5
2D1
100
AcDbEntity
  8
0
100
AcDbLine
 62
7
  6
CONTINUOUS
 10
142.3860006647
 20
105.212445983
 11
152.5860006647
 21
105.212445983
  0
LINE
  5
2D2
100
AcDbEntity
  8
0
100
AcDbLine
 62
7
  6
CONTINUOUS
 10
162.3860006647
 20
105.212445983
 11
172.5860006647
 21
105.212445983
  0
LINE
  5
2D3
100
AcDbEntity
  8
0
100
AcDbLine
 62
7
  6
CONTINUOUS
 10
182.3860006647
 20
105.212445983
 11
192.5860006647
 21
105.212445983
  0
LINE
  5
2D4
100
AcDbEntity
  8
0
100
AcDbLine
 62
7
  6
CONTINUOUS
 10
202.3860006647
 20
105.212445983
 11
212.4860006647
 21
105.212445983
  0
LINE
  5
2D5
100
AcDbEntity
  8
02___PRT_ALL_AXES
100
AcDbLine
 62
7
  6
CONTINUOUS
 10
12.5860006647
 20
106.212445983
 11
22.3860006647
 21
106.212445983
  0
LINE
  5
2D6
100
AcDbEntity
  8
0
100
AcDbLine
 62
7
  6
CONTINUOUS
 10
12.4860006647
 20
106.212445983
 11
12.5860006647
 21
106.212445983
  0
LINE
  5
2D7
100
AcDbEntity
  8
0
100
AcDbLine
 62
7
  6
CONTINUOUS
 10
22.3860006647
 20
106.212445983
 11
32.5860006647
 21
106.212445983
  0
LINE
  5
2D8
100
AcDbEntity
  8
02___PRT_ALL_AXES
100
AcDbLine
 62
7
  6
CONTINUOUS
 10
32.5860006647
 20
106.212445983
 11
42.3860006647
 21
106.212445983
  0
LINE
  5
2D9
100
AcDbEntity
  8
0
100
AcDbLine
 62
7
  6
CONTINUOUS
 10
42.3860006647
 20
106.212445983
 11
52.5860006647
 21
106.212445983
  0
LINE
  5
2DA
100
AcDbEntity
  8
02___PRT_ALL_AXES
100
AcDbLine
 62
7
  6
CONTINUOUS
 10
52.5860006647
 20
106.212445983
 11
62.3860006647
 21
106.212445983
  0
LINE
  5
2DB
100
AcDbEntity
  8
0
100
AcDbLine
 62
7
  6
CONTINUOUS
 10
62.3860006647
 20
106.212445983
 11
72.5860006647
 21
106.212445983
  0
LINE
  5
2DC
100
AcDbEntity
  8
02___PRT_ALL_AXES
100
AcDbLine
 62
7
  6
CONTINUOUS
 10
72.5860006647
 20
106.212445983
 11
82.3860006647
 21
106.212445983
  0
LINE
  5
2DD
100
AcDbEntity
  8
0
100
AcDbLine
 62
7
  6
CONTINUOUS
 10
82.3860006647
 20
106.212445983
 11
92.5860006647
 21
106.212445983
  0
LINE
  5
2DE
100
AcDbEntity
  8
02___PRT_ALL_AXES
100
AcDbLine
 62
7
  6
CONTINUOUS
 10
92.5860006647
 20
106.212445983
 11
102.3860006647
 21
106.212445983
  0
LINE
  5
2DF
100
AcDbEntity
  8
0
100
AcDbLine
 62
7
  6
CONTINUOUS
 10
102.3860006647
 20
106.212445983
 11
112.5860006647
 21
106.212445983
  0
LINE
  5
2E0
100
AcDbEntity
  8
02___PRT_ALL_AXES
100
AcDbLine
 62
7
  6
CONTINUOUS
 10
112.5860006647
 20
106.212445983
 11
122.3860006647
 21
106.212445983
  0
LINE
  5
2E1
100
AcDbEntity
  8
0
100
AcDbLine
 62
7
  6
CONTINUOUS
 10
122.3860006647
 20
106.212445983
 11
132.5860006647
 21
106.212445983
  0
LINE
  5
2E2
100
AcDbEntity
  8
02___PRT_ALL_AXES
100
AcDbLine
 62
7
  6
CONTINUOUS
 10
132.5860006647
 20
106.212445983
 11
142.3860006647
 21
106.212445983
  0
LINE
  5
2E3
100
AcDbEntity
  8
0
100
AcDbLine
 62
7
  6
CONTINUOUS
 10
142.3860006647
 20
106.212445983
 11
152.5860006647
 21
106.212445983
  0
LINE
  5
2E4
100
AcDbEntity
  8
02___PRT_ALL_AXES
100
AcDbLine
 62
7
  6
CONTINUOUS
 10
152.5860006647
 20
106.212445983
 11
162.3860006647
 21
106.212445983
  0
LINE
  5
2E5
100
AcDbEntity
  8
0
100
AcDbLine
 62
7
  6
CONTINUOUS
 10
162.3860006647
 20
106.212445983
 11
172.5860006647
 21
106.212445983
  0
LINE
  5
2E6
100
AcDbEntity
  8
02___PRT_ALL_AXES
100
AcDbLine
 62
7
  6
CONTINUOUS
 10
172.5860006647
 20
106.212445983
 11
182.3860006647
 21
106.212445983
  0
LINE
  5
2E7
100
AcDbEntity
  8
0
100
AcDbLine
 62
7
  6
CONTINUOUS
 10
182.3860006647
 20
106.212445983
 11
192.5860006647
 21
106.212445983
  0
LINE
  5
2E8
100
AcDbEntity
  8
02___PRT_ALL_AXES
100
AcDbLine
 62
7
  6
CONTINUOUS
 10
192.5860006647
 20
106.212445983
 11
202.3860006647
 21
106.212445983
  0
LINE
  5
2E9
100
AcDbEntity
  8
0
100
AcDbLine
 62
7
  6
CONTINUOUS
 10
202.3860006647
 20
106.212445983
 11
212.4860006647
 21
106.212445983
  0
LINE
  5
2EA
100
AcDbEntity
  8
0
100
AcDbLine
 62
7
  6
CONTINUOUS
 10
84.9826378704
 20
90.2128742655
 11
84.9620865111
 21
90.7094289077
  0
LINE
  5
2EB
100
AcDbEntity
  8
0
100
AcDbLine
 62
7
  6
CONTINUOUS
 10
80.4860006647
 20
102.212445983
 11
80.4860006647
 21
102.260902479
  0
LINE
  5
2EC
100
AcDbEntity
  8
0
100
AcDbLine
 62
7
  6
CONTINUOUS
 10
82.3860006647
 20
102.212445983
 11
82.3860006647
 21
106.212445983
  0
LINE
  5
2ED
100
AcDbEntity
  8
0
100
AcDbLine
 62
7
  6
CONTINUOUS
 10
80.4860006647
 20
102.212445983
 11
79.9893520315
 21
90.2125981559
  0
LINE
  5
2EE
100
AcDbEntity
  8
0
100
AcDbLine
 62
7
  6
CONTINUOUS
 10
61.4860006647
 20
93.5694289077
 11
60.4860837137
 21
90.7096664278
  0
LINE
  5
2EF
100
AcDbEntity
  8
RUNDUNGEN
100
AcDbLine
 62
9
  6
CONTINUOUS
 10
12.4860006647
 20
116.1513598391
 11
212.4860006647
 21
116.1513598391
  0
LINE
  5
2F0
100
AcDbEntity
  8
0
100
AcDbLine
 62
7
  6
CONTINUOUS
 10
94.4859176157
 20
90.7096664278
 11
93.4860006647
 21
93.5694289077
  0
LINE
  5
2F1
100
AcDbEntity
  8
0
100
AcDbLine
 62
7
  6
CONTINUOUS
 10
104.4859176157
 20
90.7096664278
 11
103.4860006647
 21
93.5694289077
  0
LINE
  5
2F2
100
AcDbEntity
  8
0
100
AcDbLine
 62
7
  6
CONTINUOUS
 10
94.9826492982
 20
90.2125981495
 11
94.4860006647
 21
102.212445983
  0
LINE
  5
2F3
100
AcDbEntity
  8
0
100
AcDbLine
 62
7
  6
CONTINUOUS
 10
92.5860006647
 20
102.212445983
 11
92.5860006647
 21
106.212445983
  0
LINE
  5
2F4
100
AcDbEntity
  8
0
100
AcDbLine
 62
7
  6
CONTINUOUS
 10
94.4860006647
 20
102.212445983
 11
94.4860006647
 21
102.260902479
  0
LINE
  5
2F5
100
AcDbEntity
  8
0
100
AcDbLine
 62
7
  6
CONTINUOUS
 10
90.0099148184
 20
90.7094289077
 11
89.9893634591
 21
90.2128742655
  0
LINE
  5
2F6
100
AcDbEntity
  8
0
100
AcDbLine
 62
7
  6
CONTINUOUS
 10
71.4860006647
 20
93.5694289077
 11
70.4860837137
 21
90.7096664278
  0
LINE
  5
2F7
100
AcDbEntity
  8
0
100
AcDbLine
 62
7
  6
CONTINUOUS
 10
114.4859176157
 20
90.7096664278
 11
113.4860006647
 21
93.5694289077
  0
LINE
  5
2F8
100
AcDbEntity
  8
0
100
AcDbLine
 62
7
  6
CONTINUOUS
 10
104.9826378704
 20
90.2128742655
 11
104.9620865111
 21
90.7094289077
  0
LINE
  5
2F9
100
AcDbEntity
  8
0
100
AcDbLine
 62
7
  6
CONTINUOUS
 10
100.4860006647
 20
102.212445983
 11
100.4860006647
 21
102.260902479
  0
LINE
  5
2FA
100
AcDbEntity
  8
0
100
AcDbLine
 62
7
  6
CONTINUOUS
 10
102.3860006647
 20
102.212445983
 11
102.3860006647
 21
106.212445983
  0
LINE
  5
2FB
100
AcDbEntity
  8
0
100
AcDbLine
 62
7
  6
CONTINUOUS
 10
100.4860006647
 20
102.212445983
 11
99.9893520312
 21
90.2125981495
  0
LINE
  5
2FC
100
AcDbEntity
  8
0
100
AcDbLine
 62
7
  6
CONTINUOUS
 10
81.4860006647
 20
93.5694289077
 11
80.4860837137
 21
90.7096664278
  0
LINE
  5
2FD
100
AcDbEntity
  8
0
100
AcDbLine
 62
7
  6
CONTINUOUS
 10
124.4859176157
 20
90.7096664278
 11
123.4860006647
 21
93.5694289077
  0
LINE
  5
2FE
100
AcDbEntity
  8
0
100
AcDbLine
 62
7
  6
CONTINUOUS
 10
114.9826436299
 20
90.212735105
 11
114.4860006647
 21
102.212445983
  0
LINE
  5
2FF
100
AcDbEntity
  8
0
100
AcDbLine
 62
7
  6
CONTINUOUS
 10
112.5860006647
 20
102.212445983
 11
112.5860006647
 21
106.212445983
  0
LINE
  5
300
100
AcDbEntity
  8
0
100
AcDbLine
 62
7
  6
CONTINUOUS
 10
110.0099148184
 20
90.7094289077
 11
109.9893634591
 21
90.2128742655
  0
LINE
  5
301
100
AcDbEntity
  8
0
100
AcDbLine
 62
7
  6
CONTINUOUS
 10
91.4860006647
 20
93.5694289077
 11
90.4860837137
 21
90.7096664278
  0
LINE
  5
302
100
AcDbEntity
  8
0
100
AcDbLine
 62
7
  6
CONTINUOUS
 10
114.4860006647
 20
102.212445983
 11
114.4860006647
 21
102.260902479
  0
LINE
  5
303
100
AcDbEntity
  8
0
100
AcDbLine
 62
7
  6
CONTINUOUS
 10
120.4860006647
 20
102.212445983
 11
120.4860006647
 21
102.260902479
  0
LINE
  5
304
100
AcDbEntity
  8
0
100
AcDbLine
 62
7
  6
CONTINUOUS
 10
101.4860006647
 20
93.5694289077
 11
100.4860837137
 21
90.7096664278
  0
LINE
  5
305
100
AcDbEntity
  8
0
100
AcDbLine
 62
7
  6
CONTINUOUS
 10
134.4859176157
 20
90.7096664278
 11
133.4860006647
 21
93.5694289077
  0
LINE
  5
306
100
AcDbEntity
  8
0
100
AcDbLine
 62
7
  6
CONTINUOUS
 10
124.9826378704
 20
90.2128742655
 11
124.9620865111
 21
90.7094289077
  0
LINE
  5
307
100
AcDbEntity
  8
0
100
AcDbLine
 62
7
  6
CONTINUOUS
 10
122.3860006647
 20
102.212445983
 11
122.3860006647
 21
106.212445983
  0
LINE
  5
308
100
AcDbEntity
  8
0
100
AcDbLine
 62
7
  6
CONTINUOUS
 10
120.4860006647
 20
102.212445983
 11
119.9893576995
 21
90.212735105
  0
LINE
  5
309
100
AcDbEntity
  8
0
100
AcDbLine
 62
7
  6
CONTINUOUS
 10
144.4859176157
 20
90.7096664278
 11
143.4860006647
 21
93.5694289077
  0
LINE
  5
30A
100
AcDbEntity
  8
0
100
AcDbLine
 62
7
  6
CONTINUOUS
 10
134.9826436308
 20
90.2127350828
 11
134.4860006647
 21
102.212445983
  0
LINE
  5
30B
100
AcDbEntity
  8
0
100
AcDbLine
 62
7
  6
CONTINUOUS
 10
132.5860006647
 20
102.212445983
 11
132.5860006647
 21
106.212445983
  0
LINE
  5
30C
100
AcDbEntity
  8
0
100
AcDbLine
 62
7
  6
CONTINUOUS
 10
134.4860006647
 20
102.212445983
 11
134.4860006647
 21
102.260902479
  0
LINE
  5
30D
100
AcDbEntity
  8
0
100
AcDbLine
 62
7
  6
CONTINUOUS
 10
130.0099148184
 20
90.7094289077
 11
129.9893634591
 21
90.2128742655
  0
LINE
  5
30E
100
AcDbEntity
  8
0
100
AcDbLine
 62
7
  6
CONTINUOUS
 10
111.4860006647
 20
93.5694289077
 11
110.4860837137
 21
90.7096664278
  0
LINE
  5
30F
100
AcDbEntity
  8
0
100
AcDbLine
 62
7
  6
CONTINUOUS
 10
154.4859176157
 20
90.7096664278
 11
153.4860006647
 21
93.5694289077
  0
LINE
  5
310
100
AcDbEntity
  8
0
100
AcDbLine
 62
7
  6
CONTINUOUS
 10
144.9826378704
 20
90.2128742655
 11
144.9620865111
 21
90.7094289077
  0
LINE
  5
311
100
AcDbEntity
  8
0
100
AcDbLine
 62
7
  6
CONTINUOUS
 10
140.4860006647
 20
102.212445983
 11
140.4860006647
 21
102.260902479
  0
LINE
  5
312
100
AcDbEntity
  8
0
100
AcDbLine
 62
7
  6
CONTINUOUS
 10
142.3860006647
 20
102.212445983
 11
142.3860006647
 21
106.212445983
  0
LINE
  5
313
100
AcDbEntity
  8
0
100
AcDbLine
 62
7
  6
CONTINUOUS
 10
140.4860006647
 20
102.212445983
 11
139.9893576986
 21
90.2127350828
  0
LINE
  5
314
100
AcDbEntity
  8
0
100
AcDbLine
 62
7
  6
CONTINUOUS
 10
121.4860006647
 20
93.5694289077
 11
120.4860837137
 21
90.7096664278
  0
LINE
  5
315
100
AcDbEntity
  8
0
100
AcDbLine
 62
7
  6
CONTINUOUS
 10
164.4859176157
 20
90.7096664278
 11
163.4860006647
 21
93.5694289077
  0
LINE
  5
316
100
AcDbEntity
  8
0
100
AcDbLine
 62
7
  6
CONTINUOUS
 10
131.4860006647
 20
93.5694289077
 11
130.4860837137
 21
90.7096664278
  0
LINE
  5
317
100
AcDbEntity
  8
0
100
AcDbLine
 62
7
  6
CONTINUOUS
 10
174.4859176157
 20
90.7096664278
 11
173.4860006647
 21
93.5694289077
  0
LINE
  5
318
100
AcDbEntity
  8
0
100
AcDbLine
 62
7
  6
CONTINUOUS
 10
154.9826380706
 20
90.2128694274
 11
154.4860006647
 21
102.212445983
  0
LINE
  5
319
100
AcDbEntity
  8
0
100
AcDbLine
 62
7
  6
CONTINUOUS
 10
152.5860006647
 20
102.212445983
 11
152.5860006647
 21
106.212445983
  0
LINE
  5
31A
100
AcDbEntity
  8
0
100
AcDbLine
 62
7
  6
CONTINUOUS
 10
154.4860006647
 20
102.212445983
 11
154.4860006647
 21
102.260902479
  0
LINE
  5
31B
100
AcDbEntity
  8
0
100
AcDbLine
 62
7
  6
CONTINUOUS
 10
150.0099148184
 20
90.7094289077
 11
149.9893634591
 21
90.2128742655
  0
LINE
  5
31C
100
AcDbEntity
  8
0
100
AcDbLine
 62
7
  6
CONTINUOUS
 10
141.4860006647
 20
93.5694289077
 11
140.4860837137
 21
90.7096664278
  0
LINE
  5
31D
100
AcDbEntity
  8
0
100
AcDbLine
 62
7
  6
CONTINUOUS
 10
164.9826378704
 20
90.2128742655
 11
164.9620865111
 21
90.7094289077
  0
LINE
  5
31E
100
AcDbEntity
  8
0
100
AcDbLine
 62
7
  6
CONTINUOUS
 10
160.4860006647
 20
102.212445983
 11
160.4860006647
 21
102.260902479
  0
LINE
  5
31F
100
AcDbEntity
  8
0
100
AcDbLine
 62
7
  6
CONTINUOUS
 10
162.3860006647
 20
102.212445983
 11
162.3860006647
 21
106.212445983
  0
LINE
  5
320
100
AcDbEntity
  8
0
100
AcDbLine
 62
7
  6
CONTINUOUS
 10
160.4860006647
 20
102.212445983
 11
159.9893632588
 21
90.2128694274
  0
LINE
  5
321
100
AcDbEntity
  8
0
100
AcDbLine
 62
7
  6
CONTINUOUS
 10
151.4860006647
 20
93.5694289077
 11
150.4860837137
 21
90.7096664278
  0
LINE
  5
322
100
AcDbEntity
  8
0
100
AcDbLine
 62
7
  6
CONTINUOUS
 10
184.4859176157
 20
90.7096664278
 11
183.4860006647
 21
93.5694289077
  0
LINE
  5
323
100
AcDbEntity
  8
0
100
AcDbLine
 62
7
  6
CONTINUOUS
 10
174.9826380167
 20
90.2128707298
 11
174.4860006647
 21
102.212445983
  0
LINE
  5
324
100
AcDbEntity
  8
0
100
AcDbLine
 62
7
  6
CONTINUOUS
 10
172.5860006647
 20
102.212445983
 11
172.5860006647
 21
106.212445983
  0
LINE
  5
325
100
AcDbEntity
  8
0
100
AcDbLine
 62
7
  6
CONTINUOUS
 10
174.4860006647
 20
102.212445983
 11
174.4860006647
 21
102.260902479
  0
LINE
  5
326
100
AcDbEntity
  8
0
100
AcDbLine
 62
7
  6
CONTINUOUS
 10
170.0099148184
 20
90.7094289077
 11
169.9893634591
 21
90.2128742655
  0
LINE
  5
327
100
AcDbEntity
  8
0
100
AcDbLine
 62
9
  6
CONTINUOUS
 10
12.4860006647
 20
203.2307161938
 11
212.4860006647
 21
203.2307161938
  0
LINE
  5
328
100
AcDbEntity
  8
0
100
AcDbLine
 62
7
  6
CONTINUOUS
 10
212.4860006647
 20
206.212445983
 11
12.4860006647
 21
206.212445983
  0
LINE
  5
329
100
AcDbEntity
  8
0
100
AcDbLine
 62
7
  6
CONTINUOUS
 10
194.4859176157
 20
90.7096664278
 11
193.4860006647
 21
93.5694289077
  0
LINE
  5
32A
100
AcDbEntity
  8
0
100
AcDbLine
 62
7
  6
CONTINUOUS
 10
184.9826378704
 20
90.2128742655
 11
184.9620865111
 21
90.7094289077
  0
LINE
  5
32B
100
AcDbEntity
  8
0
100
AcDbLine
 62
7
  6
CONTINUOUS
 10
180.4860006647
 20
102.212445983
 11
180.4860006647
 21
102.260902479
  0
LINE
  5
32C
100
AcDbEntity
  8
0
100
AcDbLine
 62
7
  6
CONTINUOUS
 10
182.3860006647
 20
102.212445983
 11
182.3860006647
 21
106.212445983
  0
LINE
  5
32D
100
AcDbEntity
  8
0
100
AcDbLine
 62
7
  6
CONTINUOUS
 10
180.4860006647
 20
102.212445983
 11
179.9893633127
 21
90.2128707298
  0
LINE
  5
32E
100
AcDbEntity
  8
0
100
AcDbLine
 62
7
  6
CONTINUOUS
 10
161.4860006647
 20
93.5694289077
 11
160.4860837137
 21
90.7096664278
  0
LINE
  5
32F
100
AcDbEntity
  8
0
100
AcDbLine
 62
7
  6
CONTINUOUS
 10
204.4859176157
 20
90.7096664278
 11
203.4860006647
 21
93.5694289077
  0
LINE
  5
330
100
AcDbEntity
  8
0
100
AcDbLine
 62
7
  6
CONTINUOUS
 10
171.4860006647
 20
93.5694289077
 11
170.4860837137
 21
90.7096664278
  0
LINE
  5
331
100
AcDbEntity
  8
0
100
AcDbLine
 62
7
  6
CONTINUOUS
 10
194.9826378697
 20
90.2128742809
 11
194.4860006647
 21
102.212445983
  0
LINE
  5
332
100
AcDbEntity
  8
0
100
AcDbLine
 62
7
  6
CONTINUOUS
 10
192.5860006647
 20
102.212445983
 11
192.5860006647
 21
106.212445983
  0
LINE
  5
333
100
AcDbEntity
  8
0
100
AcDbLine
 62
7
  6
CONTINUOUS
 10
194.4860006647
 20
102.212445983
 11
194.4860006647
 21
102.260902479
  0
LINE
  5
334
100
AcDbEntity
  8
0
100
AcDbLine
 62
7
  6
CONTINUOUS
 10
190.0099148184
 20
90.7094289077
 11
189.9893634591
 21
90.2128742655
  0
LINE
  5
335
100
AcDbEntity
  8
0
100
AcDbLine
 62
7
  6
CONTINUOUS
 10
181.4860006647
 20
93.5694289077
 11
180.4860837137
 21
90.7096664278
  0
LINE
  5
336
100
AcDbEntity
  8
0
100
AcDbLine
 62
7
  6
CONTINUOUS
 10
204.9826353879
 20
90.212934246
 11
204.9620865111
 21
90.7094289077
  0
LINE
  5
337
100
AcDbEntity
  8
0
100
AcDbLine
 62
7
  6
CONTINUOUS
 10
200.4860006647
 20
102.212445983
 11
200.4860006647
 21
102.260902479
  0
LINE
  5
338
100
AcDbEntity
  8
0
100
AcDbLine
 62
7
  6
CONTINUOUS
 10
202.3860006647
 20
102.212445983
 11
202.3860006647
 21
106.212445983
  0
LINE
  5
339
100
AcDbEntity
  8
0
100
AcDbLine
 62
7
  6
CONTINUOUS
 10
200.4860006647
 20
102.212445983
 11
199.9893634597
 21
90.2128742809
  0
LINE
  5
33A
100
AcDbEntity
  8
0
100
AcDbLine
 62
7
  6
CONTINUOUS
 10
191.4860006647
 20
93.5694289077
 11
190.4860837137
 21
90.7096664278
  0
LINE
  5
33B
100
AcDbEntity
  8
0
100
AcDbLine
 62
7
  6
CONTINUOUS
 10
206.8860006647
 20
90.2128584648
 11
206.8860006647
 21
90.7094289077
  0
LINE
  5
33C
100
AcDbEntity
  8
0
100
AcDbLine
 62
7
  6
CONTINUOUS
 10
212.3860006647
 20
93.5694289077
 11
212.3860006647
 21
91.1816568981
  0
LINE
  5
33D
100
AcDbEntity
  8
0
100
AcDbLine
 62
7
  6
CONTINUOUS
 10
212.4860006647
 20
106.212445983
 11
212.4860006647
 21
93.5694289077
  0
LINE
  5
33E
100
AcDbEntity
  8
RUNDUNGEN
100
AcDbLine
 62
7
  6
CONTINUOUS
 10
212.4860006647
 20
106.212445983
 11
212.4860006647
 21
203.2307161938
  0
LINE
  5
33F
100
AcDbEntity
  8
0
100
AcDbLine
 62
7
  6
CONTINUOUS
 10
212.4860006647
 20
203.2307161938
 11
212.4860006647
 21
206.212445983
  0
LINE
  5
340
100
AcDbEntity
  8
0
100
AcDbLine
 62
7
  6
CONTINUOUS
 10
201.4860006647
 20
93.5694289077
 11
200.4860837137
 21
90.7096664278
  0
LINE
  5
341
100
AcDbEntity
  8
0
100
AcDbLine
 62
7
  6
CONTINUOUS
 10
211.4860006647
 20
93.5694289077
 11
210.4860837137
 21
90.7096664278
  0
LINE
  5
342
100
AcDbEntity
  8
0
100
AcDbLine
 62
7
  6
CONTINUOUS
 10
243.0767739386
 20
93.5694289077
 11
247.1350960857
 21
93.5694289077
  0
LINE
  5
343
100
AcDbEntity
  8
0
100
AcDbLine
 62
7
  6
CONTINUOUS
 10
265.5874151219
 20
93.5694289077
 11
269.645737269
 21
93.5694289077
  0
LINE
  5
344
100
AcDbEntity
  8
0
100
AcDbLine
 62
7
  6
CONTINUOUS
 10
264.7312556038
 20
101.212445983
 11
247.9912556038
 21
101.212445983
  0
LINE
  5
345
100
AcDbEntity
  8
0
100
AcDbLine
 62
7
  6
CONTINUOUS
 10
273.3412556038
 20
102.212445983
 11
269.8612556038
 21
102.212445983
  0
LINE
  5
346
100
AcDbEntity
  8
0
100
AcDbLine
 62
7
  6
CONTINUOUS
 10
224.4330523735
 20
102.212445983
 11
242.8612556038
 21
102.212445983
  0
LINE
  5
347
100
AcDbEntity
  8
0
100
AcDbLine
 62
7
  6
CONTINUOUS
 10
284.761623231
 20
102.212445983
 11
288.2894588341
 21
102.212445983
  0
LINE
  5
348
100
AcDbEntity
  8
0
100
AcDbLine
 62
7
  6
CONTINUOUS
 10
269.6852498997
 20
93.5945124157
 11
278.8891196488
 21
90.6039938527
  0
LINE
  5
349
100
AcDbEntity
  8
0
100
AcDbLine
 62
7
  6
CONTINUOUS
 10
239.3812556038
 20
102.212445983
 11
236.3812556038
 21
105.212445983
  0
LINE
  5
34A
100
AcDbEntity
  8
0
100
AcDbLine
 62
7
  6
CONTINUOUS
 10
281.3612556038
 20
106.212445983
 11
276.3412556038
 21
106.212445983
  0
LINE
  5
34B
100
AcDbEntity
  8
RUNDUNGEN
100
AcDbLine
 62
7
  6
CONTINUOUS
 10
276.3412556038
 20
106.212445983
 11
269.8930131604
 21
106.212445983
  0
LINE
  5
34C
100
AcDbEntity
  8
RUNDUNGEN
100
AcDbLine
 62
7
  6
CONTINUOUS
 10
242.8294980471
 20
106.212445983
 11
236.3812556038
 21
106.212445983
  0
LINE
  5
34D
100
AcDbEntity
  8
0
100
AcDbLine
 62
7
  6
CONTINUOUS
 10
231.3612556038
 20
106.212445983
 11
236.3812556038
 21
106.212445983
  0
LINE
  5
34E
100
AcDbEntity
  8
0
100
AcDbLine
 62
7
  6
CONTINUOUS
 10
224.4612556038
 20
102.260902479
 11
224.4612556038
 21
102.212445983
  0
LINE
  5
34F
100
AcDbEntity
  8
0
100
AcDbLine
 62
7
  6
CONTINUOUS
 10
226.3612556038
 20
102.212445983
 11
226.3612556038
 21
104.4574439814
  0
LINE
  5
350
100
AcDbEntity
  8
0
100
AcDbLine
 62
7
  6
CONTINUOUS
 10
236.3812556038
 20
105.212445983
 11
236.3812556038
 21
106.212445983
  0
LINE
  5
351
100
AcDbEntity
  8
0
100
AcDbLine
 62
7
  6
CONTINUOUS
 10
243.0364865833
 20
93.632445983
 11
242.8612556038
 21
102.212445983
  0
LINE
  5
352
100
AcDbEntity
  8
0
100
AcDbLine
 62
7
  6
CONTINUOUS
 10
247.9912556038
 20
101.212445983
 11
247.869899831
 21
97.7545748495
  0
LINE
  5
353
100
AcDbEntity
  8
0
100
AcDbLine
 62
7
  6
CONTINUOUS
 10
247.869899831
 20
97.7545748495
 11
247.8539805755
 21
97.4917706793
  0
LINE
  5
354
100
AcDbEntity
  8
RUNDUNGEN
100
AcDbLine
 62
7
  6
CONTINUOUS
 10
253.3612556038
 20
203.2307161938
 11
252.8293114695
 21
116.1513598391
  0
LINE
  5
355
100
AcDbEntity
  8
RUNDUNGEN
100
AcDbLine
 62
7
  6
CONTINUOUS
 10
259.893199738
 20
116.1513598391
 11
259.3612556038
 21
203.2307161938
  0
LINE
  5
356
100
AcDbEntity
  8
0
100
AcDbLine
 62
7
  6
CONTINUOUS
 10
264.868530632
 20
97.4917706793
 11
264.8526113766
 21
97.7545748495
  0
LINE
  5
357
100
AcDbEntity
  8
0
100
AcDbLine
 62
7
  6
CONTINUOUS
 10
264.8526113766
 20
97.7545748495
 11
264.7312556038
 21
101.212445983
  0
LINE
  5
358
100
AcDbEntity
  8
0
100
AcDbLine
 62
7
  6
CONTINUOUS
 10
269.8612556038
 20
102.212445983
 11
269.6860246242
 21
93.632445983
  0
LINE
  5
359
100
AcDbEntity
  8
0
100
AcDbLine
 62
7
  6
CONTINUOUS
 10
276.1112556038
 20
98.212445983
 11
276.1112556038
 21
91.5065765944
  0
LINE
  5
35A
100
AcDbEntity
  8
0
100
AcDbLine
 62
7
  6
CONTINUOUS
 10
276.3412556038
 20
106.212445983
 11
276.3412556038
 21
105.212445983
  0
LINE
  5
35B
100
AcDbEntity
  8
0
100
AcDbLine
 62
7
  6
CONTINUOUS
 10
286.3612556038
 20
102.212445983
 11
286.3612556038
 21
104.4574439814
  0
LINE
  5
35C
100
AcDbEntity
  8
0
100
AcDbLine
 62
7
  6
CONTINUOUS
 10
286.6112556038
 20
92.1760977492
 11
286.6112556038
 21
98.212445983
  0
LINE
  5
35D
100
AcDbEntity
  8
0
100
AcDbLine
 62
7
  6
CONTINUOUS
 10
288.2612556038
 20
102.260902479
 11
288.2612556038
 21
102.212445983
  0
LINE
  5
35E
100
AcDbEntity
  8
0
100
AcDbLine
 62
7
  6
CONTINUOUS
 10
276.3412556038
 20
105.212445983
 11
273.3412556038
 21
102.212445983
  0
LINE
  5
35F
100
AcDbEntity
  8
0
100
AcDbLine
 62
7
  6
CONTINUOUS
 10
243.0566562475
 20
93.6008142136
 11
233.8333915588
 21
90.6039938527
  0
LINE
  5
360
100
AcDbEntity
  8
RUNDUNGEN
100
AcDbLine
 62
7
  6
CONTINUOUS
 10
12.4860006647
 20
18.9155609945
 11
12.4860006647
 21
35.8955609945
  0
LINE
  5
361
100
AcDbEntity
  8
0
100
AcDbLine
 62
7
  6
CONTINUOUS
 10
12.4860006647
 20
35.8955609945
 11
12.4860006647
 21
41.8955609945
  0
LINE
  5
362
100
AcDbEntity
  8
RUNDUNGEN
100
AcDbLine
 62
7
  6
CONTINUOUS
 10
12.4860006647
 20
41.8955609945
 11
12.4860006647
 21
58.8755609945
  0
LINE
  5
363
100
AcDbEntity
  8
0
100
AcDbLine
 62
7
  6
CONTINUOUS
 10
12.5860006647
 20
8.8955609945
 11
12.5860006647
 21
18.9155609945
  0
LINE
  5
364
100
AcDbEntity
  8
0
100
AcDbLine
 62
7
  6
CONTINUOUS
 10
14.4860006647
 20
6.9673577643
 11
14.4860006647
 21
6.9955609945
  0
LINE
  5
365
100
AcDbEntity
  8
0
100
AcDbLine
 62
7
  6
CONTINUOUS
 10
20.4860006647
 20
6.9673577643
 11
20.4860006647
 21
6.9955609945
  0
LINE
  5
366
100
AcDbEntity
  8
0
100
AcDbLine
 62
7
  6
CONTINUOUS
 10
14.4860006647
 20
6.9955609945
 11
12.5860006647
 21
8.8955609945
  0
LINE
  5
367
100
AcDbEntity
  8
0
100
AcDbLine
 62
7
  6
CONTINUOUS
 10
22.3860006647
 20
8.8955609945
 11
22.3860006647
 21
18.9155609945
  0
LINE
  5
368
100
AcDbEntity
  8
0
100
AcDbLine
 62
7
  6
CONTINUOUS
 10
22.5860006647
 20
68.8955609945
 11
22.5860006647
 21
58.8755609945
  0
LINE
  5
369
100
AcDbEntity
  8
0
100
AcDbLine
 62
7
  6
CONTINUOUS
 10
24.4860006647
 20
70.8237642248
 11
24.4860006647
 21
70.7955609945
  0
LINE
  5
36A
100
AcDbEntity
  8
0
100
AcDbLine
 62
7
  6
CONTINUOUS
 10
24.4860006647
 20
70.7955609945
 11
22.5860006647
 21
68.8955609945
  0
LINE
  5
36B
100
AcDbEntity
  8
0
100
AcDbLine
 62
7
  6
CONTINUOUS
 10
30.4860006647
 20
70.8237642248
 11
30.4860006647
 21
70.7955609945
  0
LINE
  5
36C
100
AcDbEntity
  8
0
100
AcDbLine
 62
7
  6
CONTINUOUS
 10
32.3860006647
 20
68.8955609945
 11
32.3860006647
 21
58.8755609945
  0
LINE
  5
36D
100
AcDbEntity
  8
0
100
AcDbLine
 62
7
  6
CONTINUOUS
 10
32.5860006647
 20
8.8955609945
 11
32.5860006647
 21
18.9155609945
  0
LINE
  5
36E
100
AcDbEntity
  8
0
100
AcDbLine
 62
7
  6
CONTINUOUS
 10
34.4860006647
 20
6.9673577643
 11
34.4860006647
 21
6.9955609945
  0
LINE
  5
36F
100
AcDbEntity
  8
0
100
AcDbLine
 62
7
  6
CONTINUOUS
 10
34.4860006647
 20
6.9955609945
 11
32.5860006647
 21
8.8955609945
  0
LINE
  5
370
100
AcDbEntity
  8
0
100
AcDbLine
 62
7
  6
CONTINUOUS
 10
40.4860006647
 20
6.9673577643
 11
40.4860006647
 21
6.9955609945
  0
LINE
  5
371
100
AcDbEntity
  8
0
100
AcDbLine
 62
7
  6
CONTINUOUS
 10
42.3860006647
 20
8.8955609945
 11
42.3860006647
 21
18.9155609945
  0
LINE
  5
372
100
AcDbEntity
  8
0
100
AcDbLine
 62
7
  6
CONTINUOUS
 10
42.5860006647
 20
68.8955609945
 11
42.5860006647
 21
58.8755609945
  0
LINE
  5
373
100
AcDbEntity
  8
0
100
AcDbLine
 62
7
  6
CONTINUOUS
 10
44.4860006647
 20
70.7955609945
 11
42.5860006647
 21
68.8955609945
  0
LINE
  5
374
100
AcDbEntity
  8
0
100
AcDbLine
 62
7
  6
CONTINUOUS
 10
44.4860006647
 20
70.8237642248
 11
44.4860006647
 21
70.7955609945
  0
LINE
  5
375
100
AcDbEntity
  8
0
100
AcDbLine
 62
7
  6
CONTINUOUS
 10
54.4860006647
 20
6.9955609945
 11
52.5860006647
 21
8.8955609945
  0
LINE
  5
376
100
AcDbEntity
  8
0
100
AcDbLine
 62
7
  6
CONTINUOUS
 10
50.4860006647
 20
70.8237642248
 11
50.4860006647
 21
70.7955609945
  0
LINE
  5
377
100
AcDbEntity
  8
0
100
AcDbLine
 62
7
  6
CONTINUOUS
 10
52.3860006647
 20
68.8955609945
 11
52.3860006647
 21
58.8755609945
  0
LINE
  5
378
100
AcDbEntity
  8
0
100
AcDbLine
 62
7
  6
CONTINUOUS
 10
52.5860006647
 20
8.8955609945
 11
52.5860006647
 21
18.9155609945
  0
LINE
  5
379
100
AcDbEntity
  8
0
100
AcDbLine
 62
7
  6
CONTINUOUS
 10
54.4860006647
 20
6.9673577643
 11
54.4860006647
 21
6.9955609945
  0
LINE
  5
37A
100
AcDbEntity
  8
0
100
AcDbLine
 62
7
  6
CONTINUOUS
 10
64.4860006647
 20
70.7955609945
 11
62.5860006647
 21
68.8955609945
  0
LINE
  5
37B
100
AcDbEntity
  8
0
100
AcDbLine
 62
7
  6
CONTINUOUS
 10
60.4860006647
 20
6.9673577643
 11
60.4860006647
 21
6.9955609945
  0
LINE
  5
37C
100
AcDbEntity
  8
0
100
AcDbLine
 62
7
  6
CONTINUOUS
 10
62.3860006647
 20
8.8955609945
 11
62.3860006647
 21
18.9155609945
  0
LINE
  5
37D
100
AcDbEntity
  8
0
100
AcDbLine
 62
7
  6
CONTINUOUS
 10
62.5860006647
 20
68.8955609945
 11
62.5860006647
 21
58.8755609945
  0
LINE
  5
37E
100
AcDbEntity
  8
0
100
AcDbLine
 62
7
  6
CONTINUOUS
 10
74.4860006647
 20
6.9955609945
 11
72.5860006647
 21
8.8955609945
  0
LINE
  5
37F
100
AcDbEntity
  8
0
100
AcDbLine
 62
7
  6
CONTINUOUS
 10
64.4860006647
 20
70.8237642248
 11
64.4860006647
 21
70.7955609945
  0
LINE
  5
380
100
AcDbEntity
  8
0
100
AcDbLine
 62
7
  6
CONTINUOUS
 10
70.4860006647
 20
70.8237642248
 11
70.4860006647
 21
70.7955609945
  0
LINE
  5
381
100
AcDbEntity
  8
0
100
AcDbLine
 62
7
  6
CONTINUOUS
 10
20.4860006647
 20
6.9955609945
 11
22.3860006647
 21
8.8955609945
  0
LINE
  5
382
100
AcDbEntity
  8
0
100
AcDbLine
 62
7
  6
CONTINUOUS
 10
84.4860006647
 20
70.7955609945
 11
82.5860006647
 21
68.8955609945
  0
LINE
  5
383
100
AcDbEntity
  8
0
100
AcDbLine
 62
7
  6
CONTINUOUS
 10
72.3860006647
 20
68.8955609945
 11
72.3860006647
 21
58.8755609945
  0
LINE
  5
384
100
AcDbEntity
  8
0
100
AcDbLine
 62
7
  6
CONTINUOUS
 10
72.5860006647
 20
8.8955609945
 11
72.5860006647
 21
18.9155609945
  0
LINE
  5
385
100
AcDbEntity
  8
0
100
AcDbLine
 62
7
  6
CONTINUOUS
 10
74.4860006647
 20
6.9673577643
 11
74.4860006647
 21
6.9955609945
  0
LINE
  5
386
100
AcDbEntity
  8
0
100
AcDbLine
 62
7
  6
CONTINUOUS
 10
30.4860006647
 20
70.7955609945
 11
32.3860006647
 21
68.8955609945
  0
LINE
  5
387
100
AcDbEntity
  8
0
100
AcDbLine
 62
7
  6
CONTINUOUS
 10
94.4860006647
 20
6.9955609945
 11
92.5860006647
 21
8.8955609945
  0
LINE
  5
388
100
AcDbEntity
  8
0
100
AcDbLine
 62
7
  6
CONTINUOUS
 10
80.4860006647
 20
6.9673577643
 11
80.4860006647
 21
6.9955609945
  0
LINE
  5
389
100
AcDbEntity
  8
0
100
AcDbLine
 62
7
  6
CONTINUOUS
 10
82.3860006647
 20
8.8955609945
 11
82.3860006647
 21
18.9155609945
  0
LINE
  5
38A
100
AcDbEntity
  8
0
100
AcDbLine
 62
7
  6
CONTINUOUS
 10
82.5860006647
 20
68.8955609945
 11
82.5860006647
 21
58.8755609945
  0
LINE
  5
38B
100
AcDbEntity
  8
0
100
AcDbLine
 62
7
  6
CONTINUOUS
 10
84.4860006647
 20
70.8237642248
 11
84.4860006647
 21
70.7955609945
  0
LINE
  5
38C
100
AcDbEntity
  8
0
100
AcDbLine
 62
7
  6
CONTINUOUS
 10
40.4860006647
 20
6.9955609945
 11
42.3860006647
 21
8.8955609945
  0
LINE
  5
38D
100
AcDbEntity
  8
0
100
AcDbLine
 62
7
  6
CONTINUOUS
 10
104.4860006647
 20
70.7955609945
 11
102.5860006647
 21
68.8955609945
  0
LINE
  5
38E
100
AcDbEntity
  8
02___PRT_ALL_AXES
100
AcDbLine
 62
7
  6
CONTINUOUS
 10
200.3204794219
 20
5.8955609945
 11
194.6515219076
 21
5.8955609945
  0
LINE
  5
38F
100
AcDbEntity
  8
02___PRT_ALL_AXES
100
AcDbLine
 62
7
  6
CONTINUOUS
 10
180.3204792951
 20
5.8955609945
 11
174.6515220343
 21
5.8955609945
  0
LINE
  5
390
100
AcDbEntity
  8
02___PRT_ALL_AXES
100
AcDbLine
 62
7
  6
CONTINUOUS
 10
160.3204792914
 20
5.8955609945
 11
154.651522038
 21
5.8955609945
  0
LINE
  5
391
100
AcDbEntity
  8
02___PRT_ALL_AXES
100
AcDbLine
 62
7
  6
CONTINUOUS
 10
140.3204261137
 20
5.8955609945
 11
134.6515752157
 21
5.8955609945
  0
LINE
  5
392
100
AcDbEntity
  8
02___PRT_ALL_AXES
100
AcDbLine
 62
7
  6
CONTINUOUS
 10
120.3204261141
 20
5.8955609945
 11
114.6515752154
 21
5.8955609945
  0
LINE
  5
393
100
AcDbEntity
  8
02___PRT_ALL_AXES
100
AcDbLine
 62
7
  6
CONTINUOUS
 10
100.320416075
 20
5.8955609945
 11
94.6515852544
 21
5.8955609945
  0
LINE
  5
394
100
AcDbEntity
  8
02___PRT_ALL_AXES
100
AcDbLine
 62
7
  6
CONTINUOUS
 10
80.3204160751
 20
5.8955609945
 11
74.6515852543
 21
5.8955609945
  0
LINE
  5
395
100
AcDbEntity
  8
02___PRT_ALL_AXES
100
AcDbLine
 62
7
  6
CONTINUOUS
 10
60.3204594481
 20
5.8955609945
 11
54.6515418813
 21
5.8955609945
  0
LINE
  5
396
100
AcDbEntity
  8
02___PRT_ALL_AXES
100
AcDbLine
 62
7
  6
CONTINUOUS
 10
40.3204701586
 20
5.8955609945
 11
34.6515311708
 21
5.8955609945
  0
LINE
  5
397
100
AcDbEntity
  8
02___PRT_ALL_AXES
100
AcDbLine
 62
7
  6
CONTINUOUS
 10
20.3204512156
 20
5.8955609945
 11
14.6515661983
 21
5.8955609945
  0
LINE
  5
398
100
AcDbEntity
  8
0
100
AcDbLine
 62
7
  6
CONTINUOUS
 10
90.4860006647
 20
70.8237642248
 11
90.4860006647
 21
70.7955609945
  0
LINE
  5
399
100
AcDbEntity
  8
02___PRT_ALL_AXES
100
AcDbLine
 62
9
  6
CONTINUOUS
 10
12.5860006647
 20
13.8955609945
 11
22.3860006647
 21
13.8955609945
  0
LINE
  5
39A
100
AcDbEntity
  8
02___PRT_ALL_AXES
100
AcDbLine
 62
9
  6
CONTINUOUS
 10
32.5860006647
 20
13.8955609945
 11
42.3860006647
 21
13.8955609945
  0
LINE
  5
39B
100
AcDbEntity
  8
02___PRT_ALL_AXES
100
AcDbLine
 62
9
  6
CONTINUOUS
 10
52.5860006647
 20
13.8955609945
 11
62.3860006647
 21
13.8955609945
  0
LINE
  5
39C
100
AcDbEntity
  8
02___PRT_ALL_AXES
100
AcDbLine
 62
9
  6
CONTINUOUS
 10
72.5860006647
 20
13.8955609945
 11
82.3860006647
 21
13.8955609945
  0
LINE
  5
39D
100
AcDbEntity
  8
02___PRT_ALL_AXES
100
AcDbLine
 62
9
  6
CONTINUOUS
 10
92.5860006647
 20
13.8955609945
 11
102.3860006647
 21
13.8955609945
  0
LINE
  5
39E
100
AcDbEntity
  8
02___PRT_ALL_AXES
100
AcDbLine
 62
9
  6
CONTINUOUS
 10
112.5860006647
 20
13.8955609945
 11
122.3860006647
 21
13.8955609945
  0
LINE
  5
39F
100
AcDbEntity
  8
02___PRT_ALL_AXES
100
AcDbLine
 62
9
  6
CONTINUOUS
 10
132.5860006647
 20
13.8955609945
 11
142.3860006647
 21
13.8955609945
  0
LINE
  5
3A0
100
AcDbEntity
  8
02___PRT_ALL_AXES
100
AcDbLine
 62
9
  6
CONTINUOUS
 10
152.5860006647
 20
13.8955609945
 11
162.3860006647
 21
13.8955609945
  0
LINE
  5
3A1
100
AcDbEntity
  8
02___PRT_ALL_AXES
100
AcDbLine
 62
9
  6
CONTINUOUS
 10
172.5860006647
 20
13.8955609945
 11
182.3860006647
 21
13.8955609945
  0
LINE
  5
3A2
100
AcDbEntity
  8
02___PRT_ALL_AXES
100
AcDbLine
 62
9
  6
CONTINUOUS
 10
192.5860006647
 20
13.8955609945
 11
202.3860006647
 21
13.8955609945
  0
LINE
  5
3A3
100
AcDbEntity
  8
0
100
AcDbLine
 62
7
  6
CONTINUOUS
 10
50.4860006647
 20
70.7955609945
 11
52.3860006647
 21
68.8955609945
  0
LINE
  5
3A4
100
AcDbEntity
  8
0
100
AcDbLine
 62
7
  6
CONTINUOUS
 10
114.4860006647
 20
6.9955609945
 11
112.5860006647
 21
8.8955609945
  0
LINE
  5
3A5
100
AcDbEntity
  8
0
100
AcDbLine
 62
7
  6
CONTINUOUS
 10
92.3860006647
 20
68.8955609945
 11
92.3860006647
 21
58.8755609945
  0
LINE
  5
3A6
100
AcDbEntity
  8
0
100
AcDbLine
 62
7
  6
CONTINUOUS
 10
92.5860006647
 20
8.8955609945
 11
92.5860006647
 21
18.9155609945
  0
LINE
  5
3A7
100
AcDbEntity
  8
0
100
AcDbLine
 62
7
  6
CONTINUOUS
 10
94.4860006647
 20
6.9673577643
 11
94.4860006647
 21
6.9955609945
  0
LINE
  5
3A8
100
AcDbEntity
  8
0
100
AcDbLine
 62
7
  6
CONTINUOUS
 10
60.4860006647
 20
6.9955609945
 11
62.3860006647
 21
8.8955609945
  0
LINE
  5
3A9
100
AcDbEntity
  8
0
100
AcDbLine
 62
7
  6
CONTINUOUS
 10
124.4860006647
 20
70.7955609945
 11
122.5860006647
 21
68.8955609945
  0
LINE
  5
3AA
100
AcDbEntity
  8
0
100
AcDbLine
 62
7
  6
CONTINUOUS
 10
12.4860006647
 20
18.9155609945
 11
12.5860006647
 21
18.9155609945
  0
LINE
  5
3AB
100
AcDbEntity
  8
0
100
AcDbLine
 62
7
  6
CONTINUOUS
 10
22.3860006647
 20
18.9155609945
 11
32.5860006647
 21
18.9155609945
  0
LINE
  5
3AC
100
AcDbEntity
  8
0
100
AcDbLine
 62
7
  6
CONTINUOUS
 10
42.3860006647
 20
18.9155609945
 11
52.5860006647
 21
18.9155609945
  0
LINE
  5
3AD
100
AcDbEntity
  8
0
100
AcDbLine
 62
7
  6
CONTINUOUS
 10
62.3860006647
 20
18.9155609945
 11
72.5860006647
 21
18.9155609945
  0
LINE
  5
3AE
100
AcDbEntity
  8
0
100
AcDbLine
 62
7
  6
CONTINUOUS
 10
82.3860006647
 20
18.9155609945
 11
92.5860006647
 21
18.9155609945
  0
LINE
  5
3AF
100
AcDbEntity
  8
0
100
AcDbLine
 62
7
  6
CONTINUOUS
 10
102.3860006647
 20
18.9155609945
 11
112.5860006647
 21
18.9155609945
  0
LINE
  5
3B0
100
AcDbEntity
  8
0
100
AcDbLine
 62
7
  6
CONTINUOUS
 10
122.3860006647
 20
18.9155609945
 11
132.5860006647
 21
18.9155609945
  0
LINE
  5
3B1
100
AcDbEntity
  8
0
100
AcDbLine
 62
7
  6
CONTINUOUS
 10
142.3860006647
 20
18.9155609945
 11
152.5860006647
 21
18.9155609945
  0
LINE
  5
3B2
100
AcDbEntity
  8
0
100
AcDbLine
 62
7
  6
CONTINUOUS
 10
162.3860006647
 20
18.9155609945
 11
172.5860006647
 21
18.9155609945
  0
LINE
  5
3B3
100
AcDbEntity
  8
0
100
AcDbLine
 62
7
  6
CONTINUOUS
 10
182.3860006647
 20
18.9155609945
 11
192.5860006647
 21
18.9155609945
  0
LINE
  5
3B4
100
AcDbEntity
  8
0
100
AcDbLine
 62
7
  6
CONTINUOUS
 10
202.3860006647
 20
18.9155609945
 11
212.4860006647
 21
18.9155609945
  0
LINE
  5
3B5
100
AcDbEntity
  8
RUNDUNGEN
100
AcDbLine
 62
9
  6
CONTINUOUS
 10
12.4860006647
 20
25.3638034379
 11
212.4860006647
 21
25.3638034379
  0
LINE
  5
3B6
100
AcDbEntity
  8
0
100
AcDbLine
 62
7
  6
CONTINUOUS
 10
100.4860006647
 20
6.9673577643
 11
100.4860006647
 21
6.9955609945
  0
LINE
  5
3B7
100
AcDbEntity
  8
0
100
AcDbLine
 62
7
  6
CONTINUOUS
 10
102.3860006647
 20
8.8955609945
 11
102.3860006647
 21
18.9155609945
  0
LINE
  5
3B8
100
AcDbEntity
  8
0
100
AcDbLine
 62
7
  6
CONTINUOUS
 10
102.5860006647
 20
68.8955609945
 11
102.5860006647
 21
58.8755609945
  0
LINE
  5
3B9
100
AcDbEntity
  8
0
100
AcDbLine
 62
7
  6
CONTINUOUS
 10
104.4860006647
 20
70.8237642248
 11
104.4860006647
 21
70.7955609945
  0
LINE
  5
3BA
100
AcDbEntity
  8
0
100
AcDbLine
 62
7
  6
CONTINUOUS
 10
70.4860006647
 20
70.7955609945
 11
72.3860006647
 21
68.8955609945
  0
LINE
  5
3BB
100
AcDbEntity
  8
0
100
AcDbLine
 62
7
  6
CONTINUOUS
 10
134.4860006647
 20
6.9955609945
 11
132.5860006647
 21
8.8955609945
  0
LINE
  5
3BC
100
AcDbEntity
  8
0
100
AcDbLine
 62
7
  6
CONTINUOUS
 10
110.4860006647
 20
70.8237642248
 11
110.4860006647
 21
70.7955609945
  0
LINE
  5
3BD
100
AcDbEntity
  8
0
100
AcDbLine
 62
7
  6
CONTINUOUS
 10
112.3860006647
 20
68.8955609945
 11
112.3860006647
 21
58.8755609945
  0
LINE
  5
3BE
100
AcDbEntity
  8
0
100
AcDbLine
 62
7
  6
CONTINUOUS
 10
112.5860006647
 20
8.8955609945
 11
112.5860006647
 21
18.9155609945
  0
LINE
  5
3BF
100
AcDbEntity
  8
0
100
AcDbLine
 62
7
  6
CONTINUOUS
 10
80.4860006647
 20
6.9955609945
 11
82.3860006647
 21
8.8955609945
  0
LINE
  5
3C0
100
AcDbEntity
  8
0
100
AcDbLine
 62
7
  6
CONTINUOUS
 10
144.4860006647
 20
70.7955609945
 11
142.5860006647
 21
68.8955609945
  0
LINE
  5
3C1
100
AcDbEntity
  8
RUNDUNGEN
100
AcDbLine
 62
9
  6
CONTINUOUS
 10
12.4860006647
 20
35.3636168603
 11
212.4860006647
 21
35.3636168603
  0
LINE
  5
3C2
100
AcDbEntity
  8
0
100
AcDbLine
 62
7
  6
CONTINUOUS
 10
12.4860006647
 20
35.8955609945
 11
212.4860006647
 21
35.8955609945
  0
LINE
  5
3C3
100
AcDbEntity
  8
0
100
AcDbLine
 62
7
  6
CONTINUOUS
 10
114.4860006647
 20
6.9673577643
 11
114.4860006647
 21
6.9955609945
  0
LINE
  5
3C4
100
AcDbEntity
  8
0
100
AcDbLine
 62
7
  6
CONTINUOUS
 10
12.4860006647
 20
41.8955609945
 11
212.4860006647
 21
41.8955609945
  0
LINE
  5
3C5
100
AcDbEntity
  8
RUNDUNGEN
100
AcDbLine
 62
9
  6
CONTINUOUS
 10
212.4860006647
 20
42.4275051288
 11
12.4860006647
 21
42.4275051288
  0
LINE
  5
3C6
100
AcDbEntity
  8
0
100
AcDbLine
 62
7
  6
CONTINUOUS
 10
90.4860006647
 20
70.7955609945
 11
92.3860006647
 21
68.8955609945
  0
LINE
  5
3C7
100
AcDbEntity
  8
0
100
AcDbLine
 62
7
  6
CONTINUOUS
 10
154.4860006647
 20
6.9955609945
 11
152.5860006647
 21
8.8955609945
  0
LINE
  5
3C8
100
AcDbEntity
  8
0
100
AcDbLine
 62
7
  6
CONTINUOUS
 10
120.4860006647
 20
6.9673577643
 11
120.4860006647
 21
6.9955609945
  0
LINE
  5
3C9
100
AcDbEntity
  8
0
100
AcDbLine
 62
7
  6
CONTINUOUS
 10
122.3860006647
 20
8.8955609945
 11
122.3860006647
 21
18.9155609945
  0
LINE
  5
3CA
100
AcDbEntity
  8
0
100
AcDbLine
 62
7
  6
CONTINUOUS
 10
122.5860006647
 20
68.8955609945
 11
122.5860006647
 21
58.8755609945
  0
LINE
  5
3CB
100
AcDbEntity
  8
0
100
AcDbLine
 62
7
  6
CONTINUOUS
 10
124.4860006647
 20
70.8237642248
 11
124.4860006647
 21
70.7955609945
  0
LINE
  5
3CC
100
AcDbEntity
  8
0
100
AcDbLine
 62
7
  6
CONTINUOUS
 10
100.4860006647
 20
6.9955609945
 11
102.3860006647
 21
8.8955609945
  0
LINE
  5
3CD
100
AcDbEntity
  8
0
100
AcDbLine
 62
7
  6
CONTINUOUS
 10
164.4860006647
 20
70.7955609945
 11
162.5860006647
 21
68.8955609945
  0
LINE
  5
3CE
100
AcDbEntity
  8
RUNDUNGEN
100
AcDbLine
 62
9
  6
CONTINUOUS
 10
212.4860006647
 20
52.4273185512
 11
12.4860006647
 21
52.4273185512
  0
LINE
  5
3CF
100
AcDbEntity
  8
0
100
AcDbLine
 62
7
  6
CONTINUOUS
 10
130.4860006647
 20
70.8237642248
 11
130.4860006647
 21
70.7955609945
  0
LINE
  5
3D0
100
AcDbEntity
  8
0
100
AcDbLine
 62
7
  6
CONTINUOUS
 10
132.3860006647
 20
68.8955609945
 11
132.3860006647
 21
58.8755609945
  0
LINE
  5
3D1
100
AcDbEntity
  8
0
100
AcDbLine
 62
7
  6
CONTINUOUS
 10
132.5860006647
 20
8.8955609945
 11
132.5860006647
 21
18.9155609945
  0
LINE
  5
3D2
100
AcDbEntity
  8
0
100
AcDbLine
 62
7
  6
CONTINUOUS
 10
134.4860006647
 20
6.9673577643
 11
134.4860006647
 21
6.9955609945
  0
LINE
  5
3D3
100
AcDbEntity
  8
0
100
AcDbLine
 62
7
  6
CONTINUOUS
 10
12.4860006647
 20
58.8755609945
 11
22.5860006647
 21
58.8755609945
  0
LINE
  5
3D4
100
AcDbEntity
  8
0
100
AcDbLine
 62
7
  6
CONTINUOUS
 10
32.3860006647
 20
58.8755609945
 11
42.5860006647
 21
58.8755609945
  0
LINE
  5
3D5
100
AcDbEntity
  8
0
100
AcDbLine
 62
7
  6
CONTINUOUS
 10
52.3860006647
 20
58.8755609945
 11
62.5860006647
 21
58.8755609945
  0
LINE
  5
3D6
100
AcDbEntity
  8
0
100
AcDbLine
 62
7
  6
CONTINUOUS
 10
72.3860006647
 20
58.8755609945
 11
82.5860006647
 21
58.8755609945
  0
LINE
  5
3D7
100
AcDbEntity
  8
0
100
AcDbLine
 62
7
  6
CONTINUOUS
 10
92.3860006647
 20
58.8755609945
 11
102.5860006647
 21
58.8755609945
  0
LINE
  5
3D8
100
AcDbEntity
  8
0
100
AcDbLine
 62
7
  6
CONTINUOUS
 10
112.3860006647
 20
58.8755609945
 11
122.5860006647
 21
58.8755609945
  0
LINE
  5
3D9
100
AcDbEntity
  8
0
100
AcDbLine
 62
7
  6
CONTINUOUS
 10
132.3860006647
 20
58.8755609945
 11
142.5860006647
 21
58.8755609945
  0
LINE
  5
3DA
100
AcDbEntity
  8
0
100
AcDbLine
 62
7
  6
CONTINUOUS
 10
152.3860006647
 20
58.8755609945
 11
162.5860006647
 21
58.8755609945
  0
LINE
  5
3DB
100
AcDbEntity
  8
0
100
AcDbLine
 62
7
  6
CONTINUOUS
 10
172.3860006647
 20
58.8755609945
 11
182.5860006647
 21
58.8755609945
  0
LINE
  5
3DC
100
AcDbEntity
  8
0
100
AcDbLine
 62
7
  6
CONTINUOUS
 10
192.3860006647
 20
58.8755609945
 11
202.5860006647
 21
58.8755609945
  0
LINE
  5
3DD
100
AcDbEntity
  8
0
100
AcDbLine
 62
7
  6
CONTINUOUS
 10
212.3860006647
 20
58.8755609945
 11
212.4860006647
 21
58.8755609945
  0
LINE
  5
3DE
100
AcDbEntity
  8
0
100
AcDbLine
 62
7
  6
CONTINUOUS
 10
110.4860006647
 20
70.7955609945
 11
112.3860006647
 21
68.8955609945
  0
LINE
  5
3DF
100
AcDbEntity
  8
0
100
AcDbLine
 62
7
  6
CONTINUOUS
 10
174.4860006647
 20
6.9955609945
 11
172.5860006647
 21
8.8955609945
  0
LINE
  5
3E0
100
AcDbEntity
  8
0
100
AcDbLine
 62
7
  6
CONTINUOUS
 10
140.4860006647
 20
6.9673577643
 11
140.4860006647
 21
6.9955609945
  0
LINE
  5
3E1
100
AcDbEntity
  8
0
100
AcDbLine
 62
7
  6
CONTINUOUS
 10
120.4860006647
 20
6.9955609945
 11
122.3860006647
 21
8.8955609945
  0
LINE
  5
3E2
100
AcDbEntity
  8
0
100
AcDbLine
 62
7
  6
CONTINUOUS
 10
184.4860006647
 20
70.7955609945
 11
182.5860006647
 21
68.8955609945
  0
LINE
  5
3E3
100
AcDbEntity
  8
02___PRT_ALL_AXES
100
AcDbLine
 62
9
  6
CONTINUOUS
 10
212.3860006647
 20
63.8955609945
 11
202.5860006647
 21
63.8955609945
  0
LINE
  5
3E4
100
AcDbEntity
  8
02___PRT_ALL_AXES
100
AcDbLine
 62
9
  6
CONTINUOUS
 10
192.3860006647
 20
63.8955609945
 11
182.5860006647
 21
63.8955609945
  0
LINE
  5
3E5
100
AcDbEntity
  8
02___PRT_ALL_AXES
100
AcDbLine
 62
9
  6
CONTINUOUS
 10
172.3860006647
 20
63.8955609945
 11
162.5860006647
 21
63.8955609945
  0
LINE
  5
3E6
100
AcDbEntity
  8
02___PRT_ALL_AXES
100
AcDbLine
 62
9
  6
CONTINUOUS
 10
152.3860006647
 20
63.8955609945
 11
142.5860006647
 21
63.8955609945
  0
LINE
  5
3E7
100
AcDbEntity
  8
02___PRT_ALL_AXES
100
AcDbLine
 62
9
  6
CONTINUOUS
 10
132.3860006647
 20
63.8955609945
 11
122.5860006647
 21
63.8955609945
  0
LINE
  5
3E8
100
AcDbEntity
  8
02___PRT_ALL_AXES
100
AcDbLine
 62
9
  6
CONTINUOUS
 10
112.3860006647
 20
63.8955609945
 11
102.5860006647
 21
63.8955609945
  0
LINE
  5
3E9
100
AcDbEntity
  8
02___PRT_ALL_AXES
100
AcDbLine
 62
9
  6
CONTINUOUS
 10
92.3860006647
 20
63.8955609945
 11
82.5860006647
 21
63.8955609945
  0
LINE
  5
3EA
100
AcDbEntity
  8
02___PRT_ALL_AXES
100
AcDbLine
 62
9
  6
CONTINUOUS
 10
72.3860006647
 20
63.8955609945
 11
62.5860006647
 21
63.8955609945
  0
LINE
  5
3EB
100
AcDbEntity
  8
02___PRT_ALL_AXES
100
AcDbLine
 62
9
  6
CONTINUOUS
 10
52.3860006647
 20
63.8955609945
 11
42.5860006647
 21
63.8955609945
  0
LINE
  5
3EC
100
AcDbEntity
  8
02___PRT_ALL_AXES
100
AcDbLine
 62
9
  6
CONTINUOUS
 10
32.3860006647
 20
63.8955609945
 11
22.5860006647
 21
63.8955609945
  0
LINE
  5
3ED
100
AcDbEntity
  8
0
100
AcDbLine
 62
7
  6
CONTINUOUS
 10
142.3860006647
 20
8.8955609945
 11
142.3860006647
 21
18.9155609945
  0
LINE
  5
3EE
100
AcDbEntity
  8
0
100
AcDbLine
 62
7
  6
CONTINUOUS
 10
142.5860006647
 20
68.8955609945
 11
142.5860006647
 21
58.8755609945
  0
LINE
  5
3EF
100
AcDbEntity
  8
0
100
AcDbLine
 62
7
  6
CONTINUOUS
 10
144.4860006647
 20
70.8237642248
 11
144.4860006647
 21
70.7955609945
  0
LINE
  5
3F0
100
AcDbEntity
  8
02___PRT_ALL_AXES
100
AcDbLine
 62
7
  6
CONTINUOUS
 10
24.6515219075
 20
71.8955609945
 11
30.3204794219
 21
71.8955609945
  0
LINE
  5
3F1
100
AcDbEntity
  8
02___PRT_ALL_AXES
100
AcDbLine
 62
7
  6
CONTINUOUS
 10
44.6515219075
 20
71.8955609945
 11
50.3204794219
 21
71.8955609945
  0
LINE
  5
3F2
100
AcDbEntity
  8
02___PRT_ALL_AXES
100
AcDbLine
 62
7
  6
CONTINUOUS
 10
64.6515219075
 20
71.8955609945
 11
70.3204794219
 21
71.8955609945
  0
LINE
  5
3F3
100
AcDbEntity
  8
02___PRT_ALL_AXES
100
AcDbLine
 62
7
  6
CONTINUOUS
 10
84.6515219075
 20
71.8955609945
 11
90.3204794219
 21
71.8955609945
  0
LINE
  5
3F4
100
AcDbEntity
  8
02___PRT_ALL_AXES
100
AcDbLine
 62
7
  6
CONTINUOUS
 10
104.6515219075
 20
71.8955609945
 11
110.3204794219
 21
71.8955609945
  0
LINE
  5
3F5
100
AcDbEntity
  8
02___PRT_ALL_AXES
100
AcDbLine
 62
7
  6
CONTINUOUS
 10
124.6515219075
 20
71.8955609945
 11
130.3204794219
 21
71.8955609945
  0
LINE
  5
3F6
100
AcDbEntity
  8
02___PRT_ALL_AXES
100
AcDbLine
 62
7
  6
CONTINUOUS
 10
144.6515219075
 20
71.8955609945
 11
150.3204794219
 21
71.8955609945
  0
LINE
  5
3F7
100
AcDbEntity
  8
02___PRT_ALL_AXES
100
AcDbLine
 62
7
  6
CONTINUOUS
 10
164.6515219075
 20
71.8955609945
 11
170.3204794219
 21
71.8955609945
  0
LINE
  5
3F8
100
AcDbEntity
  8
02___PRT_ALL_AXES
100
AcDbLine
 62
7
  6
CONTINUOUS
 10
184.6515219075
 20
71.8955609945
 11
190.3204794219
 21
71.8955609945
  0
LINE
  5
3F9
100
AcDbEntity
  8
0
100
AcDbLine
 62
7
  6
CONTINUOUS
 10
204.6514802018
 20
71.8955609945
 11
210.3204800208
 21
71.8955609945
  0
LINE
  5
3FA
100
AcDbEntity
  8
0
100
AcDbLine
 62
7
  6
CONTINUOUS
 10
130.4860006647
 20
70.7955609945
 11
132.3860006647
 21
68.8955609945
  0
LINE
  5
3FB
100
AcDbEntity
  8
0
100
AcDbLine
 62
7
  6
CONTINUOUS
 10
194.4860006647
 20
6.9955609945
 11
192.5860006647
 21
8.8955609945
  0
LINE
  5
3FC
100
AcDbEntity
  8
0
100
AcDbLine
 62
7
  6
CONTINUOUS
 10
150.4860006647
 20
70.8237642248
 11
150.4860006647
 21
70.7955609945
  0
LINE
  5
3FD
100
AcDbEntity
  8
0
100
AcDbLine
 62
7
  6
CONTINUOUS
 10
152.3860006647
 20
68.8955609945
 11
152.3860006647
 21
58.8755609945
  0
LINE
  5
3FE
100
AcDbEntity
  8
0
100
AcDbLine
 62
7
  6
CONTINUOUS
 10
152.5860006647
 20
8.8955609945
 11
152.5860006647
 21
18.9155609945
  0
LINE
  5
3FF
100
AcDbEntity
  8
0
100
AcDbLine
 62
7
  6
CONTINUOUS
 10
154.4860006647
 20
6.9673577643
 11
154.4860006647
 21
6.9955609945
  0
LINE
  5
400
100
AcDbEntity
  8
0
100
AcDbLine
 62
7
  6
CONTINUOUS
 10
140.4860006647
 20
6.9955609945
 11
142.3860006647
 21
8.8955609945
  0
LINE
  5
401
100
AcDbEntity
  8
0
100
AcDbLine
 62
7
  6
CONTINUOUS
 10
204.4860006647
 20
70.7955609945
 11
202.5860006647
 21
68.8955609945
  0
LINE
  5
402
100
AcDbEntity
  8
0
100
AcDbLine
 62
7
  6
CONTINUOUS
 10
160.4860006647
 20
6.9673577643
 11
160.4860006647
 21
6.9955609945
  0
LINE
  5
403
100
AcDbEntity
  8
0
100
AcDbLine
 62
7
  6
CONTINUOUS
 10
162.3860006647
 20
8.8955609945
 11
162.3860006647
 21
18.9155609945
  0
LINE
  5
404
100
AcDbEntity
  8
0
100
AcDbLine
 62
7
  6
CONTINUOUS
 10
150.4860006647
 20
70.7955609945
 11
152.3860006647
 21
68.8955609945
  0
LINE
  5
405
100
AcDbEntity
  8
0
100
AcDbLine
 62
7
  6
CONTINUOUS
 10
162.5860006647
 20
68.8955609945
 11
162.5860006647
 21
58.8755609945
  0
LINE
  5
406
100
AcDbEntity
  8
0
100
AcDbLine
 62
7
  6
CONTINUOUS
 10
164.4860006647
 20
70.8237642248
 11
164.4860006647
 21
70.7955609945
  0
LINE
  5
407
100
AcDbEntity
  8
0
100
AcDbLine
 62
7
  6
CONTINUOUS
 10
160.4860006647
 20
6.9955609945
 11
162.3860006647
 21
8.8955609945
  0
LINE
  5
408
100
AcDbEntity
  8
0
100
AcDbLine
 62
7
  6
CONTINUOUS
 10
170.4860006647
 20
70.8237642248
 11
170.4860006647
 21
70.7955609945
  0
LINE
  5
409
100
AcDbEntity
  8
0
100
AcDbLine
 62
7
  6
CONTINUOUS
 10
172.3860006647
 20
68.8955609945
 11
172.3860006647
 21
58.8755609945
  0
LINE
  5
40A
100
AcDbEntity
  8
0
100
AcDbLine
 62
7
  6
CONTINUOUS
 10
172.5860006647
 20
8.8955609945
 11
172.5860006647
 21
18.9155609945
  0
LINE
  5
40B
100
AcDbEntity
  8
0
100
AcDbLine
 62
7
  6
CONTINUOUS
 10
174.4860006647
 20
6.9673577643
 11
174.4860006647
 21
6.9955609945
  0
LINE
  5
40C
100
AcDbEntity
  8
0
100
AcDbLine
 62
7
  6
CONTINUOUS
 10
170.4860006647
 20
70.7955609945
 11
172.3860006647
 21
68.8955609945
  0
LINE
  5
40D
100
AcDbEntity
  8
0
100
AcDbLine
 62
7
  6
CONTINUOUS
 10
180.4860006647
 20
6.9673577643
 11
180.4860006647
 21
6.9955609945
  0
LINE
  5
40E
100
AcDbEntity
  8
0
100
AcDbLine
 62
7
  6
CONTINUOUS
 10
182.3860006647
 20
8.8955609945
 11
182.3860006647
 21
18.9155609945
  0
LINE
  5
40F
100
AcDbEntity
  8
0
100
AcDbLine
 62
7
  6
CONTINUOUS
 10
182.5860006647
 20
68.8955609945
 11
182.5860006647
 21
58.8755609945
  0
LINE
  5
410
100
AcDbEntity
  8
0
100
AcDbLine
 62
7
  6
CONTINUOUS
 10
180.4860006647
 20
6.9955609945
 11
182.3860006647
 21
8.8955609945
  0
LINE
  5
411
100
AcDbEntity
  8
0
100
AcDbLine
 62
7
  6
CONTINUOUS
 10
184.4860006647
 20
70.8237642248
 11
184.4860006647
 21
70.7955609945
  0
LINE
  5
412
100
AcDbEntity
  8
0
100
AcDbLine
 62
7
  6
CONTINUOUS
 10
190.4860006647
 20
70.8237642248
 11
190.4860006647
 21
70.7955609945
  0
LINE
  5
413
100
AcDbEntity
  8
0
100
AcDbLine
 62
7
  6
CONTINUOUS
 10
190.4860006647
 20
70.7955609945
 11
192.3860006647
 21
68.8955609945
  0
LINE
  5
414
100
AcDbEntity
  8
0
100
AcDbLine
 62
7
  6
CONTINUOUS
 10
192.3860006647
 20
68.8955609945
 11
192.3860006647
 21
58.8755609945
  0
LINE
  5
415
100
AcDbEntity
  8
0
100
AcDbLine
 62
7
  6
CONTINUOUS
 10
192.5860006647
 20
8.8955609945
 11
192.5860006647
 21
18.9155609945
  0
LINE
  5
416
100
AcDbEntity
  8
0
100
AcDbLine
 62
7
  6
CONTINUOUS
 10
194.4860006647
 20
6.9673577643
 11
194.4860006647
 21
6.9955609945
  0
LINE
  5
417
100
AcDbEntity
  8
0
100
AcDbLine
 62
7
  6
CONTINUOUS
 10
200.4860006647
 20
6.9955609945
 11
202.3860006647
 21
8.8955609945
  0
LINE
  5
418
100
AcDbEntity
  8
0
100
AcDbLine
 62
7
  6
CONTINUOUS
 10
200.4860006647
 20
6.9673577643
 11
200.4860006647
 21
6.9955609945
  0
LINE
  5
419
100
AcDbEntity
  8
0
100
AcDbLine
 62
7
  6
CONTINUOUS
 10
202.3860006647
 20
8.8955609945
 11
202.3860006647
 21
18.9155609945
  0
LINE
  5
41A
100
AcDbEntity
  8
0
100
AcDbLine
 62
7
  6
CONTINUOUS
 10
202.5860006647
 20
68.8955609945
 11
202.5860006647
 21
58.8755609945
  0
LINE
  5
41B
100
AcDbEntity
  8
0
100
AcDbLine
 62
7
  6
CONTINUOUS
 10
204.4860006647
 20
70.8237642248
 11
204.4860006647
 21
70.7955609945
  0
LINE
  5
41C
100
AcDbEntity
  8
0
100
AcDbLine
 62
7
  6
CONTINUOUS
 10
210.4860006647
 20
70.7955609945
 11
212.3860006647
 21
68.8955609945
  0
LINE
  5
41D
100
AcDbEntity
  8
0
100
AcDbLine
 62
7
  6
CONTINUOUS
 10
210.4860006647
 20
70.8237642248
 11
210.4860006647
 21
70.7955609945
  0
LINE
  5
41E
100
AcDbEntity
  8
0
100
AcDbLine
 62
7
  6
CONTINUOUS
 10
212.3860006647
 20
68.8955609945
 11
212.3860006647
 21
58.8755609945
  0
LINE
  5
41F
100
AcDbEntity
  8
RUNDUNGEN
100
AcDbLine
 62
7
  6
CONTINUOUS
 10
212.4860006647
 20
18.9155609945
 11
212.4860006647
 21
35.8955609945
  0
LINE
  5
420
100
AcDbEntity
  8
0
100
AcDbLine
 62
7
  6
CONTINUOUS
 10
212.4860006647
 20
35.8955609945
 11
212.4860006647
 21
41.8955609945
  0
LINE
  5
421
100
AcDbEntity
  8
RUNDUNGEN
100
AcDbLine
 62
7
  6
CONTINUOUS
 10
212.4860006647
 20
41.8955609945
 11
212.4860006647
 21
58.8755609945
  0
ARC
  5
422
100
AcDbEntity
  8
0
100
AcDbCircle
 62
7
  6
CONTINUOUS
 10
231.3342605738
 20
98.492445983
 40
16.55
100
AcDbArc
 50
333.0141438912
 51
356.5335671482
  0
ARC
  5
423
100
AcDbEntity
  8
0
100
AcDbCircle
 62
7
  6
CONTINUOUS
 10
281.3882506338
 20
98.492445983
 40
16.55
100
AcDbArc
 50
183.4664328518
 51
206.9858561088
  0
ARC
  5
424
100
AcDbEntity
  8
0
100
AcDbCircle
 62
7
  6
CONTINUOUS
 10
256.3012556038
 20
102.0683397018
 40
15.72
100
AcDbArc
 50
212.4548245353
 51
225.5173987725
  0
ARC
  5
425
100
AcDbEntity
  8
0
100
AcDbCircle
 62
7
  6
CONTINUOUS
 10
256.4212556038
 20
102.0683397018
 40
15.72
100
AcDbArc
 50
314.4826012275
 51
327.5451754647
  0
ARC
  5
426
100
AcDbEntity
  8
RUNDUNGEN
100
AcDbCircle
 62
7
  6
CONTINUOUS
 10
269.8930131604
 20
116.212445983
 40
10.0
100
AcDbArc
 50
180.35
 51
270.0
  0
ARC
  5
427
100
AcDbEntity
  8
RUNDUNGEN
100
AcDbCircle
 62
7
  6
CONTINUOUS
 10
242.8294980471
 20
116.212445983
 40
10.0
100
AcDbArc
 50
270.0
 51
359.65
  0
ARC
  5
428
100
AcDbEntity
  8
0
100
AcDbCircle
 62
7
  6
CONTINUOUS
 10
281.3612556038
 20
98.212445983
 40
8.0
100
AcDbArc
 50
252.0
 51
90.0
  0
ARC
  5
429
100
AcDbEntity
  8
0
100
AcDbCircle
 62
7
  6
CONTINUOUS
 10
231.3612556038
 20
98.212445983
 40
8.0
100
AcDbArc
 50
90.0
 51
288.0
  0
ARC
  5
42A
100
AcDbEntity
  8
0
100
AcDbCircle
 62
7
  6
CONTINUOUS
 10
281.3612556038
 20
98.212445983
 40
5.25
100
AcDbArc
 50
0.0
 51
180.0
  0
CIRCLE
  5
42B
100
AcDbEntity
  8
0
100
AcDbCircle
 62
7
  6
CONTINUOUS
 10
281.3612556038
 20
98.212445983
 40
3.15
  0
CIRCLE
  5
42C
100
AcDbEntity
  8
0
100
AcDbCircle
 62
7
  6
CONTINUOUS
 10
231.3612556038
 20
98.212445983
 40
3.15
  0
ARC
  5
42D
100
AcDbEntity
  8
0
100
AcDbCircle
 62
7
  6
CONTINUOUS
 10
256.3612556038
 20
203.2123900087
 40
3.0000559743
100
AcDbArc
 50
0.35
 51
179.65
  0
ARC
  5
42E
100
AcDbEntity
  8
0
100
AcDbCircle
 62
7
  6
CONTINUOUS
 10
245.6367135899
 20
91.2094289077
 40
0.5
100
AcDbArc
 50
225.5173987725
 51
333.0141438912
  0
ARC
  5
42F
100
AcDbEntity
  8
0
100
AcDbCircle
 62
7
  6
CONTINUOUS
 10
267.0857976176
 20
91.2094289077
 40
0.5
100
AcDbArc
 50
206.9858561088
 51
314.4826012275
  0
ELLIPSE
  5
430
100
AcDbEntity
  8
0
100
AcDbEllipse
 62
7
  6
CONTINUOUS
 10
127.5860006647
 20
98.212445983
 30
0.0
 11
-0.0218147036
 21
7.9999702574
 31
0.0
 40
1.0
 41
-1.0429160637
 42
-0.6778583743
  0
ELLIPSE
  5
431
100
AcDbEntity
  8
0
100
AcDbEllipse
 62
7
  6
CONTINUOUS
 10
67.5860006647
 20
98.212445983
 30
0.0
 11
-0.2063560627
 21
7.9973381306
 31
0.0
 40
1.0
 41
-1.0659865915
 42
-0.7009289021
  0
ELLIPSE
  5
432
100
AcDbEntity
  8
0
100
AcDbEllipse
 62
7
  6
CONTINUOUS
 10
87.3860006647
 20
98.212445983
 30
0.0
 11
0.0218147036
 21
7.9999702574
 31
0.0
 40
1.0
 41
0.6778583743
 42
1.0429160637
  0
ELLIPSE
  5
433
100
AcDbEntity
  8
0
100
AcDbEllipse
 62
7
  6
CONTINUOUS
 10
147.3860006647
 20
98.212445983
 30
0.0
 11
7.9990304442
 21
-0.1245469925
 31
0.0
 40
1.0
 41
2.2614968628
 42
2.6265545522
  0
ELLIPSE
  5
434
100
AcDbEntity
  8
0
100
AcDbEllipse
 62
7
  6
CONTINUOUS
 10
167.5860006647
 20
98.212445983
 30
0.0
 11
-0.135837457
 21
7.9988466784
 31
0.0
 40
1.0
 41
-1.0571697205
 42
-0.6921120311
  0
ELLIPSE
  5
435
100
AcDbEntity
  8
0
100
AcDbEllipse
 62
7
  6
CONTINUOUS
 10
187.3860006647
 20
98.212445983
 30
0.0
 11
7.6080420309
 21
2.4733977553
 31
0.0
 40
1.0
 41
1.931602748
 42
2.2966604374
  0
ELLIPSE
  5
436
100
AcDbEntity
  8
0
100
AcDbEllipse
 62
7
  6
CONTINUOUS
 10
47.5860006647
 20
98.212445983
 30
0.0
 11
-0.2063560627
 21
7.9973381306
 31
0.0
 40
1.0
 41
-1.0659865915
 42
-0.7009289021
  0
ELLIPSE
  5
437
100
AcDbEntity
  8
0
100
AcDbEllipse
 62
7
  6
CONTINUOUS
 10
67.3860006647
 20
98.212445983
 30
0.0
 11
-0.028717856
 21
7.9999484551
 31
0.0
 40
1.0
 41
0.6715417932
 42
1.0365994827
  0
ELLIPSE
  5
438
100
AcDbEntity
  8
0
100
AcDbEllipse
 62
7
  6
CONTINUOUS
 10
107.5860006647
 20
98.212445983
 30
0.0
 11
0.3719263129
 21
7.9913497494
 31
0.0
 40
1.0
 41
-0.9936816695
 42
-0.62862398
  0
ELLIPSE
  5
439
100
AcDbEntity
  8
0
100
AcDbEllipse
 62
7
  6
CONTINUOUS
 10
127.3860006647
 20
98.212445983
 30
0.0
 11
0.0179110849
 21
7.9999799495
 31
0.0
 40
1.0
 41
0.6773704204
 42
1.0424281098
  0
ELLIPSE
  5
43A
100
AcDbEntity
  8
0
100
AcDbEllipse
 62
7
  6
CONTINUOUS
 10
27.5860006647
 20
98.212445983
 30
0.0
 11
1.0690179804
 21
7.9282533106
 31
0.0
 40
1.0
 41
-0.9061610649
 42
-0.5411033755
  0
ELLIPSE
  5
43B
100
AcDbEntity
  8
0
100
AcDbEllipse
 62
7
  6
CONTINUOUS
 10
47.3860006647
 20
98.212445983
 30
0.0
 11
0.614306986
 21
7.9763793119
 31
0.0
 40
1.0
 41
0.7519955703
 42
1.1170532598
  0
ELLIPSE
  5
43C
100
AcDbEntity
  8
0
100
AcDbEllipse
 62
7
  6
CONTINUOUS
 10
187.5860006647
 20
98.212445983
 30
0.0
 11
7.1366522413
 21
-3.6149958211
 31
0.0
 40
1.0
 41
0.9994725682
 42
1.3645302577
  0
ELLIPSE
  5
43D
100
AcDbEntity
  8
0
100
AcDbEllipse
 62
7
  6
CONTINUOUS
 10
207.3860006647
 20
98.212445983
 30
0.0
 11
7.6209150565
 21
2.4334448221
 31
0.0
 40
1.0
 41
1.936849705
 42
2.3019073944
  0
ELLIPSE
  5
43E
100
AcDbEntity
  8
0
100
AcDbEllipse
 62
7
  6
CONTINUOUS
 10
147.5860006647
 20
98.212445983
 30
0.0
 11
-0.1323573425
 21
7.9989050209
 31
0.0
 40
1.0
 41
-1.0567346451
 42
-0.6916769556
  0
ELLIPSE
  5
43F
100
AcDbEntity
  8
0
100
AcDbEllipse
 62
7
  6
CONTINUOUS
 10
167.3860006647
 20
98.212445983
 30
0.0
 11
7.9996262161
 21
-0.0773330612
 31
0.0
 40
1.0
 41
2.2555946429
 42
2.6206523324
  0
ELLIPSE
  5
440
100
AcDbEntity
  8
0
100
AcDbEllipse
 62
7
  6
CONTINUOUS
 10
87.5860006647
 20
98.212445983
 30
0.0
 11
-0.2620123109
 21
7.9957081956
 31
0.0
 40
1.0
 41
-1.0729466193
 42
-0.7078889299
  0
ELLIPSE
  5
441
100
AcDbEntity
  8
0
100
AcDbEllipse
 62
7
  6
CONTINUOUS
 10
107.3860006647
 20
98.212445983
 30
0.0
 11
0.0179110849
 21
7.9999799495
 31
0.0
 40
1.0
 41
0.6773704204
 42
1.0424281098
  0
ELLIPSE
  5
442
100
AcDbEntity
  8
0
100
AcDbEllipse
 62
7
  6
CONTINUOUS
 10
7.5860006647
 20
98.212445983
 30
0.0
 11
-0.4340511593
 21
7.988216296
 31
0.0
 40
1.0
 41
-1.0944722722
 42
-0.7294145828
  0
ELLIPSE
  5
443
100
AcDbEntity
  8
0
100
AcDbEllipse
 62
7
  6
CONTINUOUS
 10
27.3860006647
 20
98.212445983
 30
0.0
 11
-0.6234212024
 21
7.975672135
 31
0.0
 40
1.0
 41
0.5971247942
 42
0.9621824836
  0
ELLIPSE
  5
444
100
AcDbEntity
  8
0
100
AcDbEllipse
 62
7
  6
CONTINUOUS
 10
210.3204490209
 20
63.8955609945
 30
0.0
 11
0.0
 21
8.0
 31
0.0
 40
0.0413879109
 41
-0.5235987756
 42
-0.0000914519
  0
ELLIPSE
  5
445
100
AcDbEntity
  8
0
100
AcDbEllipse
 62
7
  6
CONTINUOUS
 10
14.6515523085
 20
13.8955609945
 30
0.0
 11
0.0
 21
8.0
 31
0.0
 40
0.0413879109
 41
-3.6651914292
 42
-3.1415499655
  0
ELLIPSE
  5
446
100
AcDbEntity
  8
0
100
AcDbEllipse
 62
7
  6
CONTINUOUS
 10
34.6515523085
 20
13.8955609945
 30
0.0
 11
0.0
 21
8.0
 31
0.0
 40
0.0413879109
 41
-3.6651914292
 42
-3.1416568761
  0
ELLIPSE
  5
447
100
AcDbEntity
  8
0
100
AcDbEllipse
 62
7
  6
CONTINUOUS
 10
54.6515523085
 20
13.8955609945
 30
0.0
 11
0.0
 21
8.0
 31
0.0
 40
0.0413879109
 41
-3.6651914292
 42
-3.1416242213
  0
ELLIPSE
  5
448
100
AcDbEntity
  8
0
100
AcDbEllipse
 62
7
  6
CONTINUOUS
 10
74.6515523085
 20
13.8955609945
 30
0.0
 11
-0.0
 21
8.0
 31
0.0
 40
0.0413879109
 41
-3.6651914292
 42
-3.1414931258
  0
ELLIPSE
  5
449
100
AcDbEntity
  8
0
100
AcDbEllipse
 62
7
  6
CONTINUOUS
 10
94.6515523085
 20
13.8955609945
 30
0.0
 11
0.0
 21
8.0
 31
0.0
 40
0.0413879109
 41
-3.6651914292
 42
-3.1414931243
  0
ELLIPSE
  5
44A
100
AcDbEntity
  8
0
100
AcDbEllipse
 62
7
  6
CONTINUOUS
 10
114.6515523085
 20
13.8955609945
 30
0.0
 11
0.0
 21
8.0
 31
0.0
 40
0.0413879109
 41
-3.6651914292
 42
-3.1415235324
  0
ELLIPSE
  5
44B
100
AcDbEntity
  8
0
100
AcDbEllipse
 62
7
  6
CONTINUOUS
 10
134.6515523085
 20
13.8955609945
 30
0.0
 11
-0.0
 21
8.0
 31
0.0
 40
0.0413879109
 41
-3.6651914292
 42
-3.1415235501
  0
ELLIPSE
  5
44C
100
AcDbEntity
  8
0
100
AcDbEllipse
 62
7
  6
CONTINUOUS
 10
154.6515523085
 20
13.8955609945
 30
0.0
 11
0.0
 21
8.0
 31
0.0
 40
0.0413879109
 41
-3.6651914292
 42
-3.1416858811
  0
ELLIPSE
  5
44D
100
AcDbEntity
  8
0
100
AcDbEllipse
 62
7
  6
CONTINUOUS
 10
184.6515523085
 20
63.8955609945
 30
0.0
 11
-0.0
 21
8.0
 31
0.0
 40
0.0413879109
 41
0.0000914678
 42
0.5235987756
  0
ELLIPSE
  5
44E
100
AcDbEntity
  8
0
100
AcDbEllipse
 62
7
  6
CONTINUOUS
 10
174.6515523085
 20
13.8955609945
 30
0.0
 11
-0.0
 21
8.0
 31
0.0
 40
0.0413879109
 41
-3.6651914292
 42
-3.1416850723
  0
ELLIPSE
  5
44F
100
AcDbEntity
  8
0
100
AcDbEllipse
 62
7
  6
CONTINUOUS
 10
194.6515523085
 20
13.8955609945
 30
0.0
 11
0.0
 21
8.0
 31
0.0
 40
0.0413879109
 41
-3.6651914292
 42
-3.1416841216
  0
ELLIPSE
  5
450
100
AcDbEntity
  8
0
100
AcDbEllipse
 62
7
  6
CONTINUOUS
 10
30.3204490209
 20
63.8955609945
 30
0.0
 11
-0.0
 21
8.0
 31
0.0
 40
0.0413879109
 41
-0.5235987756
 42
-0.0000914678
  0
ELLIPSE
  5
451
100
AcDbEntity
  8
0
100
AcDbEllipse
 62
7
  6
CONTINUOUS
 10
50.3204490209
 20
63.8955609945
 30
0.0
 11
0.0
 21
8.0
 31
0.0
 40
0.0413879109
 41
-0.5235987756
 42
-0.0000914678
  0
ELLIPSE
  5
452
100
AcDbEntity
  8
0
100
AcDbEllipse
 62
7
  6
CONTINUOUS
 10
70.3204490209
 20
63.8955609945
 30
0.0
 11
0.0
 21
8.0
 31
0.0
 40
0.0413879109
 41
-0.5235987756
 42
-0.0000914678
  0
ELLIPSE
  5
453
100
AcDbEntity
  8
0
100
AcDbEllipse
 62
7
  6
CONTINUOUS
 10
90.3204490209
 20
63.8955609945
 30
0.0
 11
-0.0
 21
8.0
 31
0.0
 40
0.0413879109
 41
-0.5235987756
 42
-0.0000914678
  0
ELLIPSE
  5
454
100
AcDbEntity
  8
0
100
AcDbEllipse
 62
7
  6
CONTINUOUS
 10
110.3204490209
 20
63.8955609945
 30
0.0
 11
-0.0
 21
8.0
 31
0.0
 40
0.0413879109
 41
-0.5235987756
 42
-0.0000914678
  0
ELLIPSE
  5
455
100
AcDbEntity
  8
0
100
AcDbEllipse
 62
7
  6
CONTINUOUS
 10
130.3204490209
 20
63.8955609945
 30
0.0
 11
-0.0
 21
8.0
 31
0.0
 40
0.0413879109
 41
-0.5235987756
 42
-0.0000914678
  0
ELLIPSE
  5
456
100
AcDbEntity
  8
0
100
AcDbEllipse
 62
7
  6
CONTINUOUS
 10
164.6515523085
 20
63.8955609945
 30
0.0
 11
-0.0
 21
8.0
 31
0.0
 40
0.0413879109
 41
0.0000914678
 42
0.5235987756
  0
ELLIPSE
  5
457
100
AcDbEntity
  8
0
100
AcDbEllipse
 62
7
  6
CONTINUOUS
 10
150.3204490209
 20
63.8955609945
 30
0.0
 11
-0.0
 21
8.0
 31
0.0
 40
0.0413879109
 41
-0.5235987756
 42
-0.0000914678
  0
ELLIPSE
  5
458
100
AcDbEntity
  8
0
100
AcDbEllipse
 62
7
  6
CONTINUOUS
 10
170.3204490209
 20
63.8955609945
 30
0.0
 11
-0.0
 21
8.0
 31
0.0
 40
0.0413879109
 41
-0.5235987756
 42
-0.0000914678
  0
ELLIPSE
  5
459
100
AcDbEntity
  8
0
100
AcDbEllipse
 62
7
  6
CONTINUOUS
 10
190.3204490209
 20
63.8955609945
 30
0.0
 11
-0.0
 21
8.0
 31
0.0
 40
0.0413879109
 41
-0.5235987756
 42
-0.0000914678
  0
ELLIPSE
  5
45A
100
AcDbEntity
  8
0
100
AcDbEllipse
 62
7
  6
CONTINUOUS
 10
204.6515523085
 20
63.8955609945
 30
0.0
 11
0.0
 21
8.0
 31
0.0
 40
0.0413879109
 41
0.0002189307
 42
0.5235987756
  0
ELLIPSE
  5
45B
100
AcDbEntity
  8
0
100
AcDbEllipse
 62
7
  6
CONTINUOUS
 10
144.6515523085
 20
63.8955609945
 30
0.0
 11
-0.0
 21
8.0
 31
0.0
 40
0.0413879109
 41
0.0000914678
 42
0.5235987756
  0
ELLIPSE
  5
45C
100
AcDbEntity
  8
0
100
AcDbEllipse
 62
7
  6
CONTINUOUS
 10
124.6515523085
 20
63.8955609945
 30
0.0
 11
0.0
 21
8.0
 31
0.0
 40
0.0413879109
 41
0.0000914678
 42
0.5235987756
  0
ELLIPSE
  5
45D
100
AcDbEntity
  8
0
100
AcDbEllipse
 62
7
  6
CONTINUOUS
 10
104.6515523085
 20
63.8955609945
 30
0.0
 11
0.0
 21
8.0
 31
0.0
 40
0.0413879109
 41
0.0000914678
 42
0.5235987756
  0
ELLIPSE
  5
45E
100
AcDbEntity
  8
0
100
AcDbEllipse
 62
7
  6
CONTINUOUS
 10
20.3204490209
 20
13.8955609945
 30
0.0
 11
0.0
 21
8.0
 31
0.0
 40
0.0413879109
 41
-3.1415860016
 42
-2.617993878
  0
ELLIPSE
  5
45F
100
AcDbEntity
  8
0
100
AcDbEllipse
 62
7
  6
CONTINUOUS
 10
40.3204490209
 20
13.8955609945
 30
0.0
 11
0.0
 21
8.0
 31
0.0
 40
0.0413879109
 41
-3.1415284311
 42
-2.617993878
  0
ELLIPSE
  5
460
100
AcDbEntity
  8
0
100
AcDbEllipse
 62
7
  6
CONTINUOUS
 10
84.6515523085
 20
63.8955609945
 30
0.0
 11
0.0
 21
8.0
 31
0.0
 40
0.0413879109
 41
0.0000914678
 42
0.5235987756
  0
ELLIPSE
  5
461
100
AcDbEntity
  8
0
100
AcDbEllipse
 62
7
  6
CONTINUOUS
 10
60.3204490209
 20
13.8955609945
 30
0.0
 11
0.0
 21
8.0
 31
0.0
 40
0.0413879109
 41
-3.1415610859
 42
-2.617993878
  0
ELLIPSE
  5
462
100
AcDbEntity
  8
0
100
AcDbEllipse
 62
7
  6
CONTINUOUS
 10
80.3204490209
 20
13.8955609945
 30
0.0
 11
0.0
 21
8.0
 31
0.0
 40
0.0413879109
 41
-3.1416921814
 42
-2.617993878
  0
ELLIPSE
  5
463
100
AcDbEntity
  8
0
100
AcDbEllipse
 62
7
  6
CONTINUOUS
 10
64.6515523085
 20
63.8955609945
 30
0.0
 11
0.0
 21
8.0
 31
0.0
 40
0.0413879109
 41
0.0000914678
 42
0.5235987756
  0
ELLIPSE
  5
464
100
AcDbEntity
  8
0
100
AcDbEllipse
 62
7
  6
CONTINUOUS
 10
100.3204490209
 20
13.8955609945
 30
0.0
 11
0.0
 21
8.0
 31
0.0
 40
0.0413879109
 41
-3.1416921829
 42
-2.617993878
  0
ELLIPSE
  5
465
100
AcDbEntity
  8
0
100
AcDbEllipse
 62
7
  6
CONTINUOUS
 10
120.3204490209
 20
13.8955609945
 30
0.0
 11
-0.0
 21
8.0
 31
0.0
 40
0.0413879109
 41
-3.1416617748
 42
-2.617993878
  0
ELLIPSE
  5
466
100
AcDbEntity
  8
0
100
AcDbEllipse
 62
7
  6
CONTINUOUS
 10
140.3204490209
 20
13.8955609945
 30
0.0
 11
-0.0
 21
8.0
 31
0.0
 40
0.0413879109
 41
-3.1416617571
 42
-2.617993878
  0
ELLIPSE
  5
467
100
AcDbEntity
  8
0
100
AcDbEllipse
 62
7
  6
CONTINUOUS
 10
44.6515523085
 20
63.8955609945
 30
0.0
 11
-0.0
 21
8.0
 31
0.0
 40
0.0413879109
 41
0.0000914678
 42
0.5235987756
  0
ELLIPSE
  5
468
100
AcDbEntity
  8
0
100
AcDbEllipse
 62
7
  6
CONTINUOUS
 10
160.3204490209
 20
13.8955609945
 30
0.0
 11
0.0
 21
8.0
 31
0.0
 40
0.0413879109
 41
-3.1414994261
 42
-2.617993878
  0
ELLIPSE
  5
469
100
AcDbEntity
  8
0
100
AcDbEllipse
 62
7
  6
CONTINUOUS
 10
180.3204490209
 20
13.8955609945
 30
0.0
 11
0.0
 21
8.0
 31
0.0
 40
0.0413879109
 41
-3.1415002349
 42
-2.617993878
  0
ELLIPSE
  5
46A
100
AcDbEntity
  8
0
100
AcDbEllipse
 62
7
  6
CONTINUOUS
 10
200.3204490209
 20
13.8955609945
 30
0.0
 11
-0.0
 21
8.0
 31
0.0
 40
0.0413879109
 41
-3.1415011856
 42
-2.617993878
  0
ELLIPSE
  5
46B
100
AcDbEntity
  8
0
100
AcDbEllipse
 62
7
  6
CONTINUOUS
 10
24.6515523085
 20
63.8955609945
 30
0.0
 11
-0.0
 21
8.0
 31
0.0
 40
0.0413879109
 41
0.0000914678
 42
0.5235987756
  0
ENDSEC
  0
SECTION
  2
OBJECTS
  0
DICTIONARY
  5
C
100
AcDbDictionary
280
0
281
1
  3
ACAD_GROUP
350
D
  3
ACAD_MLINESTYLE
350
17
  3
ACAD_LAYOUT
350
1A
  3
ACAD_PLOTSETTINGS
350
19
  3
ACAD_PLOTSTYLENAME
350
E
  0
DICTIONARY
  5
D
102
{ACAD_REACTORS
330
C
102
}
100
AcDbDictionary
280
0
281
1
  0
ACDBDICTIONARYWDFLT
  5
E
102
{ACAD_REACTORS
330
C
102
}
100
AcDbDictionary
281
1
  3
Normal
350
F
100
AcDbDictionaryWithDefault
340
F
  0
DICTIONARY
  5
17
102
{ACAD_REACTORS
330
C
102
}
100
AcDbDictionary
280
0
281
1
  3
Standard
350
18
  0
DICTIONARY
  5
19
102
{ACAD_REACTORS
330
C
102
}
100
AcDbDictionary
281
1
  0
DICTIONARY
  5
1A
102
{ACAD_REACTORS
330
C
102
}
100
AcDbDictionary
281
1
  3
Model
350
46C
  3
Layout1
350
46D
  0
ACDBPLACEHOLDER
  5
F
102
{ACAD_REACTORS
330
E
102
}
  0
MLINESTYLE
  5
18
102
{ACAD_REACTORS
330
17
102
}
100
AcDbMlineStyle
  2
STANDARD
 70
0
  3

 62
256
 51
90.0
 52
90.0
 71
2
 49
0.5
 62
256
  6
BYLAYER
 49
-0.5
 62
256
  6
BYLAYER
  0
LAYOUT
  5
46C
102
{ACAD_REACTORS
330
1A
102
}
100
AcDbPlotSettings
  1

  2
none_device
  4
ISO_A4_(297.00_x_210.00_MM)
  6

 40
0.0
 41
0.0
 42
0.0
 43
0.0
 44
297.0
 45
210.0
 46
0.0
 47
0.0
 48
0.0
 49
0.0
140
0.0
141
0.0
142
1.0
143
1.0
 70
1024
 72
1
 73
0
 74
0
  7

 75
0
147
1.0
148
0.0
149
0.0
100
AcDbLayout
  1
Model
 70
0
 71
0
 10
0.0
 20
0.0
 11
297.0
 21
210.0
 12
0.0
 22
0.0
 32
0.0
 14
0.0
 24
0.0
 34
0.0
 15
0.0
 25
0.0
 35
0.0
146
0.0
 13
0.0
 23
0.0
 33
0.0
 16
1.0
 26
0.0
 36
0.0
 17
0.0
 27
1.0
 37
0.0
 76
0
330
20F
345
0
346
0
  0
LAYOUT
  5
46D
102
{ACAD_REACTORS
330
1A
102
}
100
AcDbPlotSettings
  1

  2
none_device
  4
ISO_A4_(297.00_x_210.00_MM)
  6

 40
0.0
 41
0.0
 42
0.0
 43
0.0
 44
297.0
 45
210.0
 46
0.0
 47
0.0
 48
0.0
 49
0.0
140
0.0
141
0.0
142
1.0
143
1.0
 70
0
 72
1
 73
0
 74
0
  7

 75
0
147
1.0
148
0.0
149
0.0
100
AcDbLayout
  1
Layout1
 70
0
 71
1
 10
0.0
 20
0.0
 11
297.0
 21
210.0
 12
0.0
 22
0.0
 32
0.0
 14
0.0
 24
0.0
 34
0.0
 15
0.0
 25
0.0
 35
0.0
146
0.0
 13
0.0
 23
0.0
 33
0.0
 16
1.0
 26
0.0
 36
0.0
 17
0.0
 27
1.0
 37
0.0
 76
0
330
210
345
0
346
0
  0
ENDSEC
  0
EOF
