  0
SECTION
  2
HEADER
  9
$ACADVER
  1
AC1018
  9
$ACADMAINTVER
 70
     0
  9
$DWGCODEPAGE
  3
ANSI_1252
  9
$INSBASE
 10
0.0
 20
0.0
 30
0.0
  9
$EXTMIN
 10
-9.37100731445314
 20
86.11025328249707
 30
0.0
  9
$EXTMAX
 10
356.7979442118175
 20
345.0175927455168
 30
0.0
  9
$LIMMIN
 10
-9.37100731445314
 20
86.11025328249707
  9
$LIMMAX
 10
356.7979442118175
 20
345.0175927455168
  9
$ORTHOMODE
 70
     1
  9
$REGENMODE
 70
     1
  9
$FILLMODE
 70
     1
  9
$QTEXTMODE
 70
     0
  9
$MIRRTEXT
 70
     0
  9
$LTSCALE
 40
1.0
  9
$ATTMODE
 70
     1
  9
$TEXTSIZE
 40
2.5
  9
$TRACEWID
 40
1.0
  9
$TEXTSTYLE
  7
Standard
  9
$CLAYER
  8
0
  9
$CELTYPE
  6
ByLayer
  9
$CECOLOR
 62
     7
  9
$CELTSCALE
 40
1.0
  9
$DISPSILH
 70
     0
  9
$DIMSCALE
 40
1.0
  9
$DIMASZ
 40
0.18
  9
$DIMEXO
 40
0.0625
  9
$DIMDLI
 40
0.38
  9
$DIMRND
 40
0.0000001
  9
$DIMDLE
 40
0.0
  9
$DIMEXE
 40
0.18
  9
$DIMTP
 40
0.0
  9
$DIMTM
 40
0.0
  9
$DIMTXT
 40
0.18
  9
$DIMCEN
 40
0.09
  9
$DIMTSZ
 40
0.0
  9
$DIMTOL
 70
     0
  9
$DIMLIM
 70
     0
  9
$DIMTIH
 70
     1
  9
$DIMTOH
 70
     1
  9
$DIMSE1
 70
     0
  9
$DIMSE2
 70
     0
  9
$DIMTAD
 70
     0
  9
$DIMZIN
 70
     0
  9
$DIMBLK
  1

  9
$DIMASO
 70
     1
  9
$DIMSHO
 70
     1
  9
$DIMPOST
  1

  9
$DIMAPOST
  1

  9
$DIMALT
 70
     0
  9
$DIMALTD
 70
     2
  9
$DIMALTF
 40
25.4
  9
$DIMLFAC
 40
1.0
  9
$DIMTOFL
 70
     0
  9
$DIMTVP
 40
0.0
  9
$DIMTIX
 70
     0
  9
$DIMSOXD
 70
     0
  9
$DIMSAH
 70
     0
  9
$DIMBLK1
  1

  9
$DIMBLK2
  1

  9
$DIMSTYLE
  2
Standard
  9
$DIMCLRD
 70
     0
  9
$DIMCLRE
 70
     0
  9
$DIMCLRT
 70
     0
  9
$DIMTFAC
 40
1.0
  9
$DIMGAP
 40
0.09
  9
$DIMJUST
 70
     0
  9
$DIMSD1
 70
     0
  9
$DIMSD2
 70
     0
  9
$DIMTOLJ
 70
     1
  9
$DIMTZIN
 70
     0
  9
$DIMALTZ
 70
     0
  9
$DIMALTTZ
 70
     0
  9
$DIMUPT
 70
     0
  9
$DIMDEC
 70
     4
  9
$DIMTDEC
 70
     4
  9
$DIMALTU
 70
     2
  9
$DIMALTTD
 70
     2
  9
$DIMTXSTY
  7
_TCW_TXTSTY_1
  9
$DIMAUNIT
 70
     0
  9
$DIMADEC
 70
     4
  9
$DIMALTRND
 40
0.0000001
  9
$DIMAZIN
 70
     0
  9
$DIMDSEP
 70
    46
  9
$DIMATFIT
 70
     3
  9
$DIMFRAC
 70
     0
  9
$DIMLDRBLK
  1

  9
$DIMLUNIT
 70
     2
  9
$DIMLWD
 70
    -2
  9
$DIMLWE
 70
    -2
  9
$DIMTMOVE
 70
     0
  9
$LUNITS
 70
     2
  9
$LUPREC
 70
     4
  9
$SKETCHINC
 40
1.0
  9
$FILLETRAD
 40
0.0
  9
$AUNITS
 70
     0
  9
$AUPREC
 70
     0
  9
$MENU
  1
.
  9
$ELEVATION
 40
0.0
  9
$PELEVATION
 40
0.0
  9
$THICKNESS
 40
0.0
  9
$LIMCHECK
 70
     0
  9
$CHAMFERA
 40
0.5
  9
$CHAMFERB
 40
0.5
  9
$CHAMFERC
 40
1.0
  9
$CHAMFERD
 40
0.0
  9
$SKPOLY
 70
     0
  9
$TDCREATE
 40
2454839.558039085
  9
$TDUCREATE
 40
2454839.516372419
  9
$TDUPDATE
 40
2454839.558039097
  9
$TDUUPDATE
 40
2454839.516372431
  9
$TDINDWG
 40
0.0
  9
$TDUSRTIMER
 40
0.0
  9
$USRTIMER
 70
     1
  9
$ANGBASE
 50
0.0
  9
$ANGDIR
 70
     0
  9
$PDMODE
 70
     0
  9
$PDSIZE
 40
0.0
  9
$PLINEWID
 40
0.0
  9
$SPLFRAME
 70
     0
  9
$SPLINETYPE
 70
     6
  9
$SPLINESEGS
 70
     8
  9
$HANDSEED
  5
437
  9
$SURFTAB1
 70
     6
  9
$SURFTAB2
 70
     6
  9
$SURFTYPE
 70
     6
  9
$SURFU
 70
     6
  9
$SURFV
 70
     6
  9
$UCSBASE
  2

  9
$UCSNAME
  2

  9
$UCSORG
 10
0.0
 20
0.0
 30
0.0
  9
$UCSXDIR
 10
1.0
 20
0.0
 30
0.0
  9
$UCSYDIR
 10
0.0
 20
1.0
 30
0.0
  9
$UCSORTHOREF
  2

  9
$UCSORTHOVIEW
 70
     0
  9
$UCSORGTOP
 10
0.0
 20
0.0
 30
0.0
  9
$UCSORGBOTTOM
 10
0.0
 20
0.0
 30
0.0
  9
$UCSORGLEFT
 10
0.0
 20
0.0
 30
0.0
  9
$UCSORGRIGHT
 10
0.0
 20
0.0
 30
0.0
  9
$UCSORGFRONT
 10
0.0
 20
0.0
 30
0.0
  9
$UCSORGBACK
 10
0.0
 20
0.0
 30
0.0
  9
$PUCSBASE
  2

  9
$PUCSNAME
  2

  9
$PUCSORG
 10
0.0
 20
0.0
 30
0.0
  9
$PUCSXDIR
 10
1.0
 20
0.0
 30
0.0
  9
$PUCSYDIR
 10
0.0
 20
1.0
 30
0.0
  9
$PUCSORTHOREF
  2

  9
$PUCSORTHOVIEW
 70
     0
  9
$PUCSORGTOP
 10
0.0
 20
0.0
 30
0.0
  9
$PUCSORGBOTTOM
 10
0.0
 20
0.0
 30
0.0
  9
$PUCSORGLEFT
 10
0.0
 20
0.0
 30
0.0
  9
$PUCSORGRIGHT
 10
0.0
 20
0.0
 30
0.0
  9
$PUCSORGFRONT
 10
0.0
 20
0.0
 30
0.0
  9
$PUCSORGBACK
 10
0.0
 20
0.0
 30
0.0
  9
$USERI1
 70
     0
  9
$USERI2
 70
     0
  9
$USERI3
 70
     0
  9
$USERI4
 70
     0
  9
$USERI5
 70
     0
  9
$USERR1
 40
0.0
  9
$USERR2
 40
0.0
  9
$USERR3
 40
0.0
  9
$USERR4
 40
0.0
  9
$USERR5
 40
0.0
  9
$WORLDVIEW
 70
     1
  9
$SHADEDGE
 70
     3
  9
$SHADEDIF
 70
    70
  9
$TILEMODE
 70
     1
  9
$MAXACTVP
 70
    64
  9
$PINSBASE
 10
0.0
 20
0.0
 30
0.0
  9
$PLIMCHECK
 70
     0
  9
$PEXTMIN
 10
-2.97407440810383
 20
-13.33206671995879
 30
0.0
  9
$PEXTMAX
 10
294.0259255918962
 20
196.6679332800412
 30
0.0
  9
$PLIMMIN
 10
-2.97407440810383
 20
-13.33206671995879
  9
$PLIMMAX
 10
294.0259255918962
 20
196.6679332800412
  9
$UNITMODE
 70
     0
  9
$VISRETAIN
 70
     1
  9
$PLINEGEN
 70
     0
  9
$PSLTSCALE
 70
     1
  9
$TREEDEPTH
 70
  3020
  9
$CMLSTYLE
  2
Standard
  9
$CMLJUST
 70
     0
  9
$CMLSCALE
 40
1.0
  9
$PROXYGRAPHICS
 70
     1
  9
$MEASUREMENT
 70
     0
  9
$CELWEIGHT
370
    -1
  9
$ENDCAPS
280
     0
  9
$JOINSTYLE
280
     0
  9
$LWDISPLAY
290
     0
  9
$INSUNITS
 70
     1
  9
$HYPERLINKBASE
  1

  9
$STYLESHEET
  1

  9
$XEDIT
290
     1
  9
$CEPSNTYPE
380
     0
  9
$PSTYLEMODE
290
     1
  9
$FINGERPRINTGUID
  2
{B43C511F-1919-4D2A-B768-20C0CFE23C3B}
  9
$VERSIONGUID
  2
{FAEB1C32-E019-11D5-929B-00C0DF256EC4}
  9
$EXTNAMES
290
     1
  9
$PSVPSCALE
 40
0.0
  9
$OLESTARTUP
290
     0
  9
$SORTENTS
280
   127
  9
$INDEXCTL
280
     0
  9
$HIDETEXT
280
     1
  9
$XCLIPFRAME
290
     0
  9
$HALOGAP
280
     0
  9
$OBSCOLOR
 70
   257
  9
$OBSLTYPE
280
     0
  9
$INTERSECTIONDISPLAY
280
     0
  9
$INTERSECTIONCOLOR
 70
   257
  9
$DIMASSOC
280
     2
  9
$PROJECTNAME
  1

  0
ENDSEC
  0
SECTION
  2
CLASSES
  0
CLASS
  1
ACDBDICTIONARYWDFLT
  2
AcDbDictionaryWithDefault
  3
ObjectDBX Classes
 90
        0
 91
        3
280
     0
281
     0
  0
CLASS
  1
VISUALSTYLE
  2
AcDbVisualStyle
  3
ObjectDBX Classes
 90
     4095
 91
        3
280
     0
281
     0
  0
CLASS
  1
TCOPTIONALDATA
  2
TcOptionalData
  3
ExTcadCustObjs|Description: TurboCAD extension data object
 90
        0
 91
        3
280
     0
281
     0
  0
ENDSEC
  0
SECTION
  2
TABLES
  0
TABLE
  2
VPORT
  5
8
330
0
100
AcDbSymbolTable
 70
     1
  0
VPORT
  5
29
330
8
100
AcDbSymbolTableRecord
100
AcDbViewportTableRecord
  2
*Active
 70
     0
 10
0.0
 20
0.0
 11
1.0
 21
1.0
 12
0.0
 22
0.0
 13
0.0
 23
0.0
 14
10.0
 24
10.0
 15
10.0
 25
10.0
 16
0.0
 26
0.0
 36
1.0
 17
226.9605626221954
 27
92.97424563035807
 37
0.0
 40
185.6177200818705
 41
1.972704714640199
 42
50.0
 43
0.0
 44
0.0
 50
0.0
 51
0.0
 71
     0
 72
   100
 73
     1
 74
     3
 75
     0
 76
     0
 77
     0
 78
     0
281
     0
 65
     1
110
0.0
120
0.0
130
0.0
111
1.0
121
0.0
131
0.0
112
0.0
122
1.0
132
0.0
 79
     0
146
0.0
  0
ENDTAB
  0
TABLE
  2
LTYPE
  5
5
330
0
100
AcDbSymbolTable
 70
    17
  0
LTYPE
  5
14
330
5
100
AcDbSymbolTableRecord
100
AcDbLinetypeTableRecord
  2
ByBlock
 70
     0
  3

 72
    65
 73
     0
 40
0.0
  0
LTYPE
  5
15
330
5
100
AcDbSymbolTableRecord
100
AcDbLinetypeTableRecord
  2
ByLayer
 70
     0
  3

 72
    65
 73
     0
 40
0.0
  0
LTYPE
  5
16
330
5
100
AcDbSymbolTableRecord
100
AcDbLinetypeTableRecord
  2
Continuous
 70
     0
  3
Solid line
 72
    65
 73
     0
 40
0.0
  0
LTYPE
  5
40
330
5
100
AcDbSymbolTableRecord
100
AcDbLinetypeTableRecord
  2
Durchgehend
 70
     0
  3
Durchgehend
 72
    65
 73
     0
 40
0.0
  0
LTYPE
  5
41
330
5
100
AcDbSymbolTableRecord
100
AcDbLinetypeTableRecord
  2
Rand
 70
     0
  3
Rand
 72
    65
 73
     6
 40
1.75
 49
0.5
 74
     0
 49
-0.25
 74
     0
 49
0.5
 74
     0
 49
-0.25
 74
     0
 49
0.0
 74
     0
 49
-0.25
 74
     0
  0
LTYPE
  5
42
330
5
100
AcDbSymbolTableRecord
100
AcDbLinetypeTableRecord
  2
Mitte
 70
     0
  3
Mitte
 72
    65
 73
     4
 40
2.0
 49
1.25
 74
     0
 49
-0.25
 74
     0
 49
0.25
 74
     0
 49
-0.25
 74
     0
  0
LTYPE
  5
43
330
5
100
AcDbSymbolTableRecord
100
AcDbLinetypeTableRecord
  2
Strichpunkt
 70
     0
  3
Strichpunkt
 72
    65
 73
     4
 40
1.0
 49
0.5
 74
     0
 49
-0.25
 74
     0
 49
0.0
 74
     0
 49
-0.25
 74
     0
  0
LTYPE
  5
44
330
5
100
AcDbSymbolTableRecord
100
AcDbLinetypeTableRecord
  2
Gestrichelt
 70
     0
  3
Gestrichelt
 72
    65
 73
     2
 40
0.75
 49
0.5
 74
     0
 49
-0.25
 74
     0
  0
LTYPE
  5
45
330
5
100
AcDbSymbolTableRecord
100
AcDbLinetypeTableRecord
  2
Teilen
 70
     0
  3
Teilen
 72
    65
 73
     6
 40
1.25
 49
0.5
 74
     0
 49
-0.25
 74
     0
 49
0.0
 74
     0
 49
-0.25
 74
     0
 49
0.0
 74
     0
 49
-0.25
 74
     0
  0
LTYPE
  5
46
330
5
100
AcDbSymbolTableRecord
100
AcDbLinetypeTableRecord
  2
Punkt
 70
     0
  3
Punkt
 72
    65
 73
     2
 40
0.25
 49
0.0
 74
     0
 49
-0.25
 74
     0
  0
LTYPE
  5
47
330
5
100
AcDbSymbolTableRecord
100
AcDbLinetypeTableRecord
  2
Verdeckt
 70
     0
  3
Verdeckt
 72
    65
 73
     2
 40
0.375
 49
0.25
 74
     0
 49
-0.125
 74
     0
  0
LTYPE
  5
48
330
5
100
AcDbSymbolTableRecord
100
AcDbLinetypeTableRecord
  2
$INVISIBLE
 70
     0
  3
$INVISIBLE
 72
    65
 73
     2
 40
200.0
 49
-100.0
 74
     0
 49
-100.0
 74
     0
  0
LTYPE
  5
49
330
5
100
AcDbSymbolTableRecord
100
AcDbLinetypeTableRecord
  2
HIDDEN
 70
     0
  3
HIDDEN
 72
    65
 73
     2
 40
9.524999999999999
 49
6.35
 74
     0
 49
-3.175
 74
     0
  0
LTYPE
  5
4A
330
5
100
AcDbSymbolTableRecord
100
AcDbLinetypeTableRecord
  2
DOT
 70
     0
  3
DOT
 72
    65
 73
     2
 40
0.25
 49
0.0
 74
     0
 49
-0.25
 74
     0
  0
LTYPE
  5
4B
330
5
100
AcDbSymbolTableRecord
100
AcDbLinetypeTableRecord
  2
CENTER
 70
     0
  3
CENTER
 72
    65
 73
     4
 40
50.8
 49
31.75
 74
     0
 49
-6.35
 74
     0
 49
6.35
 74
     0
 49
-6.35
 74
     0
  0
LTYPE
  5
4C
330
5
100
AcDbSymbolTableRecord
100
AcDbLinetypeTableRecord
  2
DASHDOT
 70
     0
  3
DASHDOT
 72
    65
 73
     4
 40
1.0
 49
0.5
 74
     0
 49
-0.25
 74
     0
 49
0.0
 74
     0
 49
-0.25
 74
     0
  0
LTYPE
  5
4D
330
5
100
AcDbSymbolTableRecord
100
AcDbLinetypeTableRecord
  2
DASHED
 70
     0
  3
DASHED
 72
    65
 73
     2
 40
0.75
 49
0.5
 74
     0
 49
-0.25
 74
     0
  0
LTYPE
  5
4E
330
5
100
AcDbSymbolTableRecord
100
AcDbLinetypeTableRecord
  2
$SNAPEXT
 70
     0
  3
$SNAPEXT
 72
    65
 73
     2
 40
0.04
 49
0.02
 74
     0
 49
-0.02
 74
     0
  0
LTYPE
  5
4F
330
5
100
AcDbSymbolTableRecord
100
AcDbLinetypeTableRecord
  2
$AUXILIARY
 70
     0
  3
$AUXILIARY
 72
    65
 73
     2
 40
0.1
 49
0.05
 74
     0
 49
-0.05
 74
     0
  0
ENDTAB
  0
TABLE
  2
LAYER
  5
2
330
0
100
AcDbSymbolTable
 70
     2
  0
LAYER
  5
10
330
2
100
AcDbSymbolTableRecord
100
AcDbLayerTableRecord
  2
0
 70
     0
 62
     7
  6
Continuous
370
     0
390
F
  0
LAYER
  5
50
330
2
100
AcDbSymbolTableRecord
100
AcDbLayerTableRecord
  2
Main lines
 70
     0
 62
     1
420
 16711680
  6
Continuous
370
    50
390
F
  0
ENDTAB
  0
TABLE
  2
STYLE
  5
3
330
0
100
AcDbSymbolTable
 70
     5
  0
STYLE
  5
11
330
3
100
AcDbSymbolTableRecord
100
AcDbTextStyleTableRecord
  2
Standard
 70
     0
 40
0.0
 41
1.0
 50
0.0
 71
     0
 42
0.2
  3
txt
  4

  0
STYLE
  5
54
330
3
100
AcDbSymbolTableRecord
100
AcDbTextStyleTableRecord
  2
ISO Proportional
 70
     0
 40
0.0
 41
1.0
 50
0.0
 71
     0
 42
2.5
  3
ISOCP.SHX
  4

  0
STYLE
  5
55
330
3
100
AcDbSymbolTableRecord
100
AcDbTextStyleTableRecord
  2

 70
     1
 40
0.0
 41
1.0
 50
0.0
 71
     0
 42
2.5
  3
LTYPESHP.SHX
  4

  0
STYLE
  5
56
330
3
100
AcDbSymbolTableRecord
100
AcDbTextStyleTableRecord
  2
YUSIMPLE
 70
     0
 40
0.0
 41
1.0
 50
0.0
 71
     0
 42
2.5
  3
YUSIMPLE.SHX
  4

  0
STYLE
  5
57
330
3
100
AcDbSymbolTableRecord
100
AcDbTextStyleTableRecord
  2
_TCW_TXTSTY_1
 70
     0
 40
0.0
 41
1.0
 50
0.0
 71
     0
 42
0.6000000238418579
  3
TXT.SHX
  4

  0
ENDTAB
  0
TABLE
  2
VIEW
  5
6
330
0
100
AcDbSymbolTable
 70
     3
  0
VIEW
  5
51
330
6
100
AcDbSymbolTableRecord
100
AcDbViewTableRecord
  2
Ansicht_0
 70
     0
 40
210.0
 10
148.5
 20
105.0
 41
297.0
 11
0.0
 21
0.0
 31
1.0
 12
0.0
 22
0.0
 32
0.0
 42
50.0
 43
0.0
 44
0.0
 50
0.0
 71
     0
281
     0
 72
     0
  0
VIEW
  5
52
330
6
100
AcDbSymbolTableRecord
100
AcDbViewTableRecord
  2
View_1
 70
     0
 40
201.3931070680139
 10
717.1860183610022
 20
392.4295019556221
 41
280.2283967588442
 11
0.0
 21
0.0
 31
1.0
 12
0.0
 22
0.0
 32
0.0
 42
50.0
 43
0.0
 44
0.0
 50
0.0
 71
     0
281
     0
 72
     0
  0
VIEW
  5
53
330
6
100
AcDbSymbolTableRecord
100
AcDbViewTableRecord
  2
View_2
 70
     0
 40
201.393107068014
 10
717.186022139866
 20
392.4295042396324
 41
280.2283967588442
 11
0.0
 21
0.0
 31
1.0
 12
0.0
 22
0.0
 32
0.0
 42
50.0
 43
0.0
 44
0.0
 50
0.0
 71
     0
281
     0
 72
     0
  0
ENDTAB
  0
TABLE
  2
UCS
  5
7
330
0
100
AcDbSymbolTable
 70
     0
  0
ENDTAB
  0
TABLE
  2
APPID
  5
9
330
0
100
AcDbSymbolTable
 70
     2
  0
APPID
  5
12
330
9
100
AcDbSymbolTableRecord
100
AcDbRegAppTableRecord
  2
ACAD
 70
     0
  0
APPID
  5
3F
330
9
100
AcDbSymbolTableRecord
100
AcDbRegAppTableRecord
  2
TCAD
 70
     0
  0
ENDTAB
  0
TABLE
  2
DIMSTYLE
  5
A
330
0
100
AcDbSymbolTable
 70
     2
100
AcDbDimStyleTable
  0
DIMSTYLE
105
27
330
A
100
AcDbSymbolTableRecord
100
AcDbDimStyleTableRecord
  2
Standard
 70
     0
 45
0.0000001
148
0.0000001
179
     4
340
57
  0
DIMSTYLE
105
58
330
A
100
AcDbSymbolTableRecord
100
AcDbDimStyleTableRecord
  2
ISO-25
 70
     0
 41
2.5
 42
0.625
 43
3.75
 44
1.25
 45
0.0000001
 73
     0
 74
     0
 77
     1
 78
     8
140
2.5
143
0.03937007874016
147
0.625
148
0.0000001
171
     3
172
     1
178
     1
179
     2
271
     2
272
     2
274
     3
283
     0
284
     8
340
57
  0
ENDTAB
  0
TABLE
  2
BLOCK_RECORD
  5
1
330
0
100
AcDbSymbolTable
 70
     2
  0
BLOCK_RECORD
  5
1F
330
1
100
AcDbSymbolTableRecord
100
AcDbBlockTableRecord
  2
*Model_Space
340
22
  0
BLOCK_RECORD
  5
1B
330
1
100
AcDbSymbolTableRecord
100
AcDbBlockTableRecord
  2
*Paper_Space
340
1E
  0
BLOCK_RECORD
  5
3B
330
1
100
AcDbSymbolTableRecord
100
AcDbBlockTableRecord
  2
*Paper_Space1
340
3C
  0
ENDTAB
  0
ENDSEC
  0
SECTION
  2
BLOCKS
  0
BLOCK
  5
20
330
1F
100
AcDbEntity
  8
0
100
AcDbBlockBegin
  2
*Model_Space
 70
     0
 71
     0
 10
0.0
 20
0.0
 30
0.0
  3
*Model_Space
  1

  0
ENDBLK
  5
21
330
1F
100
AcDbEntity
  8
0
100
AcDbBlockEnd
  0
BLOCK
  5
1C
330
1B
100
AcDbEntity
 67
     1
  8
0
100
AcDbBlockBegin
  2
*Paper_Space
 70
     0
 71
     0
 10
0.0
 20
0.0
 30
0.0
  3
*Paper_Space
  1

  0
ENDBLK
  5
1D
330
1B
100
AcDbEntity
 67
     1
  8
0
100
AcDbBlockEnd
  0
BLOCK
  5
3D
330
3B
100
AcDbEntity
  8
0
100
AcDbBlockBegin
  2
*Paper_Space1
 70
     0
 71
     0
 10
0.0
 20
0.0
 30
0.0
  3
*Paper_Space1
  1

  0
VIEWPORT
  5
435
330
3B
100
AcDbEntity
  8
0
100
AcDbViewport
 10
140.0218848823794
 20
101.9028953504165
 30
0.0
 40
280.2283957583874
 41
201.3931063490108
 68
     1
 69
     1
 12
140.0218848823794
 22
101.9028953504165
 13
0.0
 23
0.0
 14
5.0
 24
5.0
 15
5.0
 25
5.0
 16
0.0
 26
0.0
 36
1.0
 17
0.0
 27
0.0
 37
0.0
 42
50.0
 43
0.0
 44
0.0
 45
201.3931063490108
 50
0.0
 51
0.0
 72
  1000
 90
    32800
  1

281
     0
 71
     1
 74
     0
110
0.0
120
0.0
130
0.0
111
1.0
121
0.0
131
0.0
112
0.0
122
1.0
132
0.0
 79
     0
146
0.0
170
     0
  0
ENDBLK
  5
3E
330
3B
100
AcDbEntity
  8
0
100
AcDbBlockEnd
  0
ENDSEC
  0
SECTION
  2
ENTITIES
  0
LINE
  5
5B
102
{ACAD_XDICTIONARY
360
59
102
}
330
1F
100
AcDbEntity
  8
Main lines
100
AcDbLine
 10
183.3291888668002
 20
59.97424563035804
 30
0.0
 11
178.5291888668002
 21
59.97424563035804
 31
0.0
  0
LINE
  5
5E
102
{ACAD_XDICTIONARY
360
5C
102
}
330
1F
100
AcDbEntity
  8
Main lines
 48
5.0
100
AcDbLine
 10
183.5291888668002
 20
115.101964307089
 30
0.0
 11
178.3291888668002
 21
115.101964307089
 31
0.0
  0
LINE
  5
61
102
{ACAD_XDICTIONARY
360
5F
102
}
330
1F
100
AcDbEntity
  8
Main lines
 48
5.0
100
AcDbLine
 10
68.4291888668002
 20
115.101964307089
 30
0.0
 11
68.4291888668002
 21
70.84652695362706
 31
0.0
  0
LINE
  5
64
102
{ACAD_XDICTIONARY
360
62
102
}
330
1F
100
AcDbEntity
  8
Main lines
 48
5.0
100
AcDbLine
 10
103.5291888668002
 20
115.101964307089
 30
0.0
 11
98.32918886680018
 21
115.101964307089
 31
0.0
  0
LINE
  5
67
102
{ACAD_XDICTIONARY
360
65
102
}
330
1F
100
AcDbEntity
  8
Main lines
 48
5.0
100
AcDbLine
 10
73.52918886680015
 20
125.974245630358
 30
0.0
 11
73.5291888668002
 21
115.101964307089
 31
0.0
  0
LINE
  5
6A
102
{ACAD_XDICTIONARY
360
68
102
}
330
1F
100
AcDbEntity
  8
Main lines
100
AcDbLine
 10
93.5291888668002
 20
115.101964307089
 30
0.0
 11
93.52918886680017
 21
125.974245630358
 31
0.0
  0
LINE
  5
6D
102
{ACAD_XDICTIONARY
360
6B
102
}
330
1F
100
AcDbEntity
  8
Main lines
100
AcDbLine
 10
98.32918886680021
 20
115.101964307089
 30
0.0
 11
98.32918886680015
 21
125.974245630358
 31
0.0
  0
LINE
  5
70
102
{ACAD_XDICTIONARY
360
6E
102
}
330
1F
100
AcDbEntity
  8
Main lines
100
AcDbLine
 10
88.32918886680021
 20
115.101964307089
 30
0.0
 11
88.32918886680015
 21
125.974245630358
 31
0.0
  0
LINE
  5
73
102
{ACAD_XDICTIONARY
360
71
102
}
330
1F
100
AcDbEntity
  8
Main lines
100
AcDbLine
 10
83.5291888668002
 20
115.101964307089
 30
0.0
 11
83.52918886680017
 21
125.974245630358
 31
0.0
  0
LINE
  5
76
102
{ACAD_XDICTIONARY
360
74
102
}
330
1F
100
AcDbEntity
  8
Main lines
100
AcDbLine
 10
78.32918886680018
 20
115.101964307089
 30
0.0
 11
78.32918886680014
 21
125.974245630358
 31
0.0
  0
LINE
  5
79
102
{ACAD_XDICTIONARY
360
77
102
}
330
1F
100
AcDbEntity
  8
Main lines
100
AcDbLine
 10
73.52918886680015
 20
125.974245630358
 30
0.0
 11
78.32918886680014
 21
125.974245630358
 31
0.0
  0
LINE
  5
7C
102
{ACAD_XDICTIONARY
360
7A
102
}
330
1F
100
AcDbEntity
  8
Main lines
100
AcDbLine
 10
73.52918886680015
 20
125.9742456303582
 30
0.0
 11
78.32918886680014
 21
125.9742456303582
 31
0.0
  0
LINE
  5
7F
102
{ACAD_XDICTIONARY
360
7D
102
}
330
1F
100
AcDbEntity
  8
Main lines
100
AcDbLine
 10
83.52918886680017
 20
125.974245630358
 30
0.0
 11
88.32918886680015
 21
125.974245630358
 31
0.0
  0
LINE
  5
82
102
{ACAD_XDICTIONARY
360
80
102
}
330
1F
100
AcDbEntity
  8
Main lines
100
AcDbLine
 10
93.52918886680017
 20
125.974245630358
 30
0.0
 11
98.32918886680015
 21
125.974245630358
 31
0.0
  0
LINE
  5
85
102
{ACAD_XDICTIONARY
360
83
102
}
330
1F
100
AcDbEntity
  8
Main lines
 48
5.0
100
AcDbLine
 10
83.5291888668002
 20
115.101964307089
 30
0.0
 11
78.32918886680018
 21
115.101964307089
 31
0.0
  0
LINE
  5
88
102
{ACAD_XDICTIONARY
360
86
102
}
330
1F
100
AcDbEntity
  8
Main lines
 48
5.0
100
AcDbLine
 10
73.5291888668002
 20
115.101964307089
 30
0.0
 11
68.4291888668002
 21
115.101964307089
 31
0.0
  0
LINE
  5
8B
102
{ACAD_XDICTIONARY
360
89
102
}
330
1F
100
AcDbEntity
  8
Main lines
 48
5.0
100
AcDbLine
 10
73.5291888668002
 20
115.101964307089
 30
0.0
 11
73.52515842386303
 21
115.101964307089
 31
0.0
  0
LINE
  5
8E
102
{ACAD_XDICTIONARY
360
8C
102
}
330
1F
100
AcDbEntity
  8
Main lines
 48
5.0
100
AcDbLine
 10
93.52918886680017
 20
115.101964307089
 30
0.0
 11
88.32918886680021
 21
115.101964307089
 31
0.0
  0
LINE
  5
91
102
{ACAD_XDICTIONARY
360
8F
102
}
330
1F
100
AcDbEntity
  8
Main lines
 48
5.0
100
AcDbLine
 10
143.5291888668002
 20
115.101964307089
 30
0.0
 11
138.3291888668002
 21
115.101964307089
 31
0.0
  0
LINE
  5
94
102
{ACAD_XDICTIONARY
360
92
102
}
330
1F
100
AcDbEntity
  8
Main lines
100
AcDbLine
 10
103.5291888668002
 20
115.101964307089
 30
0.0
 11
103.5291888668002
 21
125.974245630358
 31
0.0
  0
LINE
  5
97
102
{ACAD_XDICTIONARY
360
95
102
}
330
1F
100
AcDbEntity
  8
Main lines
100
AcDbLine
 10
108.3291888668002
 20
115.101964307089
 30
0.0
 11
108.3291888668002
 21
125.974245630358
 31
0.0
  0
LINE
  5
9A
102
{ACAD_XDICTIONARY
360
98
102
}
330
1F
100
AcDbEntity
  8
Main lines
100
AcDbLine
 10
113.5291888668002
 20
115.101964307089
 30
0.0
 11
113.5291888668002
 21
125.974245630358
 31
0.0
  0
LINE
  5
9D
102
{ACAD_XDICTIONARY
360
9B
102
}
330
1F
100
AcDbEntity
  8
Main lines
100
AcDbLine
 10
118.3291888668002
 20
115.101964307089
 30
0.0
 11
118.3291888668002
 21
125.974245630358
 31
0.0
  0
LINE
  5
A0
102
{ACAD_XDICTIONARY
360
9E
102
}
330
1F
100
AcDbEntity
  8
Main lines
100
AcDbLine
 10
123.5291888668002
 20
115.101964307089
 30
0.0
 11
123.5291888668002
 21
125.974245630358
 31
0.0
  0
LINE
  5
A3
102
{ACAD_XDICTIONARY
360
A1
102
}
330
1F
100
AcDbEntity
  8
Main lines
100
AcDbLine
 10
128.3291888668002
 20
115.101964307089
 30
0.0
 11
128.3291888668001
 21
125.974245630358
 31
0.0
  0
LINE
  5
A6
102
{ACAD_XDICTIONARY
360
A4
102
}
330
1F
100
AcDbEntity
  8
Main lines
100
AcDbLine
 10
133.5291888668002
 20
115.101964307089
 30
0.0
 11
133.5291888668002
 21
125.974245630358
 31
0.0
  0
LINE
  5
A9
102
{ACAD_XDICTIONARY
360
A7
102
}
330
1F
100
AcDbEntity
  8
Main lines
100
AcDbLine
 10
138.3291888668002
 20
115.101964307089
 30
0.0
 11
138.3291888668001
 21
125.974245630358
 31
0.0
  0
LINE
  5
AC
102
{ACAD_XDICTIONARY
360
AA
102
}
330
1F
100
AcDbEntity
  8
Main lines
100
AcDbLine
 10
103.5291888668002
 20
125.974245630358
 30
0.0
 11
108.3291888668002
 21
125.974245630358
 31
0.0
  0
LINE
  5
AF
102
{ACAD_XDICTIONARY
360
AD
102
}
330
1F
100
AcDbEntity
  8
Main lines
100
AcDbLine
 10
113.5291888668002
 20
125.974245630358
 30
0.0
 11
118.3291888668002
 21
125.974245630358
 31
0.0
  0
LINE
  5
B2
102
{ACAD_XDICTIONARY
360
B0
102
}
330
1F
100
AcDbEntity
  8
Main lines
100
AcDbLine
 10
123.5291888668002
 20
125.974245630358
 30
0.0
 11
128.3291888668001
 21
125.974245630358
 31
0.0
  0
LINE
  5
B5
102
{ACAD_XDICTIONARY
360
B3
102
}
330
1F
100
AcDbEntity
  8
Main lines
100
AcDbLine
 10
133.5291888668002
 20
125.974245630358
 30
0.0
 11
138.3291888668001
 21
125.974245630358
 31
0.0
  0
LINE
  5
B8
102
{ACAD_XDICTIONARY
360
B6
102
}
330
1F
100
AcDbEntity
  8
Main lines
 48
5.0
100
AcDbLine
 10
123.5291888668002
 20
115.101964307089
 30
0.0
 11
118.3291888668002
 21
115.101964307089
 31
0.0
  0
LINE
  5
BB
102
{ACAD_XDICTIONARY
360
B9
102
}
330
1F
100
AcDbEntity
  8
Main lines
 48
5.0
100
AcDbLine
 10
113.525158423863
 20
115.101964307089
 30
0.0
 11
108.3291888668002
 21
115.101964307089
 31
0.0
  0
LINE
  5
BE
102
{ACAD_XDICTIONARY
360
BC
102
}
330
1F
100
AcDbEntity
  8
Main lines
 48
5.0
100
AcDbLine
 10
113.5291888668002
 20
115.101964307089
 30
0.0
 11
113.525158423863
 21
115.101964307089
 31
0.0
  0
LINE
  5
C1
102
{ACAD_XDICTIONARY
360
BF
102
}
330
1F
100
AcDbEntity
  8
Main lines
 48
5.0
100
AcDbLine
 10
133.5291888668002
 20
115.101964307089
 30
0.0
 11
128.3291888668002
 21
115.101964307089
 31
0.0
  0
LINE
  5
C4
102
{ACAD_XDICTIONARY
360
C2
102
}
330
1F
100
AcDbEntity
  8
Main lines
100
AcDbLine
 10
143.5291888668002
 20
115.101964307089
 30
0.0
 11
143.5291888668002
 21
125.974245630358
 31
0.0
  0
LINE
  5
C7
102
{ACAD_XDICTIONARY
360
C5
102
}
330
1F
100
AcDbEntity
  8
Main lines
100
AcDbLine
 10
148.3291888668002
 20
115.101964307089
 30
0.0
 11
148.3291888668001
 21
125.974245630358
 31
0.0
  0
LINE
  5
CA
102
{ACAD_XDICTIONARY
360
C8
102
}
330
1F
100
AcDbEntity
  8
Main lines
100
AcDbLine
 10
153.5291888668002
 20
115.101964307089
 30
0.0
 11
153.5291888668002
 21
125.974245630358
 31
0.0
  0
LINE
  5
CD
102
{ACAD_XDICTIONARY
360
CB
102
}
330
1F
100
AcDbEntity
  8
Main lines
100
AcDbLine
 10
158.3291888668002
 20
115.101964307089
 30
0.0
 11
158.3291888668001
 21
125.974245630358
 31
0.0
  0
LINE
  5
D0
102
{ACAD_XDICTIONARY
360
CE
102
}
330
1F
100
AcDbEntity
  8
Main lines
100
AcDbLine
 10
163.5291888668002
 20
115.101964307089
 30
0.0
 11
163.5291888668002
 21
125.974245630358
 31
0.0
  0
LINE
  5
D3
102
{ACAD_XDICTIONARY
360
D1
102
}
330
1F
100
AcDbEntity
  8
Main lines
100
AcDbLine
 10
168.3291888668002
 20
115.101964307089
 30
0.0
 11
168.3291888668001
 21
125.974245630358
 31
0.0
  0
LINE
  5
D6
102
{ACAD_XDICTIONARY
360
D4
102
}
330
1F
100
AcDbEntity
  8
Main lines
100
AcDbLine
 10
178.3291888668002
 20
115.101964307089
 30
0.0
 11
178.3291888668002
 21
125.974245630358
 31
0.0
  0
LINE
  5
D9
102
{ACAD_XDICTIONARY
360
D7
102
}
330
1F
100
AcDbEntity
  8
Main lines
100
AcDbLine
 10
173.5291888668002
 20
115.101964307089
 30
0.0
 11
173.5291888668002
 21
125.974245630358
 31
0.0
  0
LINE
  5
DC
102
{ACAD_XDICTIONARY
360
DA
102
}
330
1F
100
AcDbEntity
  8
Main lines
100
AcDbLine
 10
143.5291888668002
 20
125.974245630358
 30
0.0
 11
148.3291888668001
 21
125.974245630358
 31
0.0
  0
LINE
  5
DF
102
{ACAD_XDICTIONARY
360
DD
102
}
330
1F
100
AcDbEntity
  8
Main lines
100
AcDbLine
 10
153.5291888668002
 20
125.974245630358
 30
0.0
 11
158.3291888668001
 21
125.974245630358
 31
0.0
  0
LINE
  5
E2
102
{ACAD_XDICTIONARY
360
E0
102
}
330
1F
100
AcDbEntity
  8
Main lines
100
AcDbLine
 10
163.5291888668002
 20
125.974245630358
 30
0.0
 11
168.3291888668001
 21
125.974245630358
 31
0.0
  0
LINE
  5
E5
102
{ACAD_XDICTIONARY
360
E3
102
}
330
1F
100
AcDbEntity
  8
Main lines
100
AcDbLine
 10
173.5291888668002
 20
125.974245630358
 30
0.0
 11
178.3291888668002
 21
125.974245630358
 31
0.0
  0
LINE
  5
E8
102
{ACAD_XDICTIONARY
360
E6
102
}
330
1F
100
AcDbEntity
  8
Main lines
 48
5.0
100
AcDbLine
 10
163.5291888668002
 20
115.101964307089
 30
0.0
 11
158.3291888668002
 21
115.101964307089
 31
0.0
  0
LINE
  5
EB
102
{ACAD_XDICTIONARY
360
E9
102
}
330
1F
100
AcDbEntity
  8
Main lines
 48
5.0
100
AcDbLine
 10
153.525158423863
 20
115.101964307089
 30
0.0
 11
148.3291888668002
 21
115.101964307089
 31
0.0
  0
LINE
  5
EE
102
{ACAD_XDICTIONARY
360
EC
102
}
330
1F
100
AcDbEntity
  8
Main lines
 48
5.0
100
AcDbLine
 10
153.5291888668002
 20
115.101964307089
 30
0.0
 11
153.525158423863
 21
115.101964307089
 31
0.0
  0
LINE
  5
F1
102
{ACAD_XDICTIONARY
360
EF
102
}
330
1F
100
AcDbEntity
  8
Main lines
 48
5.0
100
AcDbLine
 10
173.5291888668002
 20
115.101964307089
 30
0.0
 11
168.3291888668002
 21
115.101964307089
 31
0.0
  0
LINE
  5
F4
102
{ACAD_XDICTIONARY
360
F2
102
}
330
1F
100
AcDbEntity
  8
Main lines
100
AcDbLine
 10
103.3291888668002
 20
59.97424563035804
 30
0.0
 11
98.52918886680017
 21
59.97424563035804
 31
0.0
  0
LINE
  5
F7
102
{ACAD_XDICTIONARY
360
F5
102
}
330
1F
100
AcDbEntity
  8
Main lines
 48
5.0
100
AcDbLine
 10
73.32918886680021
 20
70.84652695362706
 30
0.0
 11
73.32918886680018
 21
59.97424563035815
 31
0.0
  0
LINE
  5
FA
102
{ACAD_XDICTIONARY
360
F8
102
}
330
1F
100
AcDbEntity
  8
Main lines
 48
5.0
100
AcDbLine
 10
68.52918886680014
 20
70.84652695362706
 30
0.0
 11
68.52918886680017
 21
59.97424563035815
 31
0.0
  0
LINE
  5
FD
102
{ACAD_XDICTIONARY
360
FB
102
}
330
1F
100
AcDbEntity
  8
Main lines
100
AcDbLine
 10
98.52918886680014
 20
70.84652695362706
 30
0.0
 11
98.52918886680014
 21
59.97424563035804
 31
0.0
  0
LINE
  5
100
102
{ACAD_XDICTIONARY
360
FE
102
}
330
1F
100
AcDbEntity
  8
Main lines
100
AcDbLine
 10
93.32918886680018
 20
59.97424563035804
 30
0.0
 11
93.32918886680021
 21
70.84652695362706
 31
0.0
  0
LINE
  5
103
102
{ACAD_XDICTIONARY
360
101
102
}
330
1F
100
AcDbEntity
  8
Main lines
100
AcDbLine
 10
88.52918886680014
 20
70.84652695362706
 30
0.0
 11
88.52918886680014
 21
59.97424563035804
 31
0.0
  0
LINE
  5
106
102
{ACAD_XDICTIONARY
360
104
102
}
330
1F
100
AcDbEntity
  8
Main lines
100
AcDbLine
 10
83.32918886680018
 20
59.97424563035804
 30
0.0
 11
83.32918886680021
 21
70.84652695362706
 31
0.0
  0
LINE
  5
109
102
{ACAD_XDICTIONARY
360
107
102
}
330
1F
100
AcDbEntity
  8
Main lines
100
AcDbLine
 10
78.52918886680014
 20
70.84652695362706
 30
0.0
 11
78.52918886680014
 21
59.97424563035804
 31
0.0
  0
LINE
  5
10C
102
{ACAD_XDICTIONARY
360
10A
102
}
330
1F
100
AcDbEntity
  8
Main lines
 48
5.0
100
AcDbLine
 10
68.52918886680014
 20
70.84652695362706
 30
0.0
 11
68.42918886680015
 21
70.84652695362706
 31
0.0
  0
LINE
  5
10F
102
{ACAD_XDICTIONARY
360
10D
102
}
330
1F
100
AcDbEntity
  8
Main lines
 48
5.0
100
AcDbLine
 10
78.52918886680014
 20
70.84652695362706
 30
0.0
 11
73.32918886680021
 21
70.84652695362706
 31
0.0
  0
LINE
  5
112
102
{ACAD_XDICTIONARY
360
110
102
}
330
1F
100
AcDbEntity
  8
Main lines
 48
5.0
100
AcDbLine
 10
88.52918886680014
 20
70.84652695362706
 30
0.0
 11
83.32918886680018
 21
70.84652695362706
 31
0.0
  0
LINE
  5
115
102
{ACAD_XDICTIONARY
360
113
102
}
330
1F
100
AcDbEntity
  8
Main lines
 48
5.0
100
AcDbLine
 10
98.52918886680014
 20
70.84652695362706
 30
0.0
 11
93.32918886680021
 21
70.84652695362706
 31
0.0
  0
LINE
  5
118
102
{ACAD_XDICTIONARY
360
116
102
}
330
1F
100
AcDbEntity
  8
Main lines
100
AcDbLine
 10
83.32918886680018
 20
59.97424563035804
 30
0.0
 11
78.52918886680017
 21
59.97424563035804
 31
0.0
  0
LINE
  5
11B
102
{ACAD_XDICTIONARY
360
119
102
}
330
1F
100
AcDbEntity
  8
Main lines
100
AcDbLine
 10
73.32918886680018
 20
59.97424563035815
 30
0.0
 11
68.52918886680017
 21
59.97424563035815
 31
0.0
  0
LINE
  5
11E
102
{ACAD_XDICTIONARY
360
11C
102
}
330
1F
100
AcDbEntity
  8
Main lines
100
AcDbLine
 10
93.32918886680018
 20
59.97424563035804
 30
0.0
 11
88.52918886680017
 21
59.97424563035804
 31
0.0
  0
LINE
  5
121
102
{ACAD_XDICTIONARY
360
11F
102
}
330
1F
100
AcDbEntity
  8
Main lines
100
AcDbLine
 10
143.3291888668002
 20
59.97424563035804
 30
0.0
 11
138.5291888668002
 21
59.97424563035804
 31
0.0
  0
LINE
  5
124
102
{ACAD_XDICTIONARY
360
122
102
}
330
1F
100
AcDbEntity
  8
Main lines
100
AcDbLine
 10
133.3291888668002
 20
59.97424563035804
 30
0.0
 11
133.3291888668002
 21
70.84652695362706
 31
0.0
  0
LINE
  5
127
102
{ACAD_XDICTIONARY
360
125
102
}
330
1F
100
AcDbEntity
  8
Main lines
100
AcDbLine
 10
103.3291888668002
 20
59.97424563035804
 30
0.0
 11
103.3291888668002
 21
70.84652695362706
 31
0.0
  0
LINE
  5
12A
102
{ACAD_XDICTIONARY
360
128
102
}
330
1F
100
AcDbEntity
  8
Main lines
100
AcDbLine
 10
108.5291888668001
 20
70.84652695362706
 30
0.0
 11
108.5291888668001
 21
59.97424563035804
 31
0.0
  0
LINE
  5
12D
102
{ACAD_XDICTIONARY
360
12B
102
}
330
1F
100
AcDbEntity
  8
Main lines
100
AcDbLine
 10
113.3291888668002
 20
59.97424563035804
 30
0.0
 11
113.3291888668002
 21
70.84652695362706
 31
0.0
  0
LINE
  5
130
102
{ACAD_XDICTIONARY
360
12E
102
}
330
1F
100
AcDbEntity
  8
Main lines
100
AcDbLine
 10
118.5291888668001
 20
70.84652695362706
 30
0.0
 11
118.5291888668001
 21
59.97424563035804
 31
0.0
  0
LINE
  5
133
102
{ACAD_XDICTIONARY
360
131
102
}
330
1F
100
AcDbEntity
  8
Main lines
100
AcDbLine
 10
123.3291888668002
 20
59.97424563035804
 30
0.0
 11
123.3291888668002
 21
70.84652695362706
 31
0.0
  0
LINE
  5
136
102
{ACAD_XDICTIONARY
360
134
102
}
330
1F
100
AcDbEntity
  8
Main lines
100
AcDbLine
 10
128.5291888668002
 20
70.84652695362706
 30
0.0
 11
128.5291888668002
 21
59.97424563035804
 31
0.0
  0
LINE
  5
139
102
{ACAD_XDICTIONARY
360
137
102
}
330
1F
100
AcDbEntity
  8
Main lines
100
AcDbLine
 10
138.5291888668002
 20
70.84652695362706
 30
0.0
 11
138.5291888668002
 21
59.97424563035804
 31
0.0
  0
LINE
  5
13C
102
{ACAD_XDICTIONARY
360
13A
102
}
330
1F
100
AcDbEntity
  8
Main lines
 48
5.0
100
AcDbLine
 10
108.5291888668001
 20
70.84652695362706
 30
0.0
 11
103.3291888668002
 21
70.84652695362706
 31
0.0
  0
LINE
  5
13F
102
{ACAD_XDICTIONARY
360
13D
102
}
330
1F
100
AcDbEntity
  8
Main lines
 48
5.0
100
AcDbLine
 10
118.5291888668001
 20
70.84652695362706
 30
0.0
 11
113.3291888668002
 21
70.84652695362706
 31
0.0
  0
LINE
  5
142
102
{ACAD_XDICTIONARY
360
140
102
}
330
1F
100
AcDbEntity
  8
Main lines
 48
5.0
100
AcDbLine
 10
128.5291888668002
 20
70.84652695362706
 30
0.0
 11
123.3291888668002
 21
70.84652695362706
 31
0.0
  0
LINE
  5
145
102
{ACAD_XDICTIONARY
360
143
102
}
330
1F
100
AcDbEntity
  8
Main lines
 48
5.0
100
AcDbLine
 10
138.5291888668002
 20
70.84652695362706
 30
0.0
 11
133.3291888668002
 21
70.84652695362706
 31
0.0
  0
LINE
  5
148
102
{ACAD_XDICTIONARY
360
146
102
}
330
1F
100
AcDbEntity
  8
Main lines
100
AcDbLine
 10
123.3291888668002
 20
59.97424563035804
 30
0.0
 11
118.5291888668002
 21
59.97424563035804
 31
0.0
  0
LINE
  5
14B
102
{ACAD_XDICTIONARY
360
149
102
}
330
1F
100
AcDbEntity
  8
Main lines
100
AcDbLine
 10
113.3291888668002
 20
59.97424563035804
 30
0.0
 11
108.5291888668002
 21
59.97424563035804
 31
0.0
  0
LINE
  5
14E
102
{ACAD_XDICTIONARY
360
14C
102
}
330
1F
100
AcDbEntity
  8
Main lines
100
AcDbLine
 10
133.3291888668002
 20
59.97424563035804
 30
0.0
 11
128.5291888668002
 21
59.97424563035804
 31
0.0
  0
LINE
  5
151
102
{ACAD_XDICTIONARY
360
14F
102
}
330
1F
100
AcDbEntity
  8
Main lines
100
AcDbLine
 10
173.3291888668002
 20
59.97424563035804
 30
0.0
 11
173.3291888668002
 21
70.84652695362706
 31
0.0
  0
LINE
  5
154
102
{ACAD_XDICTIONARY
360
152
102
}
330
1F
100
AcDbEntity
  8
Main lines
100
AcDbLine
 10
143.3291888668002
 20
59.97424563035804
 30
0.0
 11
143.3291888668002
 21
70.84652695362706
 31
0.0
  0
LINE
  5
157
102
{ACAD_XDICTIONARY
360
155
102
}
330
1F
100
AcDbEntity
  8
Main lines
100
AcDbLine
 10
148.5291888668002
 20
70.84652695362706
 30
0.0
 11
148.5291888668002
 21
59.97424563035804
 31
0.0
  0
LINE
  5
15A
102
{ACAD_XDICTIONARY
360
158
102
}
330
1F
100
AcDbEntity
  8
Main lines
100
AcDbLine
 10
153.3291888668002
 20
59.97424563035804
 30
0.0
 11
153.3291888668002
 21
70.84652695362706
 31
0.0
  0
LINE
  5
15D
102
{ACAD_XDICTIONARY
360
15B
102
}
330
1F
100
AcDbEntity
  8
Main lines
100
AcDbLine
 10
158.5291888668002
 20
70.84652695362706
 30
0.0
 11
158.5291888668002
 21
59.97424563035804
 31
0.0
  0
LINE
  5
160
102
{ACAD_XDICTIONARY
360
15E
102
}
330
1F
100
AcDbEntity
  8
Main lines
100
AcDbLine
 10
163.3291888668002
 20
59.97424563035804
 30
0.0
 11
163.3291888668002
 21
70.84652695362706
 31
0.0
  0
LINE
  5
163
102
{ACAD_XDICTIONARY
360
161
102
}
330
1F
100
AcDbEntity
  8
Main lines
100
AcDbLine
 10
168.5291888668002
 20
70.84652695362706
 30
0.0
 11
168.5291888668002
 21
59.97424563035804
 31
0.0
  0
LINE
  5
166
102
{ACAD_XDICTIONARY
360
164
102
}
330
1F
100
AcDbEntity
  8
Main lines
100
AcDbLine
 10
178.5291888668002
 20
70.84652695362706
 30
0.0
 11
178.5291888668002
 21
59.97424563035804
 31
0.0
  0
LINE
  5
169
102
{ACAD_XDICTIONARY
360
167
102
}
330
1F
100
AcDbEntity
  8
Main lines
 48
5.0
100
AcDbLine
 10
148.5291888668002
 20
70.84652695362706
 30
0.0
 11
143.3291888668002
 21
70.84652695362706
 31
0.0
  0
LINE
  5
16C
102
{ACAD_XDICTIONARY
360
16A
102
}
330
1F
100
AcDbEntity
  8
Main lines
 48
5.0
100
AcDbLine
 10
158.5291888668002
 20
70.84652695362706
 30
0.0
 11
153.3291888668002
 21
70.84652695362706
 31
0.0
  0
LINE
  5
16F
102
{ACAD_XDICTIONARY
360
16D
102
}
330
1F
100
AcDbEntity
  8
Main lines
 48
5.0
100
AcDbLine
 10
168.5291888668002
 20
70.84652695362706
 30
0.0
 11
163.3291888668002
 21
70.84652695362706
 31
0.0
  0
LINE
  5
172
102
{ACAD_XDICTIONARY
360
170
102
}
330
1F
100
AcDbEntity
  8
Main lines
 48
5.0
100
AcDbLine
 10
178.5291888668002
 20
70.84652695362706
 30
0.0
 11
173.3291888668002
 21
70.84652695362706
 31
0.0
  0
LINE
  5
175
102
{ACAD_XDICTIONARY
360
173
102
}
330
1F
100
AcDbEntity
  8
Main lines
100
AcDbLine
 10
163.3291888668002
 20
59.97424563035804
 30
0.0
 11
158.5291888668002
 21
59.97424563035804
 31
0.0
  0
LINE
  5
178
102
{ACAD_XDICTIONARY
360
176
102
}
330
1F
100
AcDbEntity
  8
Main lines
100
AcDbLine
 10
153.3291888668002
 20
59.97424563035804
 30
0.0
 11
148.5291888668002
 21
59.97424563035804
 31
0.0
  0
LINE
  5
17B
102
{ACAD_XDICTIONARY
360
179
102
}
330
1F
100
AcDbEntity
  8
Main lines
100
AcDbLine
 10
173.3291888668002
 20
59.97424563035804
 30
0.0
 11
168.5291888668002
 21
59.97424563035804
 31
0.0
  0
LINE
  5
17E
102
{ACAD_XDICTIONARY
360
17C
102
}
330
1F
100
AcDbEntity
  8
Main lines
100
AcDbLine
 10
268.4291888668002
 20
101.3075789636914
 30
0.0
 11
268.4291888668001
 21
89.09800902772895
 31
0.0
  0
LINE
  5
181
102
{ACAD_XDICTIONARY
360
17F
102
}
330
1F
100
AcDbEntity
  8
Main lines
100
AcDbLine
 10
253.5291888668002
 20
125.974245630358
 30
0.0
 11
258.3291888668001
 21
125.974245630358
 31
0.0
  0
LINE
  5
184
102
{ACAD_XDICTIONARY
360
182
102
}
330
1F
100
AcDbEntity
  8
Main lines
100
AcDbLine
 10
213.5291888668002
 20
125.974245630358
 30
0.0
 11
218.3291888668002
 21
125.974245630358
 31
0.0
  0
LINE
  5
187
102
{ACAD_XDICTIONARY
360
185
102
}
330
1F
100
AcDbEntity
  8
Main lines
100
AcDbLine
 10
208.3291888668002
 20
115.101964307089
 30
0.0
 11
208.3291888668002
 21
125.974245630358
 31
0.0
  0
LINE
  5
18A
102
{ACAD_XDICTIONARY
360
188
102
}
330
1F
100
AcDbEntity
  8
Main lines
100
AcDbLine
 10
203.5291888668002
 20
115.101964307089
 30
0.0
 11
203.5291888668002
 21
125.974245630358
 31
0.0
  0
LINE
  5
18D
102
{ACAD_XDICTIONARY
360
18B
102
}
330
1F
100
AcDbEntity
  8
Main lines
100
AcDbLine
 10
198.3291888668002
 20
115.101964307089
 30
0.0
 11
198.3291888668002
 21
125.974245630358
 31
0.0
  0
LINE
  5
190
102
{ACAD_XDICTIONARY
360
18E
102
}
330
1F
100
AcDbEntity
  8
Main lines
100
AcDbLine
 10
193.5291888668002
 20
115.101964307089
 30
0.0
 11
193.5291888668002
 21
125.974245630358
 31
0.0
  0
LINE
  5
193
102
{ACAD_XDICTIONARY
360
191
102
}
330
1F
100
AcDbEntity
  8
Main lines
100
AcDbLine
 10
188.3291888668002
 20
115.101964307089
 30
0.0
 11
188.3291888668002
 21
125.974245630358
 31
0.0
  0
LINE
  5
196
102
{ACAD_XDICTIONARY
360
194
102
}
330
1F
100
AcDbEntity
  8
Main lines
100
AcDbLine
 10
183.5291888668002
 20
115.101964307089
 30
0.0
 11
183.5291888668002
 21
125.974245630358
 31
0.0
  0
LINE
  5
199
102
{ACAD_XDICTIONARY
360
197
102
}
330
1F
100
AcDbEntity
  8
Main lines
100
AcDbLine
 10
213.5291888668002
 20
115.101964307089
 30
0.0
 11
213.5291888668002
 21
125.974245630358
 31
0.0
  0
LINE
  5
19C
102
{ACAD_XDICTIONARY
360
19A
102
}
330
1F
100
AcDbEntity
  8
Main lines
100
AcDbLine
 10
193.5291888668002
 20
125.974245630358
 30
0.0
 11
198.3291888668002
 21
125.974245630358
 31
0.0
  0
LINE
  5
19F
102
{ACAD_XDICTIONARY
360
19D
102
}
330
1F
100
AcDbEntity
  8
Main lines
100
AcDbLine
 10
183.5291888668002
 20
125.974245630358
 30
0.0
 11
188.3291888668002
 21
125.974245630358
 31
0.0
  0
LINE
  5
1A2
102
{ACAD_XDICTIONARY
360
1A0
102
}
330
1F
100
AcDbEntity
  8
Main lines
100
AcDbLine
 10
203.5291888668002
 20
125.974245630358
 30
0.0
 11
208.3291888668002
 21
125.974245630358
 31
0.0
  0
LINE
  5
1A5
102
{ACAD_XDICTIONARY
360
1A3
102
}
330
1F
100
AcDbEntity
  8
Main lines
 48
5.0
100
AcDbLine
 10
193.525158423863
 20
115.101964307089
 30
0.0
 11
188.3291888668002
 21
115.101964307089
 31
0.0
  0
LINE
  5
1A8
102
{ACAD_XDICTIONARY
360
1A6
102
}
330
1F
100
AcDbEntity
  8
Main lines
 48
5.0
100
AcDbLine
 10
193.5291888668002
 20
115.101964307089
 30
0.0
 11
193.525158423863
 21
115.101964307089
 31
0.0
  0
LINE
  5
1AB
102
{ACAD_XDICTIONARY
360
1A9
102
}
330
1F
100
AcDbEntity
  8
Main lines
 48
5.0
100
AcDbLine
 10
203.5291888668002
 20
115.101964307089
 30
0.0
 11
198.3291888668002
 21
115.101964307089
 31
0.0
  0
LINE
  5
1AE
102
{ACAD_XDICTIONARY
360
1AC
102
}
330
1F
100
AcDbEntity
  8
Main lines
 48
5.0
100
AcDbLine
 10
213.5291888668002
 20
115.101964307089
 30
0.0
 11
208.3291888668002
 21
115.101964307089
 31
0.0
  0
LINE
  5
1B1
102
{ACAD_XDICTIONARY
360
1AF
102
}
330
1F
100
AcDbEntity
  8
Main lines
100
AcDbLine
 10
218.3291888668002
 20
115.101964307089
 30
0.0
 11
218.3291888668002
 21
125.974245630358
 31
0.0
  0
LINE
  5
1B4
102
{ACAD_XDICTIONARY
360
1B2
102
}
330
1F
100
AcDbEntity
  8
Main lines
100
AcDbLine
 10
223.5291888668002
 20
115.101964307089
 30
0.0
 11
223.5291888668002
 21
125.974245630358
 31
0.0
  0
LINE
  5
1B7
102
{ACAD_XDICTIONARY
360
1B5
102
}
330
1F
100
AcDbEntity
  8
Main lines
100
AcDbLine
 10
228.3291888668002
 20
115.101964307089
 30
0.0
 11
228.3291888668002
 21
125.974245630358
 31
0.0
  0
LINE
  5
1BA
102
{ACAD_XDICTIONARY
360
1B8
102
}
330
1F
100
AcDbEntity
  8
Main lines
100
AcDbLine
 10
233.5291888668002
 20
115.101964307089
 30
0.0
 11
233.5291888668002
 21
125.974245630358
 31
0.0
  0
LINE
  5
1BD
102
{ACAD_XDICTIONARY
360
1BB
102
}
330
1F
100
AcDbEntity
  8
Main lines
100
AcDbLine
 10
238.3291888668002
 20
115.101964307089
 30
0.0
 11
238.3291888668002
 21
125.974245630358
 31
0.0
  0
LINE
  5
1C0
102
{ACAD_XDICTIONARY
360
1BE
102
}
330
1F
100
AcDbEntity
  8
Main lines
100
AcDbLine
 10
243.5291888668002
 20
115.101964307089
 30
0.0
 11
243.5291888668002
 21
125.974245630358
 31
0.0
  0
LINE
  5
1C3
102
{ACAD_XDICTIONARY
360
1C1
102
}
330
1F
100
AcDbEntity
  8
Main lines
100
AcDbLine
 10
248.3291888668002
 20
115.101964307089
 30
0.0
 11
248.3291888668001
 21
125.974245630358
 31
0.0
  0
LINE
  5
1C6
102
{ACAD_XDICTIONARY
360
1C4
102
}
330
1F
100
AcDbEntity
  8
Main lines
100
AcDbLine
 10
253.5291888668002
 20
115.101964307089
 30
0.0
 11
253.5291888668002
 21
125.974245630358
 31
0.0
  0
LINE
  5
1C9
102
{ACAD_XDICTIONARY
360
1C7
102
}
330
1F
100
AcDbEntity
  8
Main lines
100
AcDbLine
 10
233.5291888668002
 20
125.974245630358
 30
0.0
 11
238.3291888668002
 21
125.974245630358
 31
0.0
  0
LINE
  5
1CC
102
{ACAD_XDICTIONARY
360
1CA
102
}
330
1F
100
AcDbEntity
  8
Main lines
100
AcDbLine
 10
223.5291888668002
 20
125.974245630358
 30
0.0
 11
228.3291888668002
 21
125.974245630358
 31
0.0
  0
LINE
  5
1CF
102
{ACAD_XDICTIONARY
360
1CD
102
}
330
1F
100
AcDbEntity
  8
Main lines
100
AcDbLine
 10
243.5291888668002
 20
125.974245630358
 30
0.0
 11
248.3291888668001
 21
125.974245630358
 31
0.0
  0
LINE
  5
1D2
102
{ACAD_XDICTIONARY
360
1D0
102
}
330
1F
100
AcDbEntity
  8
Main lines
 48
5.0
100
AcDbLine
 10
223.5291888668002
 20
115.101964307089
 30
0.0
 11
218.3291888668002
 21
115.101964307089
 31
0.0
  0
LINE
  5
1D5
102
{ACAD_XDICTIONARY
360
1D3
102
}
330
1F
100
AcDbEntity
  8
Main lines
 48
5.0
100
AcDbLine
 10
233.525158423863
 20
115.101964307089
 30
0.0
 11
228.3291888668002
 21
115.101964307089
 31
0.0
  0
LINE
  5
1D8
102
{ACAD_XDICTIONARY
360
1D6
102
}
330
1F
100
AcDbEntity
  8
Main lines
 48
5.0
100
AcDbLine
 10
233.5291888668002
 20
115.101964307089
 30
0.0
 11
233.525158423863
 21
115.101964307089
 31
0.0
  0
LINE
  5
1DB
102
{ACAD_XDICTIONARY
360
1D9
102
}
330
1F
100
AcDbEntity
  8
Main lines
 48
5.0
100
AcDbLine
 10
243.5291888668002
 20
115.101964307089
 30
0.0
 11
238.3291888668002
 21
115.101964307089
 31
0.0
  0
LINE
  5
1DE
102
{ACAD_XDICTIONARY
360
1DC
102
}
330
1F
100
AcDbEntity
  8
Main lines
 48
5.0
100
AcDbLine
 10
253.5291888668002
 20
115.101964307089
 30
0.0
 11
248.3291888668002
 21
115.101964307089
 31
0.0
  0
LINE
  5
1E1
102
{ACAD_XDICTIONARY
360
1DF
102
}
330
1F
100
AcDbEntity
  8
Main lines
100
AcDbLine
 10
258.3291888668002
 20
115.101964307089
 30
0.0
 11
258.3291888668001
 21
125.974245630358
 31
0.0
  0
LINE
  5
1E4
102
{ACAD_XDICTIONARY
360
1E2
102
}
330
1F
100
AcDbEntity
  8
Main lines
100
AcDbLine
 10
263.5291888668002
 20
125.974245630358
 30
0.0
 11
263.5291888668002
 21
115.101964307089
 31
0.0
  0
LINE
  5
1E7
102
{ACAD_XDICTIONARY
360
1E5
102
}
330
1F
100
AcDbEntity
  8
Main lines
100
AcDbLine
 10
268.3291888668002
 20
115.101964307089
 30
0.0
 11
268.3291888668002
 21
125.974245630358
 31
0.0
  0
LINE
  5
1EA
102
{ACAD_XDICTIONARY
360
1E8
102
}
330
1F
100
AcDbEntity
  8
Main lines
100
AcDbLine
 10
268.3291888668002
 20
125.974245630358
 30
0.0
 11
263.5291888668002
 21
125.974245630358
 31
0.0
  0
LINE
  5
1ED
102
{ACAD_XDICTIONARY
360
1EB
102
}
330
1F
100
AcDbEntity
  8
Main lines
100
AcDbLine
 10
268.4291888668002
 20
101.3075789636914
 30
0.0
 11
268.4291888668001
 21
106.1743882832321
 31
0.0
  0
LINE
  5
1F0
102
{ACAD_XDICTIONARY
360
1EE
102
}
330
1F
100
AcDbEntity
  8
Main lines
 48
5.0
100
AcDbLine
 10
263.5291888668002
 20
115.101964307089
 30
0.0
 11
258.3291888668002
 21
115.101964307089
 31
0.0
  0
LINE
  5
1F3
102
{ACAD_XDICTIONARY
360
1F1
102
}
330
1F
100
AcDbEntity
  8
Main lines
 48
5.0
100
AcDbLine
 10
268.4291888668001
 20
106.1743882832321
 30
0.0
 11
268.4291888668001
 21
115.101964307089
 31
0.0
  0
LINE
  5
1F6
102
{ACAD_XDICTIONARY
360
1F4
102
}
330
1F
100
AcDbEntity
  8
Main lines
 48
5.0
100
AcDbLine
 10
258.5291888668002
 20
70.84652695362706
 30
0.0
 11
253.3291888668002
 21
70.84652695362706
 31
0.0
  0
LINE
  5
1F9
102
{ACAD_XDICTIONARY
360
1F7
102
}
330
1F
100
AcDbEntity
  8
Main lines
 48
5.0
100
AcDbLine
 10
218.5291888668002
 20
70.84652695362706
 30
0.0
 11
213.3291888668002
 21
70.84652695362706
 31
0.0
  0
LINE
  5
1FC
102
{ACAD_XDICTIONARY
360
1FA
102
}
330
1F
100
AcDbEntity
  8
Main lines
100
AcDbLine
 10
213.3291888668002
 20
59.97424563035804
 30
0.0
 11
213.3291888668002
 21
70.84652695362706
 31
0.0
  0
LINE
  5
1FF
102
{ACAD_XDICTIONARY
360
1FD
102
}
330
1F
100
AcDbEntity
  8
Main lines
100
AcDbLine
 10
208.5291888668002
 20
70.84652695362706
 30
0.0
 11
208.5291888668002
 21
59.97424563035804
 31
0.0
  0
LINE
  5
202
102
{ACAD_XDICTIONARY
360
200
102
}
330
1F
100
AcDbEntity
  8
Main lines
100
AcDbLine
 10
203.3291888668002
 20
59.97424563035804
 30
0.0
 11
203.3291888668002
 21
70.84652695362706
 31
0.0
  0
LINE
  5
205
102
{ACAD_XDICTIONARY
360
203
102
}
330
1F
100
AcDbEntity
  8
Main lines
100
AcDbLine
 10
198.5291888668002
 20
70.84652695362706
 30
0.0
 11
198.5291888668002
 21
59.97424563035804
 31
0.0
  0
LINE
  5
208
102
{ACAD_XDICTIONARY
360
206
102
}
330
1F
100
AcDbEntity
  8
Main lines
100
AcDbLine
 10
193.3291888668002
 20
59.97424563035804
 30
0.0
 11
193.3291888668002
 21
70.84652695362706
 31
0.0
  0
LINE
  5
20B
102
{ACAD_XDICTIONARY
360
209
102
}
330
1F
100
AcDbEntity
  8
Main lines
100
AcDbLine
 10
188.5291888668002
 20
70.84652695362706
 30
0.0
 11
188.5291888668002
 21
59.97424563035804
 31
0.0
  0
LINE
  5
20E
102
{ACAD_XDICTIONARY
360
20C
102
}
330
1F
100
AcDbEntity
  8
Main lines
100
AcDbLine
 10
183.3291888668002
 20
59.97424563035804
 30
0.0
 11
183.3291888668002
 21
70.84652695362706
 31
0.0
  0
LINE
  5
211
102
{ACAD_XDICTIONARY
360
20F
102
}
330
1F
100
AcDbEntity
  8
Main lines
 48
5.0
100
AcDbLine
 10
198.5291888668002
 20
70.84652695362706
 30
0.0
 11
193.3291888668002
 21
70.84652695362706
 31
0.0
  0
LINE
  5
214
102
{ACAD_XDICTIONARY
360
212
102
}
330
1F
100
AcDbEntity
  8
Main lines
 48
5.0
100
AcDbLine
 10
188.5291888668002
 20
70.84652695362706
 30
0.0
 11
183.3291888668002
 21
70.84652695362706
 31
0.0
  0
LINE
  5
217
102
{ACAD_XDICTIONARY
360
215
102
}
330
1F
100
AcDbEntity
  8
Main lines
 48
5.0
100
AcDbLine
 10
208.5291888668002
 20
70.84652695362706
 30
0.0
 11
203.3291888668002
 21
70.84652695362706
 31
0.0
  0
LINE
  5
21A
102
{ACAD_XDICTIONARY
360
218
102
}
330
1F
100
AcDbEntity
  8
Main lines
100
AcDbLine
 10
193.3291888668002
 20
59.97424563035804
 30
0.0
 11
188.5291888668002
 21
59.97424563035804
 31
0.0
  0
LINE
  5
21D
102
{ACAD_XDICTIONARY
360
21B
102
}
330
1F
100
AcDbEntity
  8
Main lines
100
AcDbLine
 10
203.3291888668002
 20
59.97424563035804
 30
0.0
 11
198.5291888668002
 21
59.97424563035804
 31
0.0
  0
LINE
  5
220
102
{ACAD_XDICTIONARY
360
21E
102
}
330
1F
100
AcDbEntity
  8
Main lines
100
AcDbLine
 10
213.3291888668002
 20
59.97424563035804
 30
0.0
 11
208.5291888668002
 21
59.97424563035804
 31
0.0
  0
LINE
  5
223
102
{ACAD_XDICTIONARY
360
221
102
}
330
1F
100
AcDbEntity
  8
Main lines
100
AcDbLine
 10
218.5291888668002
 20
70.84652695362706
 30
0.0
 11
218.5291888668002
 21
59.97424563035804
 31
0.0
  0
LINE
  5
226
102
{ACAD_XDICTIONARY
360
224
102
}
330
1F
100
AcDbEntity
  8
Main lines
100
AcDbLine
 10
223.3291888668002
 20
59.97424563035804
 30
0.0
 11
223.3291888668002
 21
70.84652695362706
 31
0.0
  0
LINE
  5
229
102
{ACAD_XDICTIONARY
360
227
102
}
330
1F
100
AcDbEntity
  8
Main lines
100
AcDbLine
 10
228.5291888668002
 20
70.84652695362706
 30
0.0
 11
228.5291888668002
 21
59.97424563035804
 31
0.0
  0
LINE
  5
22C
102
{ACAD_XDICTIONARY
360
22A
102
}
330
1F
100
AcDbEntity
  8
Main lines
100
AcDbLine
 10
233.3291888668002
 20
59.97424563035804
 30
0.0
 11
233.3291888668002
 21
70.84652695362706
 31
0.0
  0
LINE
  5
22F
102
{ACAD_XDICTIONARY
360
22D
102
}
330
1F
100
AcDbEntity
  8
Main lines
100
AcDbLine
 10
238.5291888668002
 20
70.84652695362706
 30
0.0
 11
238.5291888668002
 21
59.97424563035804
 31
0.0
  0
LINE
  5
232
102
{ACAD_XDICTIONARY
360
230
102
}
330
1F
100
AcDbEntity
  8
Main lines
100
AcDbLine
 10
243.3291888668002
 20
59.97424563035804
 30
0.0
 11
243.3291888668002
 21
70.84652695362706
 31
0.0
  0
LINE
  5
235
102
{ACAD_XDICTIONARY
360
233
102
}
330
1F
100
AcDbEntity
  8
Main lines
100
AcDbLine
 10
248.5291888668001
 20
70.84652695362706
 30
0.0
 11
248.5291888668002
 21
59.97424563035804
 31
0.0
  0
LINE
  5
238
102
{ACAD_XDICTIONARY
360
236
102
}
330
1F
100
AcDbEntity
  8
Main lines
100
AcDbLine
 10
253.3291888668002
 20
59.97424563035804
 30
0.0
 11
253.3291888668002
 21
70.84652695362706
 31
0.0
  0
LINE
  5
23B
102
{ACAD_XDICTIONARY
360
239
102
}
330
1F
100
AcDbEntity
  8
Main lines
 48
5.0
100
AcDbLine
 10
238.5291888668002
 20
70.84652695362706
 30
0.0
 11
233.3291888668002
 21
70.84652695362706
 31
0.0
  0
LINE
  5
23E
102
{ACAD_XDICTIONARY
360
23C
102
}
330
1F
100
AcDbEntity
  8
Main lines
 48
5.0
100
AcDbLine
 10
228.5291888668002
 20
70.84652695362706
 30
0.0
 11
223.3291888668002
 21
70.84652695362706
 31
0.0
  0
LINE
  5
241
102
{ACAD_XDICTIONARY
360
23F
102
}
330
1F
100
AcDbEntity
  8
Main lines
 48
5.0
100
AcDbLine
 10
248.5291888668001
 20
70.84652695362706
 30
0.0
 11
243.3291888668002
 21
70.84652695362706
 31
0.0
  0
LINE
  5
244
102
{ACAD_XDICTIONARY
360
242
102
}
330
1F
100
AcDbEntity
  8
Main lines
100
AcDbLine
 10
223.3291888668002
 20
59.97424563035804
 30
0.0
 11
218.5291888668002
 21
59.97424563035804
 31
0.0
  0
LINE
  5
247
102
{ACAD_XDICTIONARY
360
245
102
}
330
1F
100
AcDbEntity
  8
Main lines
100
AcDbLine
 10
233.3291888668002
 20
59.97424563035804
 30
0.0
 11
228.5291888668002
 21
59.97424563035804
 31
0.0
  0
LINE
  5
24A
102
{ACAD_XDICTIONARY
360
248
102
}
330
1F
100
AcDbEntity
  8
Main lines
100
AcDbLine
 10
243.3291888668002
 20
59.97424563035804
 30
0.0
 11
238.5291888668002
 21
59.97424563035804
 31
0.0
  0
LINE
  5
24D
102
{ACAD_XDICTIONARY
360
24B
102
}
330
1F
100
AcDbEntity
  8
Main lines
100
AcDbLine
 10
253.3291888668002
 20
59.97424563035804
 30
0.0
 11
248.5291888668002
 21
59.97424563035804
 31
0.0
  0
LINE
  5
250
102
{ACAD_XDICTIONARY
360
24E
102
}
330
1F
100
AcDbEntity
  8
Main lines
100
AcDbLine
 10
258.5291888668002
 20
70.84652695362706
 30
0.0
 11
258.5291888668002
 21
59.97424563035804
 31
0.0
  0
LINE
  5
253
102
{ACAD_XDICTIONARY
360
251
102
}
330
1F
100
AcDbEntity
  8
Main lines
100
AcDbLine
 10
268.4291888668001
 20
84.64091229702467
 30
0.0
 11
268.4291888668001
 21
79.77410297748395
 31
0.0
  0
LINE
  5
256
102
{ACAD_XDICTIONARY
360
254
102
}
330
1F
100
AcDbEntity
  8
Main lines
100
AcDbLine
 10
268.4291888668001
 20
84.64091229702467
 30
0.0
 11
268.4291888668001
 21
91.83508918830603
 31
0.0
  0
LINE
  5
259
102
{ACAD_XDICTIONARY
360
257
102
}
330
1F
100
AcDbEntity
  8
Main lines
 48
5.0
100
AcDbLine
 10
268.4291888668001
 20
70.84652695362706
 30
0.0
 11
263.3291888668002
 21
70.84652695362706
 31
0.0
  0
LINE
  5
25C
102
{ACAD_XDICTIONARY
360
25A
102
}
330
1F
100
AcDbEntity
  8
Main lines
 48
5.0
100
AcDbLine
 10
268.4291888668001
 20
79.77410297748395
 30
0.0
 11
268.4291888668001
 21
70.84652695362706
 31
0.0
  0
LINE
  5
25F
102
{ACAD_XDICTIONARY
360
25D
102
}
330
1F
100
AcDbEntity
  8
Main lines
100
AcDbLine
 10
263.3291888668002
 20
59.97424563035804
 30
0.0
 11
258.5291888668002
 21
59.97424563035804
 31
0.0
  0
LINE
  5
262
102
{ACAD_XDICTIONARY
360
260
102
}
330
1F
100
AcDbEntity
  8
Main lines
 48
5.0
100
AcDbLine
 10
263.3291888668002
 20
59.97424563035804
 30
0.0
 11
263.3291888668002
 21
70.84652695362706
 31
0.0
  0
LINE
  5
265
102
{ACAD_XDICTIONARY
360
263
102
}
330
1F
100
AcDbEntity
  8
Main lines
  6
HIDDEN
 48
5.0
100
AcDbLine
 10
263.3291888668002
 20
64.97424563035804
 30
0.0
 11
258.5291888668002
 21
64.97424563035804
 31
0.0
  0
LINE
  5
268
102
{ACAD_XDICTIONARY
360
266
102
}
330
1F
100
AcDbEntity
  8
Main lines
  6
HIDDEN
 48
5.0
100
AcDbLine
 10
253.3291888668002
 20
64.97424563035804
 30
0.0
 11
248.5291888668002
 21
64.97424563035804
 31
0.0
  0
LINE
  5
26B
102
{ACAD_XDICTIONARY
360
269
102
}
330
1F
100
AcDbEntity
  8
Main lines
  6
HIDDEN
 48
5.0
100
AcDbLine
 10
243.3291888668002
 20
64.97424563035804
 30
0.0
 11
238.5291888668002
 21
64.97424563035804
 31
0.0
  0
LINE
  5
26E
102
{ACAD_XDICTIONARY
360
26C
102
}
330
1F
100
AcDbEntity
  8
Main lines
  6
HIDDEN
 48
5.0
100
AcDbLine
 10
233.3291888668002
 20
64.97424563035804
 30
0.0
 11
228.5291888668002
 21
64.97424563035804
 31
0.0
  0
LINE
  5
271
102
{ACAD_XDICTIONARY
360
26F
102
}
330
1F
100
AcDbEntity
  8
Main lines
  6
HIDDEN
 48
5.0
100
AcDbLine
 10
223.3291888668002
 20
64.97424563035804
 30
0.0
 11
218.5291888668001
 21
64.97424563035804
 31
0.0
  0
LINE
  5
274
102
{ACAD_XDICTIONARY
360
272
102
}
330
1F
100
AcDbEntity
  8
Main lines
  6
HIDDEN
 48
5.0
100
AcDbLine
 10
213.3291888668002
 20
64.97424563035804
 30
0.0
 11
208.5291888668002
 21
64.97424563035804
 31
0.0
  0
LINE
  5
277
102
{ACAD_XDICTIONARY
360
275
102
}
330
1F
100
AcDbEntity
  8
Main lines
  6
HIDDEN
 48
5.0
100
AcDbLine
 10
203.3291888668002
 20
64.97424563035804
 30
0.0
 11
198.5291888668001
 21
64.97424563035804
 31
0.0
  0
LINE
  5
27A
102
{ACAD_XDICTIONARY
360
278
102
}
330
1F
100
AcDbEntity
  8
Main lines
  6
HIDDEN
 48
5.0
100
AcDbLine
 10
193.3291888668002
 20
64.97424563035804
 30
0.0
 11
188.5291888668002
 21
64.97424563035804
 31
0.0
  0
LINE
  5
27D
102
{ACAD_XDICTIONARY
360
27B
102
}
330
1F
100
AcDbEntity
  8
Main lines
  6
HIDDEN
 48
5.0
100
AcDbLine
 10
183.3291888668002
 20
64.97424563035804
 30
0.0
 11
178.5291888668002
 21
64.97424563035804
 31
0.0
  0
LINE
  5
280
102
{ACAD_XDICTIONARY
360
27E
102
}
330
1F
100
AcDbEntity
  8
Main lines
  6
HIDDEN
 48
5.0
100
AcDbLine
 10
173.3291888668002
 20
64.97424563035804
 30
0.0
 11
168.5291888668002
 21
64.97424563035804
 31
0.0
  0
LINE
  5
283
102
{ACAD_XDICTIONARY
360
281
102
}
330
1F
100
AcDbEntity
  8
Main lines
  6
HIDDEN
 48
5.0
100
AcDbLine
 10
163.3291888668002
 20
64.97424563035804
 30
0.0
 11
158.5291888668002
 21
64.97424563035804
 31
0.0
  0
LINE
  5
286
102
{ACAD_XDICTIONARY
360
284
102
}
330
1F
100
AcDbEntity
  8
Main lines
  6
HIDDEN
 48
5.0
100
AcDbLine
 10
153.3291888668002
 20
64.97424563035804
 30
0.0
 11
148.5291888668002
 21
64.97424563035804
 31
0.0
  0
LINE
  5
289
102
{ACAD_XDICTIONARY
360
287
102
}
330
1F
100
AcDbEntity
  8
Main lines
  6
HIDDEN
 48
5.0
100
AcDbLine
 10
143.3291888668002
 20
64.97424563035804
 30
0.0
 11
138.5291888668002
 21
64.97424563035804
 31
0.0
  0
LINE
  5
28C
102
{ACAD_XDICTIONARY
360
28A
102
}
330
1F
100
AcDbEntity
  8
Main lines
  6
HIDDEN
 48
5.0
100
AcDbLine
 10
133.3291888668002
 20
64.97424563035804
 30
0.0
 11
128.5291888668002
 21
64.97424563035804
 31
0.0
  0
LINE
  5
28F
102
{ACAD_XDICTIONARY
360
28D
102
}
330
1F
100
AcDbEntity
  8
Main lines
  6
HIDDEN
 48
5.0
100
AcDbLine
 10
123.3291888668002
 20
64.97424563035804
 30
0.0
 11
118.5291888668001
 21
64.97424563035804
 31
0.0
  0
LINE
  5
292
102
{ACAD_XDICTIONARY
360
290
102
}
330
1F
100
AcDbEntity
  8
Main lines
  6
HIDDEN
 48
5.0
100
AcDbLine
 10
113.3291888668002
 20
64.97424563035804
 30
0.0
 11
108.5291888668001
 21
64.97424563035804
 31
0.0
  0
LINE
  5
295
102
{ACAD_XDICTIONARY
360
293
102
}
330
1F
100
AcDbEntity
  8
Main lines
  6
HIDDEN
 48
5.0
100
AcDbLine
 10
103.3291888668002
 20
64.97424563035804
 30
0.0
 11
98.52918886680014
 21
64.97424563035804
 31
0.0
  0
LINE
  5
298
102
{ACAD_XDICTIONARY
360
296
102
}
330
1F
100
AcDbEntity
  8
Main lines
  6
HIDDEN
 48
5.0
100
AcDbLine
 10
93.32918886680021
 20
64.97424563035804
 30
0.0
 11
88.52918886680014
 21
64.97424563035804
 31
0.0
  0
LINE
  5
29B
102
{ACAD_XDICTIONARY
360
299
102
}
330
1F
100
AcDbEntity
  8
Main lines
  6
HIDDEN
 48
5.0
100
AcDbLine
 10
83.32918886680021
 20
64.97424563035804
 30
0.0
 11
78.52918886680014
 21
64.97424563035804
 31
0.0
  0
LINE
  5
29E
102
{ACAD_XDICTIONARY
360
29C
102
}
330
1F
100
AcDbEntity
  8
Main lines
  6
HIDDEN
 48
5.0
100
AcDbLine
 10
73.32918886680018
 20
64.97424563035804
 30
0.0
 11
68.52918886680017
 21
64.97424563035804
 31
0.0
  0
LINE
  5
2A1
102
{ACAD_XDICTIONARY
360
29F
102
}
330
1F
100
AcDbEntity
  8
Main lines
  6
HIDDEN
 48
5.0
100
AcDbLine
 10
73.5291888668002
 20
120.974245630358
 30
0.0
 11
78.32918886680027
 21
120.974245630358
 31
0.0
  0
LINE
  5
2A4
102
{ACAD_XDICTIONARY
360
2A2
102
}
330
1F
100
AcDbEntity
  8
Main lines
  6
HIDDEN
 48
5.0
100
AcDbLine
 10
83.5291888668002
 20
120.974245630358
 30
0.0
 11
88.32918886680027
 21
120.974245630358
 31
0.0
  0
LINE
  5
2A7
102
{ACAD_XDICTIONARY
360
2A5
102
}
330
1F
100
AcDbEntity
  8
Main lines
  6
HIDDEN
 48
5.0
100
AcDbLine
 10
93.5291888668002
 20
120.974245630358
 30
0.0
 11
98.32918886680027
 21
120.974245630358
 31
0.0
  0
LINE
  5
2AA
102
{ACAD_XDICTIONARY
360
2A8
102
}
330
1F
100
AcDbEntity
  8
Main lines
  6
HIDDEN
 48
5.0
100
AcDbLine
 10
103.5291888668002
 20
120.974245630358
 30
0.0
 11
108.3291888668003
 21
120.974245630358
 31
0.0
  0
LINE
  5
2AD
102
{ACAD_XDICTIONARY
360
2AB
102
}
330
1F
100
AcDbEntity
  8
Main lines
  6
HIDDEN
 48
5.0
100
AcDbLine
 10
113.5291888668002
 20
120.974245630358
 30
0.0
 11
118.3291888668003
 21
120.974245630358
 31
0.0
  0
LINE
  5
2B0
102
{ACAD_XDICTIONARY
360
2AE
102
}
330
1F
100
AcDbEntity
  8
Main lines
  6
HIDDEN
 48
5.0
100
AcDbLine
 10
123.5291888668002
 20
120.974245630358
 30
0.0
 11
128.3291888668003
 21
120.974245630358
 31
0.0
  0
LINE
  5
2B3
102
{ACAD_XDICTIONARY
360
2B1
102
}
330
1F
100
AcDbEntity
  8
Main lines
  6
HIDDEN
 48
5.0
100
AcDbLine
 10
133.5291888668002
 20
120.974245630358
 30
0.0
 11
138.3291888668003
 21
120.974245630358
 31
0.0
  0
LINE
  5
2B6
102
{ACAD_XDICTIONARY
360
2B4
102
}
330
1F
100
AcDbEntity
  8
Main lines
  6
HIDDEN
 48
5.0
100
AcDbLine
 10
143.5291888668002
 20
120.974245630358
 30
0.0
 11
148.3291888668003
 21
120.974245630358
 31
0.0
  0
LINE
  5
2B9
102
{ACAD_XDICTIONARY
360
2B7
102
}
330
1F
100
AcDbEntity
  8
Main lines
  6
HIDDEN
 48
5.0
100
AcDbLine
 10
153.5291888668002
 20
120.974245630358
 30
0.0
 11
158.3291888668003
 21
120.974245630358
 31
0.0
  0
LINE
  5
2BC
102
{ACAD_XDICTIONARY
360
2BA
102
}
330
1F
100
AcDbEntity
  8
Main lines
  6
HIDDEN
 48
5.0
100
AcDbLine
 10
163.5291888668002
 20
120.974245630358
 30
0.0
 11
168.3291888668003
 21
120.974245630358
 31
0.0
  0
LINE
  5
2BF
102
{ACAD_XDICTIONARY
360
2BD
102
}
330
1F
100
AcDbEntity
  8
Main lines
  6
HIDDEN
 48
5.0
100
AcDbLine
 10
173.5291888668002
 20
120.974245630358
 30
0.0
 11
178.3291888668003
 21
120.974245630358
 31
0.0
  0
LINE
  5
2C2
102
{ACAD_XDICTIONARY
360
2C0
102
}
330
1F
100
AcDbEntity
  8
Main lines
  6
HIDDEN
 48
5.0
100
AcDbLine
 10
183.5291888668002
 20
120.974245630358
 30
0.0
 11
188.3291888668003
 21
120.974245630358
 31
0.0
  0
LINE
  5
2C5
102
{ACAD_XDICTIONARY
360
2C3
102
}
330
1F
100
AcDbEntity
  8
Main lines
  6
HIDDEN
 48
5.0
100
AcDbLine
 10
193.5291888668002
 20
120.974245630358
 30
0.0
 11
198.3291888668003
 21
120.974245630358
 31
0.0
  0
LINE
  5
2C8
102
{ACAD_XDICTIONARY
360
2C6
102
}
330
1F
100
AcDbEntity
  8
Main lines
  6
HIDDEN
 48
5.0
100
AcDbLine
 10
203.5291888668002
 20
120.974245630358
 30
0.0
 11
208.3291888668003
 21
120.974245630358
 31
0.0
  0
LINE
  5
2CB
102
{ACAD_XDICTIONARY
360
2C9
102
}
330
1F
100
AcDbEntity
  8
Main lines
  6
HIDDEN
 48
5.0
100
AcDbLine
 10
213.5291888668002
 20
120.974245630358
 30
0.0
 11
218.3291888668003
 21
120.974245630358
 31
0.0
  0
LINE
  5
2CE
102
{ACAD_XDICTIONARY
360
2CC
102
}
330
1F
100
AcDbEntity
  8
Main lines
  6
HIDDEN
 48
5.0
100
AcDbLine
 10
223.5291888668002
 20
120.974245630358
 30
0.0
 11
228.3291888668003
 21
120.974245630358
 31
0.0
  0
LINE
  5
2D1
102
{ACAD_XDICTIONARY
360
2CF
102
}
330
1F
100
AcDbEntity
  8
Main lines
  6
HIDDEN
 48
5.0
100
AcDbLine
 10
233.5291888668002
 20
120.974245630358
 30
0.0
 11
238.3291888668003
 21
120.974245630358
 31
0.0
  0
LINE
  5
2D4
102
{ACAD_XDICTIONARY
360
2D2
102
}
330
1F
100
AcDbEntity
  8
Main lines
  6
HIDDEN
 48
5.0
100
AcDbLine
 10
243.5291888668002
 20
120.974245630358
 30
0.0
 11
248.3291888668003
 21
120.974245630358
 31
0.0
  0
LINE
  5
2D7
102
{ACAD_XDICTIONARY
360
2D5
102
}
330
1F
100
AcDbEntity
  8
Main lines
  6
HIDDEN
 48
5.0
100
AcDbLine
 10
253.5291888668002
 20
120.974245630358
 30
0.0
 11
258.3291888668002
 21
120.974245630358
 31
0.0
  0
LINE
  5
2DA
102
{ACAD_XDICTIONARY
360
2D8
102
}
330
1F
100
AcDbEntity
  8
Main lines
  6
HIDDEN
 48
5.0
100
AcDbLine
 10
263.5291888668002
 20
120.974245630358
 30
0.0
 11
268.3291888668002
 21
120.974245630358
 31
0.0
  0
LINE
  5
2DD
102
{ACAD_XDICTIONARY
360
2DB
102
}
330
1F
100
AcDbEntity
  8
Main lines
  6
HIDDEN
 48
5.0
100
AcDbLine
 10
268.3291888668001
 20
114.974245630358
 30
0.0
 11
263.5291888668001
 21
114.974245630358
 31
0.0
  0
LINE
  5
2E0
102
{ACAD_XDICTIONARY
360
2DE
102
}
330
1F
100
AcDbEntity
  8
Main lines
  6
HIDDEN
 48
5.0
100
AcDbLine
 10
258.3291888668001
 20
114.974245630358
 30
0.0
 11
253.5291888668001
 21
114.974245630358
 31
0.0
  0
LINE
  5
2E3
102
{ACAD_XDICTIONARY
360
2E1
102
}
330
1F
100
AcDbEntity
  8
Main lines
  6
HIDDEN
 48
5.0
100
AcDbLine
 10
243.5291888668002
 20
114.974245630358
 30
0.0
 11
248.3291888668002
 21
114.974245630358
 31
0.0
  0
LINE
  5
2E6
102
{ACAD_XDICTIONARY
360
2E4
102
}
330
1F
100
AcDbEntity
  8
Main lines
  6
HIDDEN
 48
5.0
100
AcDbLine
 10
233.5291888668002
 20
114.974245630358
 30
0.0
 11
238.3291888668002
 21
114.974245630358
 31
0.0
  0
LINE
  5
2E9
102
{ACAD_XDICTIONARY
360
2E7
102
}
330
1F
100
AcDbEntity
  8
Main lines
  6
HIDDEN
 48
5.0
100
AcDbLine
 10
223.5291888668002
 20
114.974245630358
 30
0.0
 11
228.3291888668002
 21
114.974245630358
 31
0.0
  0
LINE
  5
2EC
102
{ACAD_XDICTIONARY
360
2EA
102
}
330
1F
100
AcDbEntity
  8
Main lines
  6
HIDDEN
 48
5.0
100
AcDbLine
 10
218.3291888668002
 20
114.974245630358
 30
0.0
 11
213.5291888668002
 21
114.974245630358
 31
0.0
  0
LINE
  5
2EF
102
{ACAD_XDICTIONARY
360
2ED
102
}
330
1F
100
AcDbEntity
  8
Main lines
  6
HIDDEN
 48
5.0
100
AcDbLine
 10
263.3291888668001
 20
70.97424563035804
 30
0.0
 11
258.5291888668001
 21
70.97424563035793
 31
0.0
  0
LINE
  5
2F2
102
{ACAD_XDICTIONARY
360
2F0
102
}
330
1F
100
AcDbEntity
  8
Main lines
  6
HIDDEN
 48
5.0
100
AcDbLine
 10
253.3291888668001
 20
70.97424563035793
 30
0.0
 11
248.5291888668001
 21
70.97424563035793
 31
0.0
  0
LINE
  5
2F5
102
{ACAD_XDICTIONARY
360
2F3
102
}
330
1F
100
AcDbEntity
  8
Main lines
  6
HIDDEN
 48
5.0
100
AcDbLine
 10
238.5291888668003
 20
70.97424563035793
 30
0.0
 11
243.3291888668002
 21
70.97424563035793
 31
0.0
  0
LINE
  5
2F8
102
{ACAD_XDICTIONARY
360
2F6
102
}
330
1F
100
AcDbEntity
  8
Main lines
  6
HIDDEN
 48
5.0
100
AcDbLine
 10
228.5291888668003
 20
70.97424563035804
 30
0.0
 11
233.3291888668002
 21
70.97424563035793
 31
0.0
  0
LINE
  5
2FB
102
{ACAD_XDICTIONARY
360
2F9
102
}
330
1F
100
AcDbEntity
  8
Main lines
  6
HIDDEN
 48
5.0
100
AcDbLine
 10
218.5291888668003
 20
70.97424563035804
 30
0.0
 11
223.3291888668002
 21
70.97424563035804
 31
0.0
  0
LINE
  5
2FE
102
{ACAD_XDICTIONARY
360
2FC
102
}
330
1F
100
AcDbEntity
  8
Main lines
  6
HIDDEN
 48
5.0
100
AcDbLine
 10
213.3291888668002
 20
70.97424563035804
 30
0.0
 11
208.5291888668002
 21
70.97424563035804
 31
0.0
  0
LINE
  5
301
102
{ACAD_XDICTIONARY
360
2FF
102
}
330
1F
100
AcDbEntity
  8
Main lines
  6
HIDDEN
 48
5.0
100
AcDbLine
 10
208.3291888668002
 20
114.974245630358
 30
0.0
 11
203.5291888668002
 21
114.974245630358
 31
0.0
  0
LINE
  5
304
102
{ACAD_XDICTIONARY
360
302
102
}
330
1F
100
AcDbEntity
  8
Main lines
  6
HIDDEN
 48
5.0
100
AcDbLine
 10
198.3291888668002
 20
114.974245630358
 30
0.0
 11
193.5291888668002
 21
114.974245630358
 31
0.0
  0
LINE
  5
307
102
{ACAD_XDICTIONARY
360
305
102
}
330
1F
100
AcDbEntity
  8
Main lines
  6
HIDDEN
 48
5.0
100
AcDbLine
 10
183.5291888668001
 20
114.974245630358
 30
0.0
 11
188.3291888668001
 21
114.974245630358
 31
0.0
  0
LINE
  5
30A
102
{ACAD_XDICTIONARY
360
308
102
}
330
1F
100
AcDbEntity
  8
Main lines
  6
HIDDEN
 48
5.0
100
AcDbLine
 10
173.5291888668002
 20
114.974245630358
 30
0.0
 11
178.3291888668002
 21
114.974245630358
 31
0.0
  0
LINE
  5
30D
102
{ACAD_XDICTIONARY
360
30B
102
}
330
1F
100
AcDbEntity
  8
Main lines
  6
HIDDEN
 48
5.0
100
AcDbLine
 10
163.5291888668001
 20
114.974245630358
 30
0.0
 11
168.3291888668001
 21
114.974245630358
 31
0.0
  0
LINE
  5
310
102
{ACAD_XDICTIONARY
360
30E
102
}
330
1F
100
AcDbEntity
  8
Main lines
  6
HIDDEN
 48
5.0
100
AcDbLine
 10
158.3291888668002
 20
114.974245630358
 30
0.0
 11
153.5291888668002
 21
114.974245630358
 31
0.0
  0
LINE
  5
313
102
{ACAD_XDICTIONARY
360
311
102
}
330
1F
100
AcDbEntity
  8
Main lines
  6
HIDDEN
 48
5.0
100
AcDbLine
 10
148.3291888668001
 20
114.974245630358
 30
0.0
 11
143.5291888668001
 21
114.974245630358
 31
0.0
  0
LINE
  5
316
102
{ACAD_XDICTIONARY
360
314
102
}
330
1F
100
AcDbEntity
  8
Main lines
  6
HIDDEN
 48
5.0
100
AcDbLine
 10
153.3291888668001
 20
70.97424563035804
 30
0.0
 11
148.5291888668001
 21
70.97424563035804
 31
0.0
  0
LINE
  5
319
102
{ACAD_XDICTIONARY
360
317
102
}
330
1F
100
AcDbEntity
  8
Main lines
  6
HIDDEN
 48
5.0
100
AcDbLine
 10
158.5291888668002
 20
70.97424563035804
 30
0.0
 11
163.3291888668002
 21
70.97424563035804
 31
0.0
  0
LINE
  5
31C
102
{ACAD_XDICTIONARY
360
31A
102
}
330
1F
100
AcDbEntity
  8
Main lines
  6
HIDDEN
 48
5.0
100
AcDbLine
 10
168.5291888668002
 20
70.97424563035804
 30
0.0
 11
173.3291888668002
 21
70.97424563035793
 31
0.0
  0
LINE
  5
31F
102
{ACAD_XDICTIONARY
360
31D
102
}
330
1F
100
AcDbEntity
  8
Main lines
  6
HIDDEN
 48
5.0
100
AcDbLine
 10
178.5291888668002
 20
70.97424563035793
 30
0.0
 11
183.3291888668002
 21
70.97424563035793
 31
0.0
  0
LINE
  5
322
102
{ACAD_XDICTIONARY
360
320
102
}
330
1F
100
AcDbEntity
  8
Main lines
  6
HIDDEN
 48
5.0
100
AcDbLine
 10
193.3291888668002
 20
70.97424563035793
 30
0.0
 11
188.5291888668002
 21
70.97424563035793
 31
0.0
  0
LINE
  5
325
102
{ACAD_XDICTIONARY
360
323
102
}
330
1F
100
AcDbEntity
  8
Main lines
  6
HIDDEN
 48
5.0
100
AcDbLine
 10
203.3291888668002
 20
70.97424563035804
 30
0.0
 11
198.5291888668002
 21
70.97424563035793
 31
0.0
  0
LINE
  5
328
102
{ACAD_XDICTIONARY
360
326
102
}
330
1F
100
AcDbEntity
  8
Main lines
  6
HIDDEN
 48
5.0
100
AcDbLine
 10
138.3291888668001
 20
114.974245630358
 30
0.0
 11
133.5291888668001
 21
114.974245630358
 31
0.0
  0
LINE
  5
32B
102
{ACAD_XDICTIONARY
360
329
102
}
330
1F
100
AcDbEntity
  8
Main lines
  6
HIDDEN
 48
5.0
100
AcDbLine
 10
123.5291888668002
 20
114.974245630358
 30
0.0
 11
128.3291888668002
 21
114.974245630358
 31
0.0
  0
LINE
  5
32E
102
{ACAD_XDICTIONARY
360
32C
102
}
330
1F
100
AcDbEntity
  8
Main lines
  6
HIDDEN
 48
5.0
100
AcDbLine
 10
113.5291888668002
 20
114.974245630358
 30
0.0
 11
118.3291888668002
 21
114.974245630358
 31
0.0
  0
LINE
  5
331
102
{ACAD_XDICTIONARY
360
32F
102
}
330
1F
100
AcDbEntity
  8
Main lines
  6
HIDDEN
 48
5.0
100
AcDbLine
 10
103.5291888668002
 20
114.974245630358
 30
0.0
 11
108.3291888668002
 21
114.974245630358
 31
0.0
  0
LINE
  5
334
102
{ACAD_XDICTIONARY
360
332
102
}
330
1F
100
AcDbEntity
  8
Main lines
  6
HIDDEN
 48
5.0
100
AcDbLine
 10
98.32918886680024
 20
114.974245630358
 30
0.0
 11
93.52918886680023
 21
114.974245630358
 31
0.0
  0
LINE
  5
337
102
{ACAD_XDICTIONARY
360
335
102
}
330
1F
100
AcDbEntity
  8
Main lines
  6
HIDDEN
 48
5.0
100
AcDbLine
 10
143.3291888668001
 20
70.97424563035804
 30
0.0
 11
138.5291888668001
 21
70.97424563035793
 31
0.0
  0
LINE
  5
33A
102
{ACAD_XDICTIONARY
360
338
102
}
330
1F
100
AcDbEntity
  8
Main lines
  6
HIDDEN
 48
5.0
100
AcDbLine
 10
133.3291888668001
 20
70.97424563035793
 30
0.0
 11
128.5291888668001
 21
70.97424563035793
 31
0.0
  0
LINE
  5
33D
102
{ACAD_XDICTIONARY
360
33B
102
}
330
1F
100
AcDbEntity
  8
Main lines
  6
HIDDEN
 48
5.0
100
AcDbLine
 10
118.5291888668003
 20
70.97424563035793
 30
0.0
 11
123.3291888668002
 21
70.97424563035793
 31
0.0
  0
LINE
  5
340
102
{ACAD_XDICTIONARY
360
33E
102
}
330
1F
100
AcDbEntity
  8
Main lines
  6
HIDDEN
 48
5.0
100
AcDbLine
 10
108.5291888668003
 20
70.97424563035804
 30
0.0
 11
113.3291888668002
 21
70.97424563035793
 31
0.0
  0
LINE
  5
343
102
{ACAD_XDICTIONARY
360
341
102
}
330
1F
100
AcDbEntity
  8
Main lines
  6
HIDDEN
 48
5.0
100
AcDbLine
 10
98.52918886680025
 20
70.97424563035804
 30
0.0
 11
103.3291888668002
 21
70.97424563035804
 31
0.0
  0
LINE
  5
346
102
{ACAD_XDICTIONARY
360
344
102
}
330
1F
100
AcDbEntity
  8
Main lines
  6
HIDDEN
 48
5.0
100
AcDbLine
 10
93.32918886680018
 20
70.97424563035804
 30
0.0
 11
88.5291888668002
 21
70.97424563035804
 31
0.0
  0
LINE
  5
349
102
{ACAD_XDICTIONARY
360
347
102
}
330
1F
100
AcDbEntity
  8
Main lines
  6
HIDDEN
 48
5.0
100
AcDbLine
 10
88.32918886680021
 20
114.974245630358
 30
0.0
 11
83.5291888668002
 21
114.974245630358
 31
0.0
  0
LINE
  5
34C
102
{ACAD_XDICTIONARY
360
34A
102
}
330
1F
100
AcDbEntity
  8
Main lines
  6
HIDDEN
 48
5.0
100
AcDbLine
 10
83.32918886680018
 20
70.97424563035804
 30
0.0
 11
78.5291888668002
 21
70.97424563035793
 31
0.0
  0
LINE
  5
34F
102
{ACAD_XDICTIONARY
360
34D
102
}
330
1F
100
AcDbEntity
  8
Main lines
  6
HIDDEN
 48
5.0
100
AcDbLine
 10
78.32918886680021
 20
114.974245630358
 30
0.0
 11
73.5291888668002
 21
114.974245630358
 31
0.0
  0
LINE
  5
352
102
{ACAD_XDICTIONARY
360
350
102
}
330
1F
100
AcDbEntity
  8
Main lines
  6
HIDDEN
 48
5.0
100
AcDbLine
 10
73.32918886680018
 20
70.97424563035793
 30
0.0
 11
68.5291888668002
 21
70.97424563035793
 31
0.0
  0
ARC
  5
355
102
{ACAD_XDICTIONARY
360
353
102
}
330
1F
100
AcDbEntity
  8
Main lines
 48
5.0
100
AcDbCircle
 10
260.9291888668002
 20
94.97424563035804
 30
0.0
 40
0.5
100
AcDbArc
 50
0.0
 51
180.0
  0
LINE
  5
358
102
{ACAD_XDICTIONARY
360
356
102
}
330
1F
100
AcDbEntity
  8
Main lines
 48
5.0
100
AcDbLine
 10
268.2291888668001
 20
94.97424563035804
 30
0.0
 11
229.1753866516661
 21
94.97424563035804
 31
0.0
  0
LINE
  5
35B
102
{ACAD_XDICTIONARY
360
359
102
}
330
1F
100
AcDbEntity
  8
Main lines
 48
5.0
100
AcDbLine
 10
268.2291888668001
 20
90.97424563035804
 30
0.0
 11
227.4614897252175
 21
90.97424563035804
 31
0.0
  0
LINE
  5
35E
102
{ACAD_XDICTIONARY
360
35C
102
}
330
1F
100
AcDbEntity
  8
Main lines
 48
5.0
100
AcDbLine
 10
227.4614897252175
 20
90.97424563035804
 30
0.0
 11
68.62918886680025
 21
90.97424563035804
 31
0.0
  0
LINE
  5
361
102
{ACAD_XDICTIONARY
360
35F
102
}
330
1F
100
AcDbEntity
  8
Main lines
 48
5.0
100
AcDbLine
 10
229.1753866516661
 20
94.97424563035804
 30
0.0
 11
68.62918886680025
 21
94.97424563035804
 31
0.0
  0
LINE
  5
364
102
{ACAD_XDICTIONARY
360
362
102
}
330
1F
100
AcDbEntity
  8
Main lines
 48
5.0
100
AcDbLine
 10
68.52918886680024
 20
94.97424563035804
 30
0.0
 11
68.52918886680024
 21
90.97424563035804
 31
0.0
  0
LINE
  5
367
102
{ACAD_XDICTIONARY
360
365
102
}
330
1F
100
AcDbEntity
  8
Main lines
 48
5.0
100
AcDbLine
 10
268.3291888668001
 20
94.97424563035804
 30
0.0
 11
268.3291888668001
 21
90.97424563035804
 31
0.0
  0
LINE
  5
36A
102
{ACAD_XDICTIONARY
360
368
102
}
330
1F
100
AcDbEntity
  8
Main lines
 48
5.0
100
AcDbLine
 10
268.2291888668001
 20
90.97424563035804
 30
0.0
 11
268.3291888668001
 21
90.97424563035804
 31
0.0
  0
LINE
  5
36D
102
{ACAD_XDICTIONARY
360
36B
102
}
330
1F
100
AcDbEntity
  8
Main lines
 48
5.0
100
AcDbLine
 10
268.2291888668001
 20
94.97424563035804
 30
0.0
 11
268.3291888668001
 21
94.97424563035804
 31
0.0
  0
LINE
  5
370
102
{ACAD_XDICTIONARY
360
36E
102
}
330
1F
100
AcDbEntity
  8
0
 48
5.0
100
AcDbLine
 10
68.52918886680024
 20
90.97424563035804
 30
0.0
 11
68.62918886680025
 21
90.97424563035804
 31
0.0
  0
LINE
  5
373
102
{ACAD_XDICTIONARY
360
371
102
}
330
1F
100
AcDbEntity
  8
Main lines
 48
5.0
100
AcDbLine
 10
68.52918886680024
 20
94.97424563035804
 30
0.0
 11
68.62918886680025
 21
94.97424563035804
 31
0.0
  0
ARC
  5
376
102
{ACAD_XDICTIONARY
360
374
102
}
330
1F
100
AcDbEntity
  8
Main lines
 48
5.0
100
AcDbCircle
 10
250.9291888668002
 20
94.97424563035804
 30
0.0
 40
0.5
100
AcDbArc
 50
0.0
 51
180.0
  0
ARC
  5
379
102
{ACAD_XDICTIONARY
360
377
102
}
330
1F
100
AcDbEntity
  8
Main lines
 48
5.0
100
AcDbCircle
 10
240.9291888668002
 20
94.97424563035804
 30
0.0
 40
0.5
100
AcDbArc
 50
0.0
 51
180.0
  0
ARC
  5
37C
102
{ACAD_XDICTIONARY
360
37A
102
}
330
1F
100
AcDbEntity
  8
Main lines
 48
5.0
100
AcDbCircle
 10
230.9291888668002
 20
94.97424563035804
 30
0.0
 40
0.5
100
AcDbArc
 50
0.0
 51
180.0
  0
ARC
  5
37F
102
{ACAD_XDICTIONARY
360
37D
102
}
330
1F
100
AcDbEntity
  8
Main lines
 48
5.0
100
AcDbCircle
 10
220.9291888668002
 20
94.97424563035804
 30
0.0
 40
0.5
100
AcDbArc
 50
0.0
 51
180.0
  0
ARC
  5
382
102
{ACAD_XDICTIONARY
360
380
102
}
330
1F
100
AcDbEntity
  8
Main lines
 48
5.0
100
AcDbCircle
 10
210.9291888668002
 20
94.97424563035804
 30
0.0
 40
0.5
100
AcDbArc
 50
0.0
 51
180.0
  0
ARC
  5
385
102
{ACAD_XDICTIONARY
360
383
102
}
330
1F
100
AcDbEntity
  8
Main lines
 48
5.0
100
AcDbCircle
 10
200.9291888668002
 20
94.97424563035804
 30
0.0
 40
0.5
100
AcDbArc
 50
0.0
 51
180.0
  0
ARC
  5
388
102
{ACAD_XDICTIONARY
360
386
102
}
330
1F
100
AcDbEntity
  8
Main lines
 48
5.0
100
AcDbCircle
 10
190.9291888668002
 20
94.97424563035804
 30
0.0
 40
0.5
100
AcDbArc
 50
0.0
 51
180.0
  0
ARC
  5
38B
102
{ACAD_XDICTIONARY
360
389
102
}
330
1F
100
AcDbEntity
  8
Main lines
 48
5.0
100
AcDbCircle
 10
180.9291888668002
 20
94.97424563035804
 30
0.0
 40
0.5
100
AcDbArc
 50
0.0
 51
180.0
  0
ARC
  5
38E
102
{ACAD_XDICTIONARY
360
38C
102
}
330
1F
100
AcDbEntity
  8
Main lines
 48
5.0
100
AcDbCircle
 10
170.9291888668002
 20
94.97424563035804
 30
0.0
 40
0.5
100
AcDbArc
 50
0.0
 51
180.0
  0
ARC
  5
391
102
{ACAD_XDICTIONARY
360
38F
102
}
330
1F
100
AcDbEntity
  8
Main lines
 48
5.0
100
AcDbCircle
 10
160.9291888668002
 20
94.97424563035804
 30
0.0
 40
0.5
100
AcDbArc
 50
0.0
 51
180.0
  0
ARC
  5
394
102
{ACAD_XDICTIONARY
360
392
102
}
330
1F
100
AcDbEntity
  8
Main lines
 48
5.0
100
AcDbCircle
 10
150.9291888668002
 20
94.97424563035804
 30
0.0
 40
0.5
100
AcDbArc
 50
0.0
 51
180.0
  0
ARC
  5
397
102
{ACAD_XDICTIONARY
360
395
102
}
330
1F
100
AcDbEntity
  8
Main lines
 48
5.0
100
AcDbCircle
 10
140.9291888668002
 20
94.97424563035804
 30
0.0
 40
0.5
100
AcDbArc
 50
0.0
 51
180.0
  0
ARC
  5
39A
102
{ACAD_XDICTIONARY
360
398
102
}
330
1F
100
AcDbEntity
  8
Main lines
 48
5.0
100
AcDbCircle
 10
130.9291888668002
 20
94.97424563035804
 30
0.0
 40
0.5
100
AcDbArc
 50
0.0
 51
180.0
  0
ARC
  5
39D
102
{ACAD_XDICTIONARY
360
39B
102
}
330
1F
100
AcDbEntity
  8
Main lines
 48
5.0
100
AcDbCircle
 10
120.9291888668002
 20
94.97424563035804
 30
0.0
 40
0.5
100
AcDbArc
 50
0.0
 51
180.0
  0
ARC
  5
3A0
102
{ACAD_XDICTIONARY
360
39E
102
}
330
1F
100
AcDbEntity
  8
Main lines
 48
5.0
100
AcDbCircle
 10
110.9291888668002
 20
94.97424563035804
 30
0.0
 40
0.5
100
AcDbArc
 50
0.0
 51
180.0
  0
ARC
  5
3A3
102
{ACAD_XDICTIONARY
360
3A1
102
}
330
1F
100
AcDbEntity
  8
Main lines
 48
5.0
100
AcDbCircle
 10
100.9291888668002
 20
94.97424563035804
 30
0.0
 40
0.5
100
AcDbArc
 50
0.0
 51
180.0
  0
ARC
  5
3A6
102
{ACAD_XDICTIONARY
360
3A4
102
}
330
1F
100
AcDbEntity
  8
Main lines
 48
5.0
100
AcDbCircle
 10
90.9291888668002
 20
94.97424563035804
 30
0.0
 40
0.5
100
AcDbArc
 50
0.0
 51
180.0
  0
ARC
  5
3A9
102
{ACAD_XDICTIONARY
360
3A7
102
}
330
1F
100
AcDbEntity
  8
Main lines
 48
5.0
100
AcDbCircle
 10
80.9291888668002
 20
94.97424563035804
 30
0.0
 40
0.5
100
AcDbArc
 50
0.0
 51
180.0
  0
ARC
  5
3AC
102
{ACAD_XDICTIONARY
360
3AA
102
}
330
1F
100
AcDbEntity
  8
Main lines
 48
5.0
100
AcDbCircle
 10
70.9291888668002
 20
94.97424563035804
 30
0.0
 40
0.5
100
AcDbArc
 50
0.0
 51
180.0
  0
LINE
  5
3AF
102
{ACAD_XDICTIONARY
360
3AD
102
}
330
1F
100
AcDbEntity
  8
Main lines
100
AcDbLine
 10
302.4919363775906
 20
101.3075789636913
 30
0.0
 11
302.4919363775906
 21
84.64091229702466
 31
0.0
  0
LINE
  5
3B2
102
{ACAD_XDICTIONARY
360
3B0
102
}
330
1F
100
AcDbEntity
  8
Main lines
100
AcDbLine
 10
310.4919363775906
 20
92.97424563035803
 30
0.0
 11
310.4919363775906
 21
67.97424563035803
 31
0.0
  0
LINE
  5
3B5
102
{ACAD_XDICTIONARY
360
3B3
102
}
330
1F
100
AcDbEntity
  8
Main lines
 48
5.0
100
AcDbLine
 10
355.2419363775906
 20
95.47424563035803
 30
0.0
 11
310.4919363775906
 21
95.47424563035803
 31
0.0
  0
LINE
  5
3B8
102
{ACAD_XDICTIONARY
360
3B6
102
}
330
1F
100
AcDbEntity
  8
Main lines
 48
5.0
100
AcDbLine
 10
358.4919363775906
 20
94.97424563035803
 30
0.0
 11
310.4919363775905
 21
94.97424563035803
 31
0.0
  0
LINE
  5
3BB
102
{ACAD_XDICTIONARY
360
3B9
102
}
330
1F
100
AcDbEntity
  8
Main lines
 48
5.0
100
AcDbLine
 10
310.4919363775906
 20
90.97424563035803
 30
0.0
 11
358.4919363775906
 21
90.97424563035803
 31
0.0
  0
ARC
  5
3BE
102
{ACAD_XDICTIONARY
360
3BC
102
}
330
1F
100
AcDbEntity
  8
Main lines
100
AcDbCircle
 10
295.8137538873156
 20
103.6054905196039
 30
0.0
 40
0.8218175097249439
100
AcDbArc
 50
132.1353425990104
 51
245.0723554387424
  0
LINE
  5
3C1
102
{ACAD_XDICTIONARY
360
3BF
102
}
330
1F
100
AcDbEntity
  8
Main lines
100
AcDbLine
 10
294.9041223794219
 20
115.4394717293571
 30
0.0
 11
297.9145304783093
 21
106.1743882832321
 31
0.0
  0
ARC
  5
3C4
102
{ACAD_XDICTIONARY
360
3C2
102
}
330
1F
100
AcDbEntity
  8
Main lines
100
AcDbCircle
 10
302.4919363775906
 20
117.974245630358
 30
0.0
 40
8.0
100
AcDbArc
 50
0.0
 51
198.4723357155827
  0
ARC
  5
3C7
102
{ACAD_XDICTIONARY
360
3C5
102
}
330
1F
100
AcDbEntity
  8
Main lines
 48
5.0
100
AcDbCircle
 10
302.4919363775906
 20
117.974245630358
 30
0.0
 40
8.5
100
AcDbArc
 50
-90.0
 51
-19.74992279564261
  0
LINE
  5
3CA
102
{ACAD_XDICTIONARY
360
3C8
102
}
330
1F
100
AcDbEntity
  8
Main lines
 48
5.0
100
AcDbLine
 10
302.4919363775905
 20
109.474245630358
 30
0.0
 11
302.4919363775905
 21
106.1743882832321
 31
0.0
  0
LINE
  5
3CD
102
{ACAD_XDICTIONARY
360
3CB
102
}
330
1F
100
AcDbEntity
  8
Main lines
100
AcDbLine
 10
310.4919363775906
 20
92.97424563035803
 30
0.0
 11
310.4919363775906
 21
117.974245630358
 31
0.0
  0
CIRCLE
  5
3CE
330
1F
100
AcDbEntity
  8
Main lines
370
     0
100
AcDbCircle
 10
302.4919363775906
 20
117.974245630358
 30
0.0
 40
3.0
  0
LINE
  5
3D1
102
{ACAD_XDICTIONARY
360
3CF
102
}
330
1F
100
AcDbEntity
  8
Main lines
 48
5.0
100
AcDbLine
 10
297.9145304783093
 20
106.1743882832321
 30
0.0
 11
302.4919363775905
 21
106.1743882832321
 31
0.0
  0
ARC
  5
3D4
102
{ACAD_XDICTIONARY
360
3D2
102
}
330
1F
100
AcDbEntity
  8
Main lines
100
AcDbCircle
 10
302.4919363775906
 20
117.974245630358
 30
0.0
 40
16.66666666666668
100
AcDbArc
 50
-114.9276445612572
 51
-90.0
  0
ARC
  5
3D7
102
{ACAD_XDICTIONARY
360
3D5
102
}
330
1F
100
AcDbEntity
  8
Main lines
100
AcDbCircle
 10
306.4438124461069
 20
91.85555010090808
 30
0.0
 40
16.66666666666667
100
AcDbArc
 50
120.7809281900039
 51
132.1353425990122
  0
POINT
  5
3D8
330
1F
100
AcDbEntity
  8
Main lines
  6
Durchgehend
 48
5.0
100
AcDbPoint
 10
294.9919363775906
 20
103.6054905196039
 30
0.0
  0
POINT
  5
3D9
330
1F
100
AcDbEntity
  8
Main lines
  6
Durchgehend
 48
5.0
100
AcDbPoint
 10
310.4919363775906
 20
107.436685388114
 30
0.0
  0
POINT
  5
3DA
330
1F
100
AcDbEntity
  8
Main lines
  6
Durchgehend
 48
5.0
100
AcDbPoint
 10
310.4919363775906
 20
105.474245630358
 30
0.0
  0
LINE
  5
3DD
102
{ACAD_XDICTIONARY
360
3DB
102
}
330
1F
100
AcDbEntity
  8
Main lines
  6
ByBlock
 48
5.0
100
AcDbLine
 10
310.4919363775906
 20
105.536745630358
 30
0.0
 11
310.4919363775906
 21
107.616685388114
 31
0.0
  0
LINE
  5
3E0
102
{ACAD_XDICTIONARY
360
3DE
102
}
330
1F
100
AcDbEntity
  8
Main lines
 48
5.0
100
AcDbLine
 10
311.6494138078464
 20
90.97424563035803
 30
0.0
 11
310.4919363775906
 21
90.97424563035803
 31
0.0
  0
LINE
  5
3E3
102
{ACAD_XDICTIONARY
360
3E1
102
}
330
1F
100
AcDbEntity
  8
Main lines
100
AcDbLine
 10
294.8633631860115
 20
70.38357563281112
 30
0.0
 11
297.9145304783093
 21
79.77410297748388
 31
0.0
  0
ARC
  5
3E6
102
{ACAD_XDICTIONARY
360
3E4
102
}
330
1F
100
AcDbEntity
  8
Main lines
100
AcDbCircle
 10
302.4919363775906
 20
67.97424563035803
 30
0.0
 40
8.000000000000025
100
AcDbArc
 50
161.5276642844172
 51
360.0
  0
ARC
  5
3E9
102
{ACAD_XDICTIONARY
360
3E7
102
}
330
1F
100
AcDbEntity
  8
Main lines
100
AcDbCircle
 10
295.8137538873156
 20
82.34300074111205
 30
0.0
 40
0.8218175097249794
100
AcDbArc
 50
114.9276445612564
 51
227.8646574009909
  0
CIRCLE
  5
3EA
330
1F
100
AcDbEntity
  8
Main lines
370
     0
100
AcDbCircle
 10
302.4919363775906
 20
67.97424563035803
 30
0.0
 40
3.0
  0
ARC
  5
3ED
102
{ACAD_XDICTIONARY
360
3EB
102
}
330
1F
100
AcDbEntity
  8
Main lines
 48
5.0
100
AcDbCircle
 10
302.4919363775906
 20
67.97424563035803
 30
0.0
 40
8.500000000000002
100
AcDbArc
 50
19.74992279564261
 51
90.0
  0
LINE
  5
3F0
102
{ACAD_XDICTIONARY
360
3EE
102
}
330
1F
100
AcDbEntity
  8
Main lines
 48
5.0
100
AcDbLine
 10
297.9145304783093
 20
79.77410297748388
 30
0.0
 11
310.4919363775905
 21
79.77410297748388
 31
0.0
  0
LINE
  5
3F3
102
{ACAD_XDICTIONARY
360
3F1
102
}
330
1F
100
AcDbEntity
  8
Main lines
 48
5.0
100
AcDbLine
 10
302.4919363775905
 20
76.47424563035803
 30
0.0
 11
302.4919363775905
 21
79.77410297748388
 31
0.0
  0
LINE
  5
3F6
102
{ACAD_XDICTIONARY
360
3F4
102
}
330
1F
100
AcDbEntity
  8
Main lines
 48
5.0
100
AcDbLine
 10
297.9145304783093
 20
79.77410297748388
 30
0.0
 11
302.4919363775905
 21
79.77410297748388
 31
0.0
  0
ARC
  5
3F9
102
{ACAD_XDICTIONARY
360
3F7
102
}
330
1F
100
AcDbEntity
  8
Main lines
100
AcDbCircle
 10
302.4919363775906
 20
67.97424563035803
 30
0.0
 40
16.66666666666663
100
AcDbArc
 50
90.0
 51
114.9276445612572
  0
ARC
  5
3FC
102
{ACAD_XDICTIONARY
360
3FA
102
}
330
1F
100
AcDbEntity
  8
Main lines
100
AcDbCircle
 10
306.4438124461069
 20
94.09294115980792
 30
0.0
 40
16.66666666666664
100
AcDbArc
 50
-132.1353425990124
 51
-120.780928190004
  0
POINT
  5
3FD
330
1F
100
AcDbEntity
  8
Main lines
  6
Durchgehend
 48
5.0
100
AcDbPoint
 10
302.4919363775906
 20
85.6046655487991
 30
0.0
  0
POINT
  5
3FE
330
1F
100
AcDbEntity
  8
Main lines
  6
Durchgehend
 48
5.0
100
AcDbPoint
 10
302.4919363775906
 20
84.89132279023595
 30
0.0
  0
LINE
  5
401
102
{ACAD_XDICTIONARY
360
3FF
102
}
330
1F
100
AcDbEntity
  8
Main lines
  6
ByBlock
 48
5.0
100
AcDbLine
 10
302.4919363775906
 20
84.95382279023595
 30
0.0
 11
302.4919363775906
 21
85.78466554879911
 31
0.0
  0
POINT
  5
402
330
1F
100
AcDbEntity
  8
Main lines
  6
Durchgehend
100
AcDbPoint
 10
302.4919363775906
 20
84.89923328344723
 30
0.0
  0
POINT
  5
403
330
1F
100
AcDbEntity
  8
Main lines
  6
Durchgehend
100
AcDbPoint
 10
302.4919363775906
 20
84.64091229702466
 30
0.0
  0
LINE
  5
406
102
{ACAD_XDICTIONARY
360
404
102
}
330
1F
100
AcDbEntity
  8
Main lines
  6
ByBlock
100
AcDbLine
 10
302.4919363775906
 20
84.70341229702466
 30
0.0
 11
302.4919363775906
 21
85.07923328344724
 31
0.0
  0
LINE
  5
409
102
{ACAD_XDICTIONARY
360
407
102
}
330
1F
100
AcDbEntity
  8
Main lines
  6
ByBlock
 48
5.0
100
AcDbLine
 10
310.4919363775906
 20
80.53674563035803
 30
0.0
 11
310.4919363775906
 21
85.78466554879911
 31
0.0
  0
LINE
  5
40C
102
{ACAD_XDICTIONARY
360
40A
102
}
330
1F
100
AcDbEntity
  8
Main lines
  6
ByBlock
100
AcDbLine
 10
310.4919363775906
 20
80.53674563035803
 30
0.0
 11
310.4919363775906
 21
85.07923328344724
 31
0.0
  0
POINT
  5
40D
330
1F
100
AcDbEntity
  8
Main lines
  6
Durchgehend
 48
5.0
100
AcDbPoint
 10
310.4919363775906
 20
80.47424563035803
 30
0.0
  0
POINT
  5
40E
330
1F
100
AcDbEntity
  8
Main lines
  6
Durchgehend
100
AcDbPoint
 10
310.4919363775906
 20
80.47424563035803
 30
0.0
  0
LINE
  5
411
102
{ACAD_XDICTIONARY
360
40F
102
}
330
1F
100
AcDbEntity
  8
Main lines
 48
5.0
100
AcDbLine
 10
380.4919363775906
 20
94.97424563035803
 30
0.0
 11
380.4919363775906
 21
94.97424563035803
 31
0.0
  0
LINE
  5
414
102
{ACAD_XDICTIONARY
360
412
102
}
330
1F
100
AcDbEntity
  8
Main lines
 48
5.0
100
AcDbLine
 10
355.2419363775906
 20
95.47424563035803
 30
0.0
 11
379.9919363775906
 21
95.47424563035803
 31
0.0
  0
LINE
  5
417
102
{ACAD_XDICTIONARY
360
415
102
}
330
1F
100
AcDbEntity
  8
Main lines
 48
5.0
100
AcDbLine
 10
358.4919363775906
 20
94.97424563035803
 30
0.0
 11
383.4919363775906
 21
94.97424563035803
 31
0.0
  0
LINE
  5
41A
102
{ACAD_XDICTIONARY
360
418
102
}
330
1F
100
AcDbEntity
  8
Main lines
 48
5.0
100
AcDbLine
 10
358.4919363775906
 20
90.97424563035803
 30
0.0
 11
383.4919363775906
 21
90.97424563035803
 31
0.0
  0
LINE
  5
41D
102
{ACAD_XDICTIONARY
360
41B
102
}
330
1F
100
AcDbEntity
  8
Main lines
 48
5.0
100
AcDbLine
 10
310.4919363775906
 20
82.97424563035803
 30
0.0
 11
360.4919363775906
 21
90.97424563035803
 31
0.0
  0
LINE
  5
420
102
{ACAD_XDICTIONARY
360
41E
102
}
330
1F
100
AcDbEntity
  8
Main lines
 48
5.0
100
AcDbLine
 10
310.4919363775906
 20
86.97424563035803
 30
0.0
 11
335.4919363775906
 21
90.97424563035803
 31
0.0
  0
ARC
  5
423
102
{ACAD_XDICTIONARY
360
421
102
}
330
1F
100
AcDbEntity
  8
Main lines
 48
5.0
100
AcDbCircle
 10
379.9919363775906
 20
94.97424563035803
 30
0.0
 40
0.5
100
AcDbArc
 50
0.0
 51
90.0
  0
LINE
  5
426
102
{ACAD_XDICTIONARY
360
424
102
}
330
1F
100
AcDbEntity
  8
Main lines
 48
5.0
100
AcDbLine
 10
385.4919363775906
 20
93.97424563035803
 30
0.0
 11
385.4919363775906
 21
91.97424563035803
 31
0.0
  0
LINE
  5
429
102
{ACAD_XDICTIONARY
360
427
102
}
330
1F
100
AcDbEntity
  8
Main lines
 48
5.0
100
AcDbLine
 10
383.4919363775906
 20
90.97424563035803
 30
0.0
 11
384.4919363775906
 21
90.97424563035803
 31
0.0
  0
LINE
  5
42C
102
{ACAD_XDICTIONARY
360
42A
102
}
330
1F
100
AcDbEntity
  8
Main lines
 48
5.0
100
AcDbLine
 10
383.4919363775906
 20
94.97424563035803
 30
0.0
 11
384.4919363775906
 21
94.97424563035803
 31
0.0
  0
ARC
  5
42F
102
{ACAD_XDICTIONARY
360
42D
102
}
330
1F
100
AcDbEntity
  8
Main lines
 48
5.0
100
AcDbCircle
 10
384.4919363775906
 20
91.97424563035803
 30
0.0
 40
1.0
100
AcDbArc
 50
-90.0
 51
0.0
  0
ARC
  5
432
102
{ACAD_XDICTIONARY
360
430
102
}
330
1F
100
AcDbEntity
  8
Main lines
 48
5.0
100
AcDbCircle
 10
384.4919363775906
 20
93.97424563035803
 30
0.0
 40
1.0
100
AcDbArc
 50
0.0
 51
90.0
  0
VIEWPORT
  5
433
330
1B
100
AcDbEntity
 67
     1
  8
0
100
AcDbViewport
 10
140.0218848823794
 20
101.9028953504165
 30
0.0
 40
280.2283957583874
 41
201.3931063490108
 68
     1
 69
     1
 12
140.0218848823794
 22
101.9028953504165
 13
0.0
 23
0.0
 14
10.0
 24
10.0
 15
10.0
 25
10.0
 16
0.0
 26
0.0
 36
1.0
 17
0.0
 27
0.0
 37
0.0
 42
50.0
 43
0.0
 44
0.0
 45
201.3931063490108
 50
0.0
 51
0.0
 72
  1000
 90
    32800
  1

281
     0
 71
     1
 74
     0
110
0.0
120
0.0
130
0.0
111
1.0
121
0.0
131
0.0
112
0.0
122
1.0
132
0.0
 79
     0
146
0.0
170
     0
  0
VIEWPORT
  5
434
330
1B
100
AcDbEntity
 67
     1
  8
0
  6
$INVISIBLE
100
AcDbViewport
 10
140.0218848823794
 20
101.9028953504165
 30
0.0
 40
280.2283957583874
 41
201.3931063490108
 68
     2
 69
     2
 12
717.1860259187298
 22
392.4295065236427
 13
0.0
 23
0.0
 14
0.5
 24
0.5
 15
0.0
 25
0.0
 16
0.0
 26
0.0
 36
1.0
 17
0.0
 27
0.0
 37
0.0
 42
50.0
 43
0.0
 44
0.0
 45
201.393107068014
 50
0.0
 51
0.0
 72
   100
 90
   557152
  1

281
     0
 71
     1
 74
     0
110
0.0
120
0.0
130
0.0
111
1.0
121
0.0
131
0.0
112
0.0
122
1.0
132
0.0
 79
     0
146
0.0
170
     0
  0
ENDSEC
  0
SECTION
  2
OBJECTS
  0
DICTIONARY
  5
C
330
0
100
AcDbDictionary
281
     1
  3
ACAD_GROUP
350
D
  3
ACAD_LAYOUT
350
1A
  3
ACAD_MLINESTYLE
350
17
  3
ACAD_PLOTSETTINGS
350
19
  3
ACAD_PLOTSTYLENAME
350
E
  3
ACAD_TABLESTYLE
350
436
  3
ACAD_VISUALSTYLE
350
2A
  0
DICTIONARY
  5
59
330
5B
100
AcDbDictionary
280
     1
281
     1
  3
TC_OPTIONAL_DATA
360
5A
  0
DICTIONARY
  5
5C
330
5E
100
AcDbDictionary
280
     1
281
     1
  3
TC_OPTIONAL_DATA
360
5D
  0
DICTIONARY
  5
5F
330
61
100
AcDbDictionary
280
     1
281
     1
  3
TC_OPTIONAL_DATA
360
60
  0
DICTIONARY
  5
62
330
64
100
AcDbDictionary
280
     1
281
     1
  3
TC_OPTIONAL_DATA
360
63
  0
DICTIONARY
  5
65
330
67
100
AcDbDictionary
280
     1
281
     1
  3
TC_OPTIONAL_DATA
360
66
  0
DICTIONARY
  5
68
330
6A
100
AcDbDictionary
280
     1
281
     1
  3
TC_OPTIONAL_DATA
360
69
  0
DICTIONARY
  5
6B
330
6D
100
AcDbDictionary
280
     1
281
     1
  3
TC_OPTIONAL_DATA
360
6C
  0
DICTIONARY
  5
6E
330
70
100
AcDbDictionary
280
     1
281
     1
  3
TC_OPTIONAL_DATA
360
6F
  0
DICTIONARY
  5
71
330
73
100
AcDbDictionary
280
     1
281
     1
  3
TC_OPTIONAL_DATA
360
72
  0
DICTIONARY
  5
74
330
76
100
AcDbDictionary
280
     1
281
     1
  3
TC_OPTIONAL_DATA
360
75
  0
DICTIONARY
  5
77
330
79
100
AcDbDictionary
280
     1
281
     1
  3
TC_OPTIONAL_DATA
360
78
  0
DICTIONARY
  5
7A
330
7C
100
AcDbDictionary
280
     1
281
     1
  3
TC_OPTIONAL_DATA
360
7B
  0
DICTIONARY
  5
7D
330
7F
100
AcDbDictionary
280
     1
281
     1
  3
TC_OPTIONAL_DATA
360
7E
  0
DICTIONARY
  5
80
330
82
100
AcDbDictionary
280
     1
281
     1
  3
TC_OPTIONAL_DATA
360
81
  0
DICTIONARY
  5
83
330
85
100
AcDbDictionary
280
     1
281
     1
  3
TC_OPTIONAL_DATA
360
84
  0
DICTIONARY
  5
86
330
88
100
AcDbDictionary
280
     1
281
     1
  3
TC_OPTIONAL_DATA
360
87
  0
DICTIONARY
  5
89
330
8B
100
AcDbDictionary
280
     1
281
     1
  3
TC_OPTIONAL_DATA
360
8A
  0
DICTIONARY
  5
8C
330
8E
100
AcDbDictionary
280
     1
281
     1
  3
TC_OPTIONAL_DATA
360
8D
  0
DICTIONARY
  5
8F
330
91
100
AcDbDictionary
280
     1
281
     1
  3
TC_OPTIONAL_DATA
360
90
  0
DICTIONARY
  5
92
330
94
100
AcDbDictionary
280
     1
281
     1
  3
TC_OPTIONAL_DATA
360
93
  0
DICTIONARY
  5
95
330
97
100
AcDbDictionary
280
     1
281
     1
  3
TC_OPTIONAL_DATA
360
96
  0
DICTIONARY
  5
98
330
9A
100
AcDbDictionary
280
     1
281
     1
  3
TC_OPTIONAL_DATA
360
99
  0
DICTIONARY
  5
9B
330
9D
100
AcDbDictionary
280
     1
281
     1
  3
TC_OPTIONAL_DATA
360
9C
  0
DICTIONARY
  5
9E
330
A0
100
AcDbDictionary
280
     1
281
     1
  3
TC_OPTIONAL_DATA
360
9F
  0
DICTIONARY
  5
A1
330
A3
100
AcDbDictionary
280
     1
281
     1
  3
TC_OPTIONAL_DATA
360
A2
  0
DICTIONARY
  5
A4
330
A6
100
AcDbDictionary
280
     1
281
     1
  3
TC_OPTIONAL_DATA
360
A5
  0
DICTIONARY
  5
A7
330
A9
100
AcDbDictionary
280
     1
281
     1
  3
TC_OPTIONAL_DATA
360
A8
  0
DICTIONARY
  5
AA
330
AC
100
AcDbDictionary
280
     1
281
     1
  3
TC_OPTIONAL_DATA
360
AB
  0
DICTIONARY
  5
AD
330
AF
100
AcDbDictionary
280
     1
281
     1
  3
TC_OPTIONAL_DATA
360
AE
  0
DICTIONARY
  5
B0
330
B2
100
AcDbDictionary
280
     1
281
     1
  3
TC_OPTIONAL_DATA
360
B1
  0
DICTIONARY
  5
B3
330
B5
100
AcDbDictionary
280
     1
281
     1
  3
TC_OPTIONAL_DATA
360
B4
  0
DICTIONARY
  5
B6
330
B8
100
AcDbDictionary
280
     1
281
     1
  3
TC_OPTIONAL_DATA
360
B7
  0
DICTIONARY
  5
B9
330
BB
100
AcDbDictionary
280
     1
281
     1
  3
TC_OPTIONAL_DATA
360
BA
  0
DICTIONARY
  5
BC
330
BE
100
AcDbDictionary
280
     1
281
     1
  3
TC_OPTIONAL_DATA
360
BD
  0
DICTIONARY
  5
BF
330
C1
100
AcDbDictionary
280
     1
281
     1
  3
TC_OPTIONAL_DATA
360
C0
  0
DICTIONARY
  5
C2
330
C4
100
AcDbDictionary
280
     1
281
     1
  3
TC_OPTIONAL_DATA
360
C3
  0
DICTIONARY
  5
C5
330
C7
100
AcDbDictionary
280
     1
281
     1
  3
TC_OPTIONAL_DATA
360
C6
  0
DICTIONARY
  5
C8
330
CA
100
AcDbDictionary
280
     1
281
     1
  3
TC_OPTIONAL_DATA
360
C9
  0
DICTIONARY
  5
CB
330
CD
100
AcDbDictionary
280
     1
281
     1
  3
TC_OPTIONAL_DATA
360
CC
  0
DICTIONARY
  5
CE
330
D0
100
AcDbDictionary
280
     1
281
     1
  3
TC_OPTIONAL_DATA
360
CF
  0
DICTIONARY
  5
D1
330
D3
100
AcDbDictionary
280
     1
281
     1
  3
TC_OPTIONAL_DATA
360
D2
  0
DICTIONARY
  5
D4
330
D6
100
AcDbDictionary
280
     1
281
     1
  3
TC_OPTIONAL_DATA
360
D5
  0
DICTIONARY
  5
D7
330
D9
100
AcDbDictionary
280
     1
281
     1
  3
TC_OPTIONAL_DATA
360
D8
  0
DICTIONARY
  5
DA
330
DC
100
AcDbDictionary
280
     1
281
     1
  3
TC_OPTIONAL_DATA
360
DB
  0
DICTIONARY
  5
DD
330
DF
100
AcDbDictionary
280
     1
281
     1
  3
TC_OPTIONAL_DATA
360
DE
  0
DICTIONARY
  5
E0
330
E2
100
AcDbDictionary
280
     1
281
     1
  3
TC_OPTIONAL_DATA
360
E1
  0
DICTIONARY
  5
E3
330
E5
100
AcDbDictionary
280
     1
281
     1
  3
TC_OPTIONAL_DATA
360
E4
  0
DICTIONARY
  5
E6
330
E8
100
AcDbDictionary
280
     1
281
     1
  3
TC_OPTIONAL_DATA
360
E7
  0
DICTIONARY
  5
E9
330
EB
100
AcDbDictionary
280
     1
281
     1
  3
TC_OPTIONAL_DATA
360
EA
  0
DICTIONARY
  5
EC
330
EE
100
AcDbDictionary
280
     1
281
     1
  3
TC_OPTIONAL_DATA
360
ED
  0
DICTIONARY
  5
EF
330
F1
100
AcDbDictionary
280
     1
281
     1
  3
TC_OPTIONAL_DATA
360
F0
  0
DICTIONARY
  5
F2
330
F4
100
AcDbDictionary
280
     1
281
     1
  3
TC_OPTIONAL_DATA
360
F3
  0
DICTIONARY
  5
F5
330
F7
100
AcDbDictionary
280
     1
281
     1
  3
TC_OPTIONAL_DATA
360
F6
  0
DICTIONARY
  5
F8
330
FA
100
AcDbDictionary
280
     1
281
     1
  3
TC_OPTIONAL_DATA
360
F9
  0
DICTIONARY
  5
FB
330
FD
100
AcDbDictionary
280
     1
281
     1
  3
TC_OPTIONAL_DATA
360
FC
  0
DICTIONARY
  5
FE
330
100
100
AcDbDictionary
280
     1
281
     1
  3
TC_OPTIONAL_DATA
360
FF
  0
DICTIONARY
  5
101
330
103
100
AcDbDictionary
280
     1
281
     1
  3
TC_OPTIONAL_DATA
360
102
  0
DICTIONARY
  5
104
330
106
100
AcDbDictionary
280
     1
281
     1
  3
TC_OPTIONAL_DATA
360
105
  0
DICTIONARY
  5
107
330
109
100
AcDbDictionary
280
     1
281
     1
  3
TC_OPTIONAL_DATA
360
108
  0
DICTIONARY
  5
10A
330
10C
100
AcDbDictionary
280
     1
281
     1
  3
TC_OPTIONAL_DATA
360
10B
  0
DICTIONARY
  5
10D
330
10F
100
AcDbDictionary
280
     1
281
     1
  3
TC_OPTIONAL_DATA
360
10E
  0
DICTIONARY
  5
110
330
112
100
AcDbDictionary
280
     1
281
     1
  3
TC_OPTIONAL_DATA
360
111
  0
DICTIONARY
  5
113
330
115
100
AcDbDictionary
280
     1
281
     1
  3
TC_OPTIONAL_DATA
360
114
  0
DICTIONARY
  5
116
330
118
100
AcDbDictionary
280
     1
281
     1
  3
TC_OPTIONAL_DATA
360
117
  0
DICTIONARY
  5
119
330
11B
100
AcDbDictionary
280
     1
281
     1
  3
TC_OPTIONAL_DATA
360
11A
  0
DICTIONARY
  5
11C
330
11E
100
AcDbDictionary
280
     1
281
     1
  3
TC_OPTIONAL_DATA
360
11D
  0
DICTIONARY
  5
11F
330
121
100
AcDbDictionary
280
     1
281
     1
  3
TC_OPTIONAL_DATA
360
120
  0
DICTIONARY
  5
122
330
124
100
AcDbDictionary
280
     1
281
     1
  3
TC_OPTIONAL_DATA
360
123
  0
DICTIONARY
  5
125
330
127
100
AcDbDictionary
280
     1
281
     1
  3
TC_OPTIONAL_DATA
360
126
  0
DICTIONARY
  5
128
330
12A
100
AcDbDictionary
280
     1
281
     1
  3
TC_OPTIONAL_DATA
360
129
  0
DICTIONARY
  5
12B
330
12D
100
AcDbDictionary
280
     1
281
     1
  3
TC_OPTIONAL_DATA
360
12C
  0
DICTIONARY
  5
12E
330
130
100
AcDbDictionary
280
     1
281
     1
  3
TC_OPTIONAL_DATA
360
12F
  0
DICTIONARY
  5
131
330
133
100
AcDbDictionary
280
     1
281
     1
  3
TC_OPTIONAL_DATA
360
132
  0
DICTIONARY
  5
134
330
136
100
AcDbDictionary
280
     1
281
     1
  3
TC_OPTIONAL_DATA
360
135
  0
DICTIONARY
  5
137
330
139
100
AcDbDictionary
280
     1
281
     1
  3
TC_OPTIONAL_DATA
360
138
  0
DICTIONARY
  5
13A
330
13C
100
AcDbDictionary
280
     1
281
     1
  3
TC_OPTIONAL_DATA
360
13B
  0
DICTIONARY
  5
13D
330
13F
100
AcDbDictionary
280
     1
281
     1
  3
TC_OPTIONAL_DATA
360
13E
  0
DICTIONARY
  5
140
330
142
100
AcDbDictionary
280
     1
281
     1
  3
TC_OPTIONAL_DATA
360
141
  0
DICTIONARY
  5
143
330
145
100
AcDbDictionary
280
     1
281
     1
  3
TC_OPTIONAL_DATA
360
144
  0
DICTIONARY
  5
146
330
148
100
AcDbDictionary
280
     1
281
     1
  3
TC_OPTIONAL_DATA
360
147
  0
DICTIONARY
  5
149
330
14B
100
AcDbDictionary
280
     1
281
     1
  3
TC_OPTIONAL_DATA
360
14A
  0
DICTIONARY
  5
14C
330
14E
100
AcDbDictionary
280
     1
281
     1
  3
TC_OPTIONAL_DATA
360
14D
  0
DICTIONARY
  5
14F
330
151
100
AcDbDictionary
280
     1
281
     1
  3
TC_OPTIONAL_DATA
360
150
  0
DICTIONARY
  5
152
330
154
100
AcDbDictionary
280
     1
281
     1
  3
TC_OPTIONAL_DATA
360
153
  0
DICTIONARY
  5
155
330
157
100
AcDbDictionary
280
     1
281
     1
  3
TC_OPTIONAL_DATA
360
156
  0
DICTIONARY
  5
158
330
15A
100
AcDbDictionary
280
     1
281
     1
  3
TC_OPTIONAL_DATA
360
159
  0
DICTIONARY
  5
15B
330
15D
100
AcDbDictionary
280
     1
281
     1
  3
TC_OPTIONAL_DATA
360
15C
  0
DICTIONARY
  5
15E
330
160
100
AcDbDictionary
280
     1
281
     1
  3
TC_OPTIONAL_DATA
360
15F
  0
DICTIONARY
  5
161
330
163
100
AcDbDictionary
280
     1
281
     1
  3
TC_OPTIONAL_DATA
360
162
  0
DICTIONARY
  5
164
330
166
100
AcDbDictionary
280
     1
281
     1
  3
TC_OPTIONAL_DATA
360
165
  0
DICTIONARY
  5
167
330
169
100
AcDbDictionary
280
     1
281
     1
  3
TC_OPTIONAL_DATA
360
168
  0
DICTIONARY
  5
16A
330
16C
100
AcDbDictionary
280
     1
281
     1
  3
TC_OPTIONAL_DATA
360
16B
  0
DICTIONARY
  5
16D
330
16F
100
AcDbDictionary
280
     1
281
     1
  3
TC_OPTIONAL_DATA
360
16E
  0
DICTIONARY
  5
170
330
172
100
AcDbDictionary
280
     1
281
     1
  3
TC_OPTIONAL_DATA
360
171
  0
DICTIONARY
  5
173
330
175
100
AcDbDictionary
280
     1
281
     1
  3
TC_OPTIONAL_DATA
360
174
  0
DICTIONARY
  5
176
330
178
100
AcDbDictionary
280
     1
281
     1
  3
TC_OPTIONAL_DATA
360
177
  0
DICTIONARY
  5
179
330
17B
100
AcDbDictionary
280
     1
281
     1
  3
TC_OPTIONAL_DATA
360
17A
  0
DICTIONARY
  5
17C
330
17E
100
AcDbDictionary
280
     1
281
     1
  3
TC_OPTIONAL_DATA
360
17D
  0
DICTIONARY
  5
17F
330
181
100
AcDbDictionary
280
     1
281
     1
  3
TC_OPTIONAL_DATA
360
180
  0
DICTIONARY
  5
182
330
184
100
AcDbDictionary
280
     1
281
     1
  3
TC_OPTIONAL_DATA
360
183
  0
DICTIONARY
  5
185
330
187
100
AcDbDictionary
280
     1
281
     1
  3
TC_OPTIONAL_DATA
360
186
  0
DICTIONARY
  5
188
330
18A
100
AcDbDictionary
280
     1
281
     1
  3
TC_OPTIONAL_DATA
360
189
  0
DICTIONARY
  5
18B
330
18D
100
AcDbDictionary
280
     1
281
     1
  3
TC_OPTIONAL_DATA
360
18C
  0
DICTIONARY
  5
18E
330
190
100
AcDbDictionary
280
     1
281
     1
  3
TC_OPTIONAL_DATA
360
18F
  0
DICTIONARY
  5
191
330
193
100
AcDbDictionary
280
     1
281
     1
  3
TC_OPTIONAL_DATA
360
192
  0
DICTIONARY
  5
194
330
196
100
AcDbDictionary
280
     1
281
     1
  3
TC_OPTIONAL_DATA
360
195
  0
DICTIONARY
  5
197
330
199
100
AcDbDictionary
280
     1
281
     1
  3
TC_OPTIONAL_DATA
360
198
  0
DICTIONARY
  5
19A
330
19C
100
AcDbDictionary
280
     1
281
     1
  3
TC_OPTIONAL_DATA
360
19B
  0
DICTIONARY
  5
19D
330
19F
100
AcDbDictionary
280
     1
281
     1
  3
TC_OPTIONAL_DATA
360
19E
  0
DICTIONARY
  5
1A0
330
1A2
100
AcDbDictionary
280
     1
281
     1
  3
TC_OPTIONAL_DATA
360
1A1
  0
DICTIONARY
  5
1A3
330
1A5
100
AcDbDictionary
280
     1
281
     1
  3
TC_OPTIONAL_DATA
360
1A4
  0
DICTIONARY
  5
1A6
330
1A8
100
AcDbDictionary
280
     1
281
     1
  3
TC_OPTIONAL_DATA
360
1A7
  0
DICTIONARY
  5
1A9
330
1AB
100
AcDbDictionary
280
     1
281
     1
  3
TC_OPTIONAL_DATA
360
1AA
  0
DICTIONARY
  5
1AC
330
1AE
100
AcDbDictionary
280
     1
281
     1
  3
TC_OPTIONAL_DATA
360
1AD
  0
DICTIONARY
  5
1AF
330
1B1
100
AcDbDictionary
280
     1
281
     1
  3
TC_OPTIONAL_DATA
360
1B0
  0
DICTIONARY
  5
1B2
330
1B4
100
AcDbDictionary
280
     1
281
     1
  3
TC_OPTIONAL_DATA
360
1B3
  0
DICTIONARY
  5
1B5
330
1B7
100
AcDbDictionary
280
     1
281
     1
  3
TC_OPTIONAL_DATA
360
1B6
  0
DICTIONARY
  5
1B8
330
1BA
100
AcDbDictionary
280
     1
281
     1
  3
TC_OPTIONAL_DATA
360
1B9
  0
DICTIONARY
  5
1BB
330
1BD
100
AcDbDictionary
280
     1
281
     1
  3
TC_OPTIONAL_DATA
360
1BC
  0
DICTIONARY
  5
1BE
330
1C0
100
AcDbDictionary
280
     1
281
     1
  3
TC_OPTIONAL_DATA
360
1BF
  0
DICTIONARY
  5
1C1
330
1C3
100
AcDbDictionary
280
     1
281
     1
  3
TC_OPTIONAL_DATA
360
1C2
  0
DICTIONARY
  5
1C4
330
1C6
100
AcDbDictionary
280
     1
281
     1
  3
TC_OPTIONAL_DATA
360
1C5
  0
DICTIONARY
  5
1C7
330
1C9
100
AcDbDictionary
280
     1
281
     1
  3
TC_OPTIONAL_DATA
360
1C8
  0
DICTIONARY
  5
1CA
330
1CC
100
AcDbDictionary
280
     1
281
     1
  3
TC_OPTIONAL_DATA
360
1CB
  0
DICTIONARY
  5
1CD
330
1CF
100
AcDbDictionary
280
     1
281
     1
  3
TC_OPTIONAL_DATA
360
1CE
  0
DICTIONARY
  5
1D0
330
1D2
100
AcDbDictionary
280
     1
281
     1
  3
TC_OPTIONAL_DATA
360
1D1
  0
DICTIONARY
  5
1D3
330
1D5
100
AcDbDictionary
280
     1
281
     1
  3
TC_OPTIONAL_DATA
360
1D4
  0
DICTIONARY
  5
1D6
330
1D8
100
AcDbDictionary
280
     1
281
     1
  3
TC_OPTIONAL_DATA
360
1D7
  0
DICTIONARY
  5
1D9
330
1DB
100
AcDbDictionary
280
     1
281
     1
  3
TC_OPTIONAL_DATA
360
1DA
  0
DICTIONARY
  5
1DC
330
1DE
100
AcDbDictionary
280
     1
281
     1
  3
TC_OPTIONAL_DATA
360
1DD
  0
DICTIONARY
  5
1DF
330
1E1
100
AcDbDictionary
280
     1
281
     1
  3
TC_OPTIONAL_DATA
360
1E0
  0
DICTIONARY
  5
1E2
330
1E4
100
AcDbDictionary
280
     1
281
     1
  3
TC_OPTIONAL_DATA
360
1E3
  0
DICTIONARY
  5
1E5
330
1E7
100
AcDbDictionary
280
     1
281
     1
  3
TC_OPTIONAL_DATA
360
1E6
  0
DICTIONARY
  5
1E8
330
1EA
100
AcDbDictionary
280
     1
281
     1
  3
TC_OPTIONAL_DATA
360
1E9
  0
DICTIONARY
  5
1EB
330
1ED
100
AcDbDictionary
280
     1
281
     1
  3
TC_OPTIONAL_DATA
360
1EC
  0
DICTIONARY
  5
1EE
330
1F0
100
AcDbDictionary
280
     1
281
     1
  3
TC_OPTIONAL_DATA
360
1EF
  0
DICTIONARY
  5
1F1
330
1F3
100
AcDbDictionary
280
     1
281
     1
  3
TC_OPTIONAL_DATA
360
1F2
  0
DICTIONARY
  5
1F4
330
1F6
100
AcDbDictionary
280
     1
281
     1
  3
TC_OPTIONAL_DATA
360
1F5
  0
DICTIONARY
  5
1F7
330
1F9
100
AcDbDictionary
280
     1
281
     1
  3
TC_OPTIONAL_DATA
360
1F8
  0
DICTIONARY
  5
1FA
330
1FC
100
AcDbDictionary
280
     1
281
     1
  3
TC_OPTIONAL_DATA
360
1FB
  0
DICTIONARY
  5
1FD
330
1FF
100
AcDbDictionary
280
     1
281
     1
  3
TC_OPTIONAL_DATA
360
1FE
  0
DICTIONARY
  5
200
330
202
100
AcDbDictionary
280
     1
281
     1
  3
TC_OPTIONAL_DATA
360
201
  0
DICTIONARY
  5
203
330
205
100
AcDbDictionary
280
     1
281
     1
  3
TC_OPTIONAL_DATA
360
204
  0
DICTIONARY
  5
206
330
208
100
AcDbDictionary
280
     1
281
     1
  3
TC_OPTIONAL_DATA
360
207
  0
DICTIONARY
  5
209
330
20B
100
AcDbDictionary
280
     1
281
     1
  3
TC_OPTIONAL_DATA
360
20A
  0
DICTIONARY
  5
20C
330
20E
100
AcDbDictionary
280
     1
281
     1
  3
TC_OPTIONAL_DATA
360
20D
  0
DICTIONARY
  5
20F
330
211
100
AcDbDictionary
280
     1
281
     1
  3
TC_OPTIONAL_DATA
360
210
  0
DICTIONARY
  5
212
330
214
100
AcDbDictionary
280
     1
281
     1
  3
TC_OPTIONAL_DATA
360
213
  0
DICTIONARY
  5
215
330
217
100
AcDbDictionary
280
     1
281
     1
  3
TC_OPTIONAL_DATA
360
216
  0
DICTIONARY
  5
218
330
21A
100
AcDbDictionary
280
     1
281
     1
  3
TC_OPTIONAL_DATA
360
219
  0
DICTIONARY
  5
21B
330
21D
100
AcDbDictionary
280
     1
281
     1
  3
TC_OPTIONAL_DATA
360
21C
  0
DICTIONARY
  5
21E
330
220
100
AcDbDictionary
280
     1
281
     1
  3
TC_OPTIONAL_DATA
360
21F
  0
DICTIONARY
  5
221
330
223
100
AcDbDictionary
280
     1
281
     1
  3
TC_OPTIONAL_DATA
360
222
  0
DICTIONARY
  5
224
330
226
100
AcDbDictionary
280
     1
281
     1
  3
TC_OPTIONAL_DATA
360
225
  0
DICTIONARY
  5
227
330
229
100
AcDbDictionary
280
     1
281
     1
  3
TC_OPTIONAL_DATA
360
228
  0
DICTIONARY
  5
22A
330
22C
100
AcDbDictionary
280
     1
281
     1
  3
TC_OPTIONAL_DATA
360
22B
  0
DICTIONARY
  5
22D
330
22F
100
AcDbDictionary
280
     1
281
     1
  3
TC_OPTIONAL_DATA
360
22E
  0
DICTIONARY
  5
230
330
232
100
AcDbDictionary
280
     1
281
     1
  3
TC_OPTIONAL_DATA
360
231
  0
DICTIONARY
  5
233
330
235
100
AcDbDictionary
280
     1
281
     1
  3
TC_OPTIONAL_DATA
360
234
  0
DICTIONARY
  5
236
330
238
100
AcDbDictionary
280
     1
281
     1
  3
TC_OPTIONAL_DATA
360
237
  0
DICTIONARY
  5
239
330
23B
100
AcDbDictionary
280
     1
281
     1
  3
TC_OPTIONAL_DATA
360
23A
  0
DICTIONARY
  5
23C
330
23E
100
AcDbDictionary
280
     1
281
     1
  3
TC_OPTIONAL_DATA
360
23D
  0
DICTIONARY
  5
23F
330
241
100
AcDbDictionary
280
     1
281
     1
  3
TC_OPTIONAL_DATA
360
240
  0
DICTIONARY
  5
242
330
244
100
AcDbDictionary
280
     1
281
     1
  3
TC_OPTIONAL_DATA
360
243
  0
DICTIONARY
  5
245
330
247
100
AcDbDictionary
280
     1
281
     1
  3
TC_OPTIONAL_DATA
360
246
  0
DICTIONARY
  5
248
330
24A
100
AcDbDictionary
280
     1
281
     1
  3
TC_OPTIONAL_DATA
360
249
  0
DICTIONARY
  5
24B
330
24D
100
AcDbDictionary
280
     1
281
     1
  3
TC_OPTIONAL_DATA
360
24C
  0
DICTIONARY
  5
24E
330
250
100
AcDbDictionary
280
     1
281
     1
  3
TC_OPTIONAL_DATA
360
24F
  0
DICTIONARY
  5
251
330
253
100
AcDbDictionary
280
     1
281
     1
  3
TC_OPTIONAL_DATA
360
252
  0
DICTIONARY
  5
254
330
256
100
AcDbDictionary
280
     1
281
     1
  3
TC_OPTIONAL_DATA
360
255
  0
DICTIONARY
  5
257
330
259
100
AcDbDictionary
280
     1
281
     1
  3
TC_OPTIONAL_DATA
360
258
  0
DICTIONARY
  5
25A
330
25C
100
AcDbDictionary
280
     1
281
     1
  3
TC_OPTIONAL_DATA
360
25B
  0
DICTIONARY
  5
25D
330
25F
100
AcDbDictionary
280
     1
281
     1
  3
TC_OPTIONAL_DATA
360
25E
  0
DICTIONARY
  5
260
330
262
100
AcDbDictionary
280
     1
281
     1
  3
TC_OPTIONAL_DATA
360
261
  0
DICTIONARY
  5
263
330
265
100
AcDbDictionary
280
     1
281
     1
  3
TC_OPTIONAL_DATA
360
264
  0
DICTIONARY
  5
266
330
268
100
AcDbDictionary
280
     1
281
     1
  3
TC_OPTIONAL_DATA
360
267
  0
DICTIONARY
  5
269
330
26B
100
AcDbDictionary
280
     1
281
     1
  3
TC_OPTIONAL_DATA
360
26A
  0
DICTIONARY
  5
26C
330
26E
100
AcDbDictionary
280
     1
281
     1
  3
TC_OPTIONAL_DATA
360
26D
  0
DICTIONARY
  5
26F
330
271
100
AcDbDictionary
280
     1
281
     1
  3
TC_OPTIONAL_DATA
360
270
  0
DICTIONARY
  5
272
330
274
100
AcDbDictionary
280
     1
281
     1
  3
TC_OPTIONAL_DATA
360
273
  0
DICTIONARY
  5
275
330
277
100
AcDbDictionary
280
     1
281
     1
  3
TC_OPTIONAL_DATA
360
276
  0
DICTIONARY
  5
278
330
27A
100
AcDbDictionary
280
     1
281
     1
  3
TC_OPTIONAL_DATA
360
279
  0
DICTIONARY
  5
27B
330
27D
100
AcDbDictionary
280
     1
281
     1
  3
TC_OPTIONAL_DATA
360
27C
  0
DICTIONARY
  5
27E
330
280
100
AcDbDictionary
280
     1
281
     1
  3
TC_OPTIONAL_DATA
360
27F
  0
DICTIONARY
  5
281
330
283
100
AcDbDictionary
280
     1
281
     1
  3
TC_OPTIONAL_DATA
360
282
  0
DICTIONARY
  5
284
330
286
100
AcDbDictionary
280
     1
281
     1
  3
TC_OPTIONAL_DATA
360
285
  0
DICTIONARY
  5
287
330
289
100
AcDbDictionary
280
     1
281
     1
  3
TC_OPTIONAL_DATA
360
288
  0
DICTIONARY
  5
28A
330
28C
100
AcDbDictionary
280
     1
281
     1
  3
TC_OPTIONAL_DATA
360
28B
  0
DICTIONARY
  5
28D
330
28F
100
AcDbDictionary
280
     1
281
     1
  3
TC_OPTIONAL_DATA
360
28E
  0
DICTIONARY
  5
290
330
292
100
AcDbDictionary
280
     1
281
     1
  3
TC_OPTIONAL_DATA
360
291
  0
DICTIONARY
  5
293
330
295
100
AcDbDictionary
280
     1
281
     1
  3
TC_OPTIONAL_DATA
360
294
  0
DICTIONARY
  5
296
330
298
100
AcDbDictionary
280
     1
281
     1
  3
TC_OPTIONAL_DATA
360
297
  0
DICTIONARY
  5
299
330
29B
100
AcDbDictionary
280
     1
281
     1
  3
TC_OPTIONAL_DATA
360
29A
  0
DICTIONARY
  5
29C
330
29E
100
AcDbDictionary
280
     1
281
     1
  3
TC_OPTIONAL_DATA
360
29D
  0
DICTIONARY
  5
29F
330
2A1
100
AcDbDictionary
280
     1
281
     1
  3
TC_OPTIONAL_DATA
360
2A0
  0
DICTIONARY
  5
2A2
330
2A4
100
AcDbDictionary
280
     1
281
     1
  3
TC_OPTIONAL_DATA
360
2A3
  0
DICTIONARY
  5
2A5
330
2A7
100
AcDbDictionary
280
     1
281
     1
  3
TC_OPTIONAL_DATA
360
2A6
  0
DICTIONARY
  5
2A8
330
2AA
100
AcDbDictionary
280
     1
281
     1
  3
TC_OPTIONAL_DATA
360
2A9
  0
DICTIONARY
  5
2AB
330
2AD
100
AcDbDictionary
280
     1
281
     1
  3
TC_OPTIONAL_DATA
360
2AC
  0
DICTIONARY
  5
2AE
330
2B0
100
AcDbDictionary
280
     1
281
     1
  3
TC_OPTIONAL_DATA
360
2AF
  0
DICTIONARY
  5
2B1
330
2B3
100
AcDbDictionary
280
     1
281
     1
  3
TC_OPTIONAL_DATA
360
2B2
  0
DICTIONARY
  5
2B4
330
2B6
100
AcDbDictionary
280
     1
281
     1
  3
TC_OPTIONAL_DATA
360
2B5
  0
DICTIONARY
  5
2B7
330
2B9
100
AcDbDictionary
280
     1
281
     1
  3
TC_OPTIONAL_DATA
360
2B8
  0
DICTIONARY
  5
2BA
330
2BC
100
AcDbDictionary
280
     1
281
     1
  3
TC_OPTIONAL_DATA
360
2BB
  0
DICTIONARY
  5
2BD
330
2BF
100
AcDbDictionary
280
     1
281
     1
  3
TC_OPTIONAL_DATA
360
2BE
  0
DICTIONARY
  5
2C0
330
2C2
100
AcDbDictionary
280
     1
281
     1
  3
TC_OPTIONAL_DATA
360
2C1
  0
DICTIONARY
  5
2C3
330
2C5
100
AcDbDictionary
280
     1
281
     1
  3
TC_OPTIONAL_DATA
360
2C4
  0
DICTIONARY
  5
2C6
330
2C8
100
AcDbDictionary
280
     1
281
     1
  3
TC_OPTIONAL_DATA
360
2C7
  0
DICTIONARY
  5
2C9
330
2CB
100
AcDbDictionary
280
     1
281
     1
  3
TC_OPTIONAL_DATA
360
2CA
  0
DICTIONARY
  5
2CC
330
2CE
100
AcDbDictionary
280
     1
281
     1
  3
TC_OPTIONAL_DATA
360
2CD
  0
DICTIONARY
  5
2CF
330
2D1
100
AcDbDictionary
280
     1
281
     1
  3
TC_OPTIONAL_DATA
360
2D0
  0
DICTIONARY
  5
2D2
330
2D4
100
AcDbDictionary
280
     1
281
     1
  3
TC_OPTIONAL_DATA
360
2D3
  0
DICTIONARY
  5
2D5
330
2D7
100
AcDbDictionary
280
     1
281
     1
  3
TC_OPTIONAL_DATA
360
2D6
  0
DICTIONARY
  5
2D8
330
2DA
100
AcDbDictionary
280
     1
281
     1
  3
TC_OPTIONAL_DATA
360
2D9
  0
DICTIONARY
  5
2DB
330
2DD
100
AcDbDictionary
280
     1
281
     1
  3
TC_OPTIONAL_DATA
360
2DC
  0
DICTIONARY
  5
2DE
330
2E0
100
AcDbDictionary
280
     1
281
     1
  3
TC_OPTIONAL_DATA
360
2DF
  0
DICTIONARY
  5
2E1
330
2E3
100
AcDbDictionary
280
     1
281
     1
  3
TC_OPTIONAL_DATA
360
2E2
  0
DICTIONARY
  5
2E4
330
2E6
100
AcDbDictionary
280
     1
281
     1
  3
TC_OPTIONAL_DATA
360
2E5
  0
DICTIONARY
  5
2E7
330
2E9
100
AcDbDictionary
280
     1
281
     1
  3
TC_OPTIONAL_DATA
360
2E8
  0
DICTIONARY
  5
2EA
330
2EC
100
AcDbDictionary
280
     1
281
     1
  3
TC_OPTIONAL_DATA
360
2EB
  0
DICTIONARY
  5
2ED
330
2EF
100
AcDbDictionary
280
     1
281
     1
  3
TC_OPTIONAL_DATA
360
2EE
  0
DICTIONARY
  5
2F0
330
2F2
100
AcDbDictionary
280
     1
281
     1
  3
TC_OPTIONAL_DATA
360
2F1
  0
DICTIONARY
  5
2F3
330
2F5
100
AcDbDictionary
280
     1
281
     1
  3
TC_OPTIONAL_DATA
360
2F4
  0
DICTIONARY
  5
2F6
330
2F8
100
AcDbDictionary
280
     1
281
     1
  3
TC_OPTIONAL_DATA
360
2F7
  0
DICTIONARY
  5
2F9
330
2FB
100
AcDbDictionary
280
     1
281
     1
  3
TC_OPTIONAL_DATA
360
2FA
  0
DICTIONARY
  5
2FC
330
2FE
100
AcDbDictionary
280
     1
281
     1
  3
TC_OPTIONAL_DATA
360
2FD
  0
DICTIONARY
  5
2FF
330
301
100
AcDbDictionary
280
     1
281
     1
  3
TC_OPTIONAL_DATA
360
300
  0
DICTIONARY
  5
302
330
304
100
AcDbDictionary
280
     1
281
     1
  3
TC_OPTIONAL_DATA
360
303
  0
DICTIONARY
  5
305
330
307
100
AcDbDictionary
280
     1
281
     1
  3
TC_OPTIONAL_DATA
360
306
  0
DICTIONARY
  5
308
330
30A
100
AcDbDictionary
280
     1
281
     1
  3
TC_OPTIONAL_DATA
360
309
  0
DICTIONARY
  5
30B
330
30D
100
AcDbDictionary
280
     1
281
     1
  3
TC_OPTIONAL_DATA
360
30C
  0
DICTIONARY
  5
30E
330
310
100
AcDbDictionary
280
     1
281
     1
  3
TC_OPTIONAL_DATA
360
30F
  0
DICTIONARY
  5
311
330
313
100
AcDbDictionary
280
     1
281
     1
  3
TC_OPTIONAL_DATA
360
312
  0
DICTIONARY
  5
314
330
316
100
AcDbDictionary
280
     1
281
     1
  3
TC_OPTIONAL_DATA
360
315
  0
DICTIONARY
  5
317
330
319
100
AcDbDictionary
280
     1
281
     1
  3
TC_OPTIONAL_DATA
360
318
  0
DICTIONARY
  5
31A
330
31C
100
AcDbDictionary
280
     1
281
     1
  3
TC_OPTIONAL_DATA
360
31B
  0
DICTIONARY
  5
31D
330
31F
100
AcDbDictionary
280
     1
281
     1
  3
TC_OPTIONAL_DATA
360
31E
  0
DICTIONARY
  5
320
330
322
100
AcDbDictionary
280
     1
281
     1
  3
TC_OPTIONAL_DATA
360
321
  0
DICTIONARY
  5
323
330
325
100
AcDbDictionary
280
     1
281
     1
  3
TC_OPTIONAL_DATA
360
324
  0
DICTIONARY
  5
326
330
328
100
AcDbDictionary
280
     1
281
     1
  3
TC_OPTIONAL_DATA
360
327
  0
DICTIONARY
  5
329
330
32B
100
AcDbDictionary
280
     1
281
     1
  3
TC_OPTIONAL_DATA
360
32A
  0
DICTIONARY
  5
32C
330
32E
100
AcDbDictionary
280
     1
281
     1
  3
TC_OPTIONAL_DATA
360
32D
  0
DICTIONARY
  5
32F
330
331
100
AcDbDictionary
280
     1
281
     1
  3
TC_OPTIONAL_DATA
360
330
  0
DICTIONARY
  5
332
330
334
100
AcDbDictionary
280
     1
281
     1
  3
TC_OPTIONAL_DATA
360
333
  0
DICTIONARY
  5
335
330
337
100
AcDbDictionary
280
     1
281
     1
  3
TC_OPTIONAL_DATA
360
336
  0
DICTIONARY
  5
338
330
33A
100
AcDbDictionary
280
     1
281
     1
  3
TC_OPTIONAL_DATA
360
339
  0
DICTIONARY
  5
33B
330
33D
100
AcDbDictionary
280
     1
281
     1
  3
TC_OPTIONAL_DATA
360
33C
  0
DICTIONARY
  5
33E
330
340
100
AcDbDictionary
280
     1
281
     1
  3
TC_OPTIONAL_DATA
360
33F
  0
DICTIONARY
  5
341
330
343
100
AcDbDictionary
280
     1
281
     1
  3
TC_OPTIONAL_DATA
360
342
  0
DICTIONARY
  5
344
330
346
100
AcDbDictionary
280
     1
281
     1
  3
TC_OPTIONAL_DATA
360
345
  0
DICTIONARY
  5
347
330
349
100
AcDbDictionary
280
     1
281
     1
  3
TC_OPTIONAL_DATA
360
348
  0
DICTIONARY
  5
34A
330
34C
100
AcDbDictionary
280
     1
281
     1
  3
TC_OPTIONAL_DATA
360
34B
  0
DICTIONARY
  5
34D
330
34F
100
AcDbDictionary
280
     1
281
     1
  3
TC_OPTIONAL_DATA
360
34E
  0
DICTIONARY
  5
350
330
352
100
AcDbDictionary
280
     1
281
     1
  3
TC_OPTIONAL_DATA
360
351
  0
DICTIONARY
  5
353
330
355
100
AcDbDictionary
280
     1
281
     1
  3
TC_OPTIONAL_DATA
360
354
  0
DICTIONARY
  5
356
330
358
100
AcDbDictionary
280
     1
281
     1
  3
TC_OPTIONAL_DATA
360
357
  0
DICTIONARY
  5
359
330
35B
100
AcDbDictionary
280
     1
281
     1
  3
TC_OPTIONAL_DATA
360
35A
  0
DICTIONARY
  5
35C
330
35E
100
AcDbDictionary
280
     1
281
     1
  3
TC_OPTIONAL_DATA
360
35D
  0
DICTIONARY
  5
35F
330
361
100
AcDbDictionary
280
     1
281
     1
  3
TC_OPTIONAL_DATA
360
360
  0
DICTIONARY
  5
362
330
364
100
AcDbDictionary
280
     1
281
     1
  3
TC_OPTIONAL_DATA
360
363
  0
DICTIONARY
  5
365
330
367
100
AcDbDictionary
280
     1
281
     1
  3
TC_OPTIONAL_DATA
360
366
  0
DICTIONARY
  5
368
330
36A
100
AcDbDictionary
280
     1
281
     1
  3
TC_OPTIONAL_DATA
360
369
  0
DICTIONARY
  5
36B
330
36D
100
AcDbDictionary
280
     1
281
     1
  3
TC_OPTIONAL_DATA
360
36C
  0
DICTIONARY
  5
36E
330
370
100
AcDbDictionary
280
     1
281
     1
  3
TC_OPTIONAL_DATA
360
36F
  0
DICTIONARY
  5
371
330
373
100
AcDbDictionary
280
     1
281
     1
  3
TC_OPTIONAL_DATA
360
372
  0
DICTIONARY
  5
374
330
376
100
AcDbDictionary
280
     1
281
     1
  3
TC_OPTIONAL_DATA
360
375
  0
DICTIONARY
  5
377
330
379
100
AcDbDictionary
280
     1
281
     1
  3
TC_OPTIONAL_DATA
360
378
  0
DICTIONARY
  5
37A
330
37C
100
AcDbDictionary
280
     1
281
     1
  3
TC_OPTIONAL_DATA
360
37B
  0
DICTIONARY
  5
37D
330
37F
100
AcDbDictionary
280
     1
281
     1
  3
TC_OPTIONAL_DATA
360
37E
  0
DICTIONARY
  5
380
330
382
100
AcDbDictionary
280
     1
281
     1
  3
TC_OPTIONAL_DATA
360
381
  0
DICTIONARY
  5
383
330
385
100
AcDbDictionary
280
     1
281
     1
  3
TC_OPTIONAL_DATA
360
384
  0
DICTIONARY
  5
386
330
388
100
AcDbDictionary
280
     1
281
     1
  3
TC_OPTIONAL_DATA
360
387
  0
DICTIONARY
  5
389
330
38B
100
AcDbDictionary
280
     1
281
     1
  3
TC_OPTIONAL_DATA
360
38A
  0
DICTIONARY
  5
38C
330
38E
100
AcDbDictionary
280
     1
281
     1
  3
TC_OPTIONAL_DATA
360
38D
  0
DICTIONARY
  5
38F
330
391
100
AcDbDictionary
280
     1
281
     1
  3
TC_OPTIONAL_DATA
360
390
  0
DICTIONARY
  5
392
330
394
100
AcDbDictionary
280
     1
281
     1
  3
TC_OPTIONAL_DATA
360
393
  0
DICTIONARY
  5
395
330
397
100
AcDbDictionary
280
     1
281
     1
  3
TC_OPTIONAL_DATA
360
396
  0
DICTIONARY
  5
398
330
39A
100
AcDbDictionary
280
     1
281
     1
  3
TC_OPTIONAL_DATA
360
399
  0
DICTIONARY
  5
39B
330
39D
100
AcDbDictionary
280
     1
281
     1
  3
TC_OPTIONAL_DATA
360
39C
  0
DICTIONARY
  5
39E
330
3A0
100
AcDbDictionary
280
     1
281
     1
  3
TC_OPTIONAL_DATA
360
39F
  0
DICTIONARY
  5
3A1
330
3A3
100
AcDbDictionary
280
     1
281
     1
  3
TC_OPTIONAL_DATA
360
3A2
  0
DICTIONARY
  5
3A4
330
3A6
100
AcDbDictionary
280
     1
281
     1
  3
TC_OPTIONAL_DATA
360
3A5
  0
DICTIONARY
  5
3A7
330
3A9
100
AcDbDictionary
280
     1
281
     1
  3
TC_OPTIONAL_DATA
360
3A8
  0
DICTIONARY
  5
3AA
330
3AC
100
AcDbDictionary
280
     1
281
     1
  3
TC_OPTIONAL_DATA
360
3AB
  0
DICTIONARY
  5
3AD
330
3AF
100
AcDbDictionary
280
     1
281
     1
  3
TC_OPTIONAL_DATA
360
3AE
  0
DICTIONARY
  5
3B0
330
3B2
100
AcDbDictionary
280
     1
281
     1
  3
TC_OPTIONAL_DATA
360
3B1
  0
DICTIONARY
  5
3B3
330
3B5
100
AcDbDictionary
280
     1
281
     1
  3
TC_OPTIONAL_DATA
360
3B4
  0
DICTIONARY
  5
3B6
330
3B8
100
AcDbDictionary
280
     1
281
     1
  3
TC_OPTIONAL_DATA
360
3B7
  0
DICTIONARY
  5
3B9
330
3BB
100
AcDbDictionary
280
     1
281
     1
  3
TC_OPTIONAL_DATA
360
3BA
  0
DICTIONARY
  5
3BC
330
3BE
100
AcDbDictionary
280
     1
281
     1
  3
TC_OPTIONAL_DATA
360
3BD
  0
DICTIONARY
  5
3BF
330
3C1
100
AcDbDictionary
280
     1
281
     1
  3
TC_OPTIONAL_DATA
360
3C0
  0
DICTIONARY
  5
3C2
330
3C4
100
AcDbDictionary
280
     1
281
     1
  3
TC_OPTIONAL_DATA
360
3C3
  0
DICTIONARY
  5
3C5
330
3C7
100
AcDbDictionary
280
     1
281
     1
  3
TC_OPTIONAL_DATA
360
3C6
  0
DICTIONARY
  5
3C8
330
3CA
100
AcDbDictionary
280
     1
281
     1
  3
TC_OPTIONAL_DATA
360
3C9
  0
DICTIONARY
  5
3CB
330
3CD
100
AcDbDictionary
280
     1
281
     1
  3
TC_OPTIONAL_DATA
360
3CC
  0
DICTIONARY
  5
3CF
330
3D1
100
AcDbDictionary
280
     1
281
     1
  3
TC_OPTIONAL_DATA
360
3D0
  0
DICTIONARY
  5
3D2
330
3D4
100
AcDbDictionary
280
     1
281
     1
  3
TC_OPTIONAL_DATA
360
3D3
  0
DICTIONARY
  5
3D5
330
3D7
100
AcDbDictionary
280
     1
281
     1
  3
TC_OPTIONAL_DATA
360
3D6
  0
DICTIONARY
  5
3DB
330
3DD
100
AcDbDictionary
280
     1
281
     1
  3
TC_OPTIONAL_DATA
360
3DC
  0
DICTIONARY
  5
3DE
330
3E0
100
AcDbDictionary
280
     1
281
     1
  3
TC_OPTIONAL_DATA
360
3DF
  0
DICTIONARY
  5
3E1
330
3E3
100
AcDbDictionary
280
     1
281
     1
  3
TC_OPTIONAL_DATA
360
3E2
  0
DICTIONARY
  5
3E4
330
3E6
100
AcDbDictionary
280
     1
281
     1
  3
TC_OPTIONAL_DATA
360
3E5
  0
DICTIONARY
  5
3E7
330
3E9
100
AcDbDictionary
280
     1
281
     1
  3
TC_OPTIONAL_DATA
360
3E8
  0
DICTIONARY
  5
3EB
330
3ED
100
AcDbDictionary
280
     1
281
     1
  3
TC_OPTIONAL_DATA
360
3EC
  0
DICTIONARY
  5
3EE
330
3F0
100
AcDbDictionary
280
     1
281
     1
  3
TC_OPTIONAL_DATA
360
3EF
  0
DICTIONARY
  5
3F1
330
3F3
100
AcDbDictionary
280
     1
281
     1
  3
TC_OPTIONAL_DATA
360
3F2
  0
DICTIONARY
  5
3F4
330
3F6
100
AcDbDictionary
280
     1
281
     1
  3
TC_OPTIONAL_DATA
360
3F5
  0
DICTIONARY
  5
3F7
330
3F9
100
AcDbDictionary
280
     1
281
     1
  3
TC_OPTIONAL_DATA
360
3F8
  0
DICTIONARY
  5
3FA
330
3FC
100
AcDbDictionary
280
     1
281
     1
  3
TC_OPTIONAL_DATA
360
3FB
  0
DICTIONARY
  5
3FF
330
401
100
AcDbDictionary
280
     1
281
     1
  3
TC_OPTIONAL_DATA
360
400
  0
DICTIONARY
  5
404
330
406
100
AcDbDictionary
280
     1
281
     1
  3
TC_OPTIONAL_DATA
360
405
  0
DICTIONARY
  5
407
330
409
100
AcDbDictionary
280
     1
281
     1
  3
TC_OPTIONAL_DATA
360
408
  0
DICTIONARY
  5
40A
330
40C
100
AcDbDictionary
280
     1
281
     1
  3
TC_OPTIONAL_DATA
360
40B
  0
DICTIONARY
  5
40F
330
411
100
AcDbDictionary
280
     1
281
     1
  3
TC_OPTIONAL_DATA
360
410
  0
DICTIONARY
  5
412
330
414
100
AcDbDictionary
280
     1
281
     1
  3
TC_OPTIONAL_DATA
360
413
  0
DICTIONARY
  5
415
330
417
100
AcDbDictionary
280
     1
281
     1
  3
TC_OPTIONAL_DATA
360
416
  0
DICTIONARY
  5
418
330
41A
100
AcDbDictionary
280
     1
281
     1
  3
TC_OPTIONAL_DATA
360
419
  0
DICTIONARY
  5
41B
330
41D
100
AcDbDictionary
280
     1
281
     1
  3
TC_OPTIONAL_DATA
360
41C
  0
DICTIONARY
  5
41E
330
420
100
AcDbDictionary
280
     1
281
     1
  3
TC_OPTIONAL_DATA
360
41F
  0
DICTIONARY
  5
421
330
423
100
AcDbDictionary
280
     1
281
     1
  3
TC_OPTIONAL_DATA
360
422
  0
DICTIONARY
  5
424
330
426
100
AcDbDictionary
280
     1
281
     1
  3
TC_OPTIONAL_DATA
360
425
  0
DICTIONARY
  5
427
330
429
100
AcDbDictionary
280
     1
281
     1
  3
TC_OPTIONAL_DATA
360
428
  0
DICTIONARY
  5
42A
330
42C
100
AcDbDictionary
280
     1
281
     1
  3
TC_OPTIONAL_DATA
360
42B
  0
DICTIONARY
  5
42D
330
42F
100
AcDbDictionary
280
     1
281
     1
  3
TC_OPTIONAL_DATA
360
42E
  0
DICTIONARY
  5
430
330
432
100
AcDbDictionary
280
     1
281
     1
  3
TC_OPTIONAL_DATA
360
431
  0
DICTIONARY
  5
D
102
{ACAD_REACTORS
330
C
102
}
330
C
100
AcDbDictionary
281
     1
  0
DICTIONARY
  5
1A
102
{ACAD_REACTORS
330
C
102
}
330
C
100
AcDbDictionary
281
     1
  3
Layout1
350
1E
  3
Layout2
350
3C
  3
Model
350
22
  0
DICTIONARY
  5
17
102
{ACAD_REACTORS
330
C
102
}
330
C
100
AcDbDictionary
281
     1
  3
Standard
350
18
  0
DICTIONARY
  5
19
102
{ACAD_REACTORS
330
C
102
}
330
C
100
AcDbDictionary
281
     1
  0
ACDBDICTIONARYWDFLT
  5
E
102
{ACAD_REACTORS
330
C
102
}
330
C
100
AcDbDictionary
281
     1
  3
Normal
350
F
100
AcDbDictionaryWithDefault
340
F
  0
DICTIONARY
  5
436
102
{ACAD_REACTORS
330
C
102
}
330
C
100
AcDbDictionary
281
     1
  0
DICTIONARY
  5
2A
102
{ACAD_REACTORS
330
C
102
}
330
C
100
AcDbDictionary
281
     1
  3
2dWireframe
350
2F
  3
3D Hidden
350
31
  3
3dWireframe
350
30
  3
Basic
350
32
  3
Brighten
350
36
  3
ColorChange
350
3A
  3
Conceptual
350
34
  3
Dim
350
35
  3
Facepattern
350
39
  3
Flat
350
2B
  3
FlatWithEdges
350
2C
  3
Gouraud
350
2D
  3
GouraudWithEdges
350
2E
  3
Linepattern
350
38
  3
Realistic
350
33
  3
Thicken
350
37
  0
TCOPTIONALDATA
  5
5A
102
{ACAD_REACTORS
330
59
102
}
330
59
100
TcOptionalData
 70
     1
 70
    32
 40
-3.0
  0
TCOPTIONALDATA
  5
5D
102
{ACAD_REACTORS
330
5C
102
}
330
5C
100
TcOptionalData
 70
     1
 70
    32
 40
-3.0
  0
TCOPTIONALDATA
  5
60
102
{ACAD_REACTORS
330
5F
102
}
330
5F
100
TcOptionalData
 70
     1
 70
    32
 40
-3.0
  0
TCOPTIONALDATA
  5
63
102
{ACAD_REACTORS
330
62
102
}
330
62
100
TcOptionalData
 70
     1
 70
    32
 40
-3.0
  0
TCOPTIONALDATA
  5
66
102
{ACAD_REACTORS
330
65
102
}
330
65
100
TcOptionalData
 70
     1
 70
    32
 40
-3.0
  0
TCOPTIONALDATA
  5
69
102
{ACAD_REACTORS
330
68
102
}
330
68
100
TcOptionalData
 70
     1
 70
    32
 40
-3.0
  0
TCOPTIONALDATA
  5
6C
102
{ACAD_REACTORS
330
6B
102
}
330
6B
100
TcOptionalData
 70
     1
 70
    32
 40
-3.0
  0
TCOPTIONALDATA
  5
6F
102
{ACAD_REACTORS
330
6E
102
}
330
6E
100
TcOptionalData
 70
     1
 70
    32
 40
-3.0
  0
TCOPTIONALDATA
  5
72
102
{ACAD_REACTORS
330
71
102
}
330
71
100
TcOptionalData
 70
     1
 70
    32
 40
-3.0
  0
TCOPTIONALDATA
  5
75
102
{ACAD_REACTORS
330
74
102
}
330
74
100
TcOptionalData
 70
     1
 70
    32
 40
-3.0
  0
TCOPTIONALDATA
  5
78
102
{ACAD_REACTORS
330
77
102
}
330
77
100
TcOptionalData
 70
     1
 70
    32
 40
-3.0
  0
TCOPTIONALDATA
  5
7B
102
{ACAD_REACTORS
330
7A
102
}
330
7A
100
TcOptionalData
 70
     1
 70
    32
 40
-3.0
  0
TCOPTIONALDATA
  5
7E
102
{ACAD_REACTORS
330
7D
102
}
330
7D
100
TcOptionalData
 70
     1
 70
    32
 40
-3.0
  0
TCOPTIONALDATA
  5
81
102
{ACAD_REACTORS
330
80
102
}
330
80
100
TcOptionalData
 70
     1
 70
    32
 40
-3.0
  0
TCOPTIONALDATA
  5
84
102
{ACAD_REACTORS
330
83
102
}
330
83
100
TcOptionalData
 70
     1
 70
    32
 40
-3.0
  0
TCOPTIONALDATA
  5
87
102
{ACAD_REACTORS
330
86
102
}
330
86
100
TcOptionalData
 70
     1
 70
    32
 40
-3.0
  0
TCOPTIONALDATA
  5
8A
102
{ACAD_REACTORS
330
89
102
}
330
89
100
TcOptionalData
 70
     1
 70
    32
 40
-3.0
  0
TCOPTIONALDATA
  5
8D
102
{ACAD_REACTORS
330
8C
102
}
330
8C
100
TcOptionalData
 70
     1
 70
    32
 40
-3.0
  0
TCOPTIONALDATA
  5
90
102
{ACAD_REACTORS
330
8F
102
}
330
8F
100
TcOptionalData
 70
     1
 70
    32
 40
-3.0
  0
TCOPTIONALDATA
  5
93
102
{ACAD_REACTORS
330
92
102
}
330
92
100
TcOptionalData
 70
     1
 70
    32
 40
-3.0
  0
TCOPTIONALDATA
  5
96
102
{ACAD_REACTORS
330
95
102
}
330
95
100
TcOptionalData
 70
     1
 70
    32
 40
-3.0
  0
TCOPTIONALDATA
  5
99
102
{ACAD_REACTORS
330
98
102
}
330
98
100
TcOptionalData
 70
     1
 70
    32
 40
-3.0
  0
TCOPTIONALDATA
  5
9C
102
{ACAD_REACTORS
330
9B
102
}
330
9B
100
TcOptionalData
 70
     1
 70
    32
 40
-3.0
  0
TCOPTIONALDATA
  5
9F
102
{ACAD_REACTORS
330
9E
102
}
330
9E
100
TcOptionalData
 70
     1
 70
    32
 40
-3.0
  0
TCOPTIONALDATA
  5
A2
102
{ACAD_REACTORS
330
A1
102
}
330
A1
100
TcOptionalData
 70
     1
 70
    32
 40
-3.0
  0
TCOPTIONALDATA
  5
A5
102
{ACAD_REACTORS
330
A4
102
}
330
A4
100
TcOptionalData
 70
     1
 70
    32
 40
-3.0
  0
TCOPTIONALDATA
  5
A8
102
{ACAD_REACTORS
330
A7
102
}
330
A7
100
TcOptionalData
 70
     1
 70
    32
 40
-3.0
  0
TCOPTIONALDATA
  5
AB
102
{ACAD_REACTORS
330
AA
102
}
330
AA
100
TcOptionalData
 70
     1
 70
    32
 40
-3.0
  0
TCOPTIONALDATA
  5
AE
102
{ACAD_REACTORS
330
AD
102
}
330
AD
100
TcOptionalData
 70
     1
 70
    32
 40
-3.0
  0
TCOPTIONALDATA
  5
B1
102
{ACAD_REACTORS
330
B0
102
}
330
B0
100
TcOptionalData
 70
     1
 70
    32
 40
-3.0
  0
TCOPTIONALDATA
  5
B4
102
{ACAD_REACTORS
330
B3
102
}
330
B3
100
TcOptionalData
 70
     1
 70
    32
 40
-3.0
  0
TCOPTIONALDATA
  5
B7
102
{ACAD_REACTORS
330
B6
102
}
330
B6
100
TcOptionalData
 70
     1
 70
    32
 40
-3.0
  0
TCOPTIONALDATA
  5
BA
102
{ACAD_REACTORS
330
B9
102
}
330
B9
100
TcOptionalData
 70
     1
 70
    32
 40
-3.0
  0
TCOPTIONALDATA
  5
BD
102
{ACAD_REACTORS
330
BC
102
}
330
BC
100
TcOptionalData
 70
     1
 70
    32
 40
-3.0
  0
TCOPTIONALDATA
  5
C0
102
{ACAD_REACTORS
330
BF
102
}
330
BF
100
TcOptionalData
 70
     1
 70
    32
 40
-3.0
  0
TCOPTIONALDATA
  5
C3
102
{ACAD_REACTORS
330
C2
102
}
330
C2
100
TcOptionalData
 70
     1
 70
    32
 40
-3.0
  0
TCOPTIONALDATA
  5
C6
102
{ACAD_REACTORS
330
C5
102
}
330
C5
100
TcOptionalData
 70
     1
 70
    32
 40
-3.0
  0
TCOPTIONALDATA
  5
C9
102
{ACAD_REACTORS
330
C8
102
}
330
C8
100
TcOptionalData
 70
     1
 70
    32
 40
-3.0
  0
TCOPTIONALDATA
  5
CC
102
{ACAD_REACTORS
330
CB
102
}
330
CB
100
TcOptionalData
 70
     1
 70
    32
 40
-3.0
  0
TCOPTIONALDATA
  5
CF
102
{ACAD_REACTORS
330
CE
102
}
330
CE
100
TcOptionalData
 70
     1
 70
    32
 40
-3.0
  0
TCOPTIONALDATA
  5
D2
102
{ACAD_REACTORS
330
D1
102
}
330
D1
100
TcOptionalData
 70
     1
 70
    32
 40
-3.0
  0
TCOPTIONALDATA
  5
D5
102
{ACAD_REACTORS
330
D4
102
}
330
D4
100
TcOptionalData
 70
     1
 70
    32
 40
-3.0
  0
TCOPTIONALDATA
  5
D8
102
{ACAD_REACTORS
330
D7
102
}
330
D7
100
TcOptionalData
 70
     1
 70
    32
 40
-3.0
  0
TCOPTIONALDATA
  5
DB
102
{ACAD_REACTORS
330
DA
102
}
330
DA
100
TcOptionalData
 70
     1
 70
    32
 40
-3.0
  0
TCOPTIONALDATA
  5
DE
102
{ACAD_REACTORS
330
DD
102
}
330
DD
100
TcOptionalData
 70
     1
 70
    32
 40
-3.0
  0
TCOPTIONALDATA
  5
E1
102
{ACAD_REACTORS
330
E0
102
}
330
E0
100
TcOptionalData
 70
     1
 70
    32
 40
-3.0
  0
TCOPTIONALDATA
  5
E4
102
{ACAD_REACTORS
330
E3
102
}
330
E3
100
TcOptionalData
 70
     1
 70
    32
 40
-3.0
  0
TCOPTIONALDATA
  5
E7
102
{ACAD_REACTORS
330
E6
102
}
330
E6
100
TcOptionalData
 70
     1
 70
    32
 40
-3.0
  0
TCOPTIONALDATA
  5
EA
102
{ACAD_REACTORS
330
E9
102
}
330
E9
100
TcOptionalData
 70
     1
 70
    32
 40
-3.0
  0
TCOPTIONALDATA
  5
ED
102
{ACAD_REACTORS
330
EC
102
}
330
EC
100
TcOptionalData
 70
     1
 70
    32
 40
-3.0
  0
TCOPTIONALDATA
  5
F0
102
{ACAD_REACTORS
330
EF
102
}
330
EF
100
TcOptionalData
 70
     1
 70
    32
 40
-3.0
  0
TCOPTIONALDATA
  5
F3
102
{ACAD_REACTORS
330
F2
102
}
330
F2
100
TcOptionalData
 70
     1
 70
    32
 40
-3.0
  0
TCOPTIONALDATA
  5
F6
102
{ACAD_REACTORS
330
F5
102
}
330
F5
100
TcOptionalData
 70
     1
 70
    32
 40
-3.0
  0
TCOPTIONALDATA
  5
F9
102
{ACAD_REACTORS
330
F8
102
}
330
F8
100
TcOptionalData
 70
     1
 70
    32
 40
-3.0
  0
TCOPTIONALDATA
  5
FC
102
{ACAD_REACTORS
330
FB
102
}
330
FB
100
TcOptionalData
 70
     1
 70
    32
 40
-3.0
  0
TCOPTIONALDATA
  5
FF
102
{ACAD_REACTORS
330
FE
102
}
330
FE
100
TcOptionalData
 70
     1
 70
    32
 40
-3.0
  0
TCOPTIONALDATA
  5
102
102
{ACAD_REACTORS
330
101
102
}
330
101
100
TcOptionalData
 70
     1
 70
    32
 40
-3.0
  0
TCOPTIONALDATA
  5
105
102
{ACAD_REACTORS
330
104
102
}
330
104
100
TcOptionalData
 70
     1
 70
    32
 40
-3.0
  0
TCOPTIONALDATA
  5
108
102
{ACAD_REACTORS
330
107
102
}
330
107
100
TcOptionalData
 70
     1
 70
    32
 40
-3.0
  0
TCOPTIONALDATA
  5
10B
102
{ACAD_REACTORS
330
10A
102
}
330
10A
100
TcOptionalData
 70
     1
 70
    32
 40
-3.0
  0
TCOPTIONALDATA
  5
10E
102
{ACAD_REACTORS
330
10D
102
}
330
10D
100
TcOptionalData
 70
     1
 70
    32
 40
-3.0
  0
TCOPTIONALDATA
  5
111
102
{ACAD_REACTORS
330
110
102
}
330
110
100
TcOptionalData
 70
     1
 70
    32
 40
-3.0
  0
TCOPTIONALDATA
  5
114
102
{ACAD_REACTORS
330
113
102
}
330
113
100
TcOptionalData
 70
     1
 70
    32
 40
-3.0
  0
TCOPTIONALDATA
  5
117
102
{ACAD_REACTORS
330
116
102
}
330
116
100
TcOptionalData
 70
     1
 70
    32
 40
-3.0
  0
TCOPTIONALDATA
  5
11A
102
{ACAD_REACTORS
330
119
102
}
330
119
100
TcOptionalData
 70
     1
 70
    32
 40
-3.0
  0
TCOPTIONALDATA
  5
11D
102
{ACAD_REACTORS
330
11C
102
}
330
11C
100
TcOptionalData
 70
     1
 70
    32
 40
-3.0
  0
TCOPTIONALDATA
  5
120
102
{ACAD_REACTORS
330
11F
102
}
330
11F
100
TcOptionalData
 70
     1
 70
    32
 40
-3.0
  0
TCOPTIONALDATA
  5
123
102
{ACAD_REACTORS
330
122
102
}
330
122
100
TcOptionalData
 70
     1
 70
    32
 40
-3.0
  0
TCOPTIONALDATA
  5
126
102
{ACAD_REACTORS
330
125
102
}
330
125
100
TcOptionalData
 70
     1
 70
    32
 40
-3.0
  0
TCOPTIONALDATA
  5
129
102
{ACAD_REACTORS
330
128
102
}
330
128
100
TcOptionalData
 70
     1
 70
    32
 40
-3.0
  0
TCOPTIONALDATA
  5
12C
102
{ACAD_REACTORS
330
12B
102
}
330
12B
100
TcOptionalData
 70
     1
 70
    32
 40
-3.0
  0
TCOPTIONALDATA
  5
12F
102
{ACAD_REACTORS
330
12E
102
}
330
12E
100
TcOptionalData
 70
     1
 70
    32
 40
-3.0
  0
TCOPTIONALDATA
  5
132
102
{ACAD_REACTORS
330
131
102
}
330
131
100
TcOptionalData
 70
     1
 70
    32
 40
-3.0
  0
TCOPTIONALDATA
  5
135
102
{ACAD_REACTORS
330
134
102
}
330
134
100
TcOptionalData
 70
     1
 70
    32
 40
-3.0
  0
TCOPTIONALDATA
  5
138
102
{ACAD_REACTORS
330
137
102
}
330
137
100
TcOptionalData
 70
     1
 70
    32
 40
-3.0
  0
TCOPTIONALDATA
  5
13B
102
{ACAD_REACTORS
330
13A
102
}
330
13A
100
TcOptionalData
 70
     1
 70
    32
 40
-3.0
  0
TCOPTIONALDATA
  5
13E
102
{ACAD_REACTORS
330
13D
102
}
330
13D
100
TcOptionalData
 70
     1
 70
    32
 40
-3.0
  0
TCOPTIONALDATA
  5
141
102
{ACAD_REACTORS
330
140
102
}
330
140
100
TcOptionalData
 70
     1
 70
    32
 40
-3.0
  0
TCOPTIONALDATA
  5
144
102
{ACAD_REACTORS
330
143
102
}
330
143
100
TcOptionalData
 70
     1
 70
    32
 40
-3.0
  0
TCOPTIONALDATA
  5
147
102
{ACAD_REACTORS
330
146
102
}
330
146
100
TcOptionalData
 70
     1
 70
    32
 40
-3.0
  0
TCOPTIONALDATA
  5
14A
102
{ACAD_REACTORS
330
149
102
}
330
149
100
TcOptionalData
 70
     1
 70
    32
 40
-3.0
  0
TCOPTIONALDATA
  5
14D
102
{ACAD_REACTORS
330
14C
102
}
330
14C
100
TcOptionalData
 70
     1
 70
    32
 40
-3.0
  0
TCOPTIONALDATA
  5
150
102
{ACAD_REACTORS
330
14F
102
}
330
14F
100
TcOptionalData
 70
     1
 70
    32
 40
-3.0
  0
TCOPTIONALDATA
  5
153
102
{ACAD_REACTORS
330
152
102
}
330
152
100
TcOptionalData
 70
     1
 70
    32
 40
-3.0
  0
TCOPTIONALDATA
  5
156
102
{ACAD_REACTORS
330
155
102
}
330
155
100
TcOptionalData
 70
     1
 70
    32
 40
-3.0
  0
TCOPTIONALDATA
  5
159
102
{ACAD_REACTORS
330
158
102
}
330
158
100
TcOptionalData
 70
     1
 70
    32
 40
-3.0
  0
TCOPTIONALDATA
  5
15C
102
{ACAD_REACTORS
330
15B
102
}
330
15B
100
TcOptionalData
 70
     1
 70
    32
 40
-3.0
  0
TCOPTIONALDATA
  5
15F
102
{ACAD_REACTORS
330
15E
102
}
330
15E
100
TcOptionalData
 70
     1
 70
    32
 40
-3.0
  0
TCOPTIONALDATA
  5
162
102
{ACAD_REACTORS
330
161
102
}
330
161
100
TcOptionalData
 70
     1
 70
    32
 40
-3.0
  0
TCOPTIONALDATA
  5
165
102
{ACAD_REACTORS
330
164
102
}
330
164
100
TcOptionalData
 70
     1
 70
    32
 40
-3.0
  0
TCOPTIONALDATA
  5
168
102
{ACAD_REACTORS
330
167
102
}
330
167
100
TcOptionalData
 70
     1
 70
    32
 40
-3.0
  0
TCOPTIONALDATA
  5
16B
102
{ACAD_REACTORS
330
16A
102
}
330
16A
100
TcOptionalData
 70
     1
 70
    32
 40
-3.0
  0
TCOPTIONALDATA
  5
16E
102
{ACAD_REACTORS
330
16D
102
}
330
16D
100
TcOptionalData
 70
     1
 70
    32
 40
-3.0
  0
TCOPTIONALDATA
  5
171
102
{ACAD_REACTORS
330
170
102
}
330
170
100
TcOptionalData
 70
     1
 70
    32
 40
-3.0
  0
TCOPTIONALDATA
  5
174
102
{ACAD_REACTORS
330
173
102
}
330
173
100
TcOptionalData
 70
     1
 70
    32
 40
-3.0
  0
TCOPTIONALDATA
  5
177
102
{ACAD_REACTORS
330
176
102
}
330
176
100
TcOptionalData
 70
     1
 70
    32
 40
-3.0
  0
TCOPTIONALDATA
  5
17A
102
{ACAD_REACTORS
330
179
102
}
330
179
100
TcOptionalData
 70
     1
 70
    32
 40
-3.0
  0
TCOPTIONALDATA
  5
17D
102
{ACAD_REACTORS
330
17C
102
}
330
17C
100
TcOptionalData
 70
     1
 70
    32
 40
-3.0
  0
TCOPTIONALDATA
  5
180
102
{ACAD_REACTORS
330
17F
102
}
330
17F
100
TcOptionalData
 70
     1
 70
    32
 40
-3.0
  0
TCOPTIONALDATA
  5
183
102
{ACAD_REACTORS
330
182
102
}
330
182
100
TcOptionalData
 70
     1
 70
    32
 40
-3.0
  0
TCOPTIONALDATA
  5
186
102
{ACAD_REACTORS
330
185
102
}
330
185
100
TcOptionalData
 70
     1
 70
    32
 40
-3.0
  0
TCOPTIONALDATA
  5
189
102
{ACAD_REACTORS
330
188
102
}
330
188
100
TcOptionalData
 70
     1
 70
    32
 40
-3.0
  0
TCOPTIONALDATA
  5
18C
102
{ACAD_REACTORS
330
18B
102
}
330
18B
100
TcOptionalData
 70
     1
 70
    32
 40
-3.0
  0
TCOPTIONALDATA
  5
18F
102
{ACAD_REACTORS
330
18E
102
}
330
18E
100
TcOptionalData
 70
     1
 70
    32
 40
-3.0
  0
TCOPTIONALDATA
  5
192
102
{ACAD_REACTORS
330
191
102
}
330
191
100
TcOptionalData
 70
     1
 70
    32
 40
-3.0
  0
TCOPTIONALDATA
  5
195
102
{ACAD_REACTORS
330
194
102
}
330
194
100
TcOptionalData
 70
     1
 70
    32
 40
-3.0
  0
TCOPTIONALDATA
  5
198
102
{ACAD_REACTORS
330
197
102
}
330
197
100
TcOptionalData
 70
     1
 70
    32
 40
-3.0
  0
TCOPTIONALDATA
  5
19B
102
{ACAD_REACTORS
330
19A
102
}
330
19A
100
TcOptionalData
 70
     1
 70
    32
 40
-3.0
  0
TCOPTIONALDATA
  5
19E
102
{ACAD_REACTORS
330
19D
102
}
330
19D
100
TcOptionalData
 70
     1
 70
    32
 40
-3.0
  0
TCOPTIONALDATA
  5
1A1
102
{ACAD_REACTORS
330
1A0
102
}
330
1A0
100
TcOptionalData
 70
     1
 70
    32
 40
-3.0
  0
TCOPTIONALDATA
  5
1A4
102
{ACAD_REACTORS
330
1A3
102
}
330
1A3
100
TcOptionalData
 70
     1
 70
    32
 40
-3.0
  0
TCOPTIONALDATA
  5
1A7
102
{ACAD_REACTORS
330
1A6
102
}
330
1A6
100
TcOptionalData
 70
     1
 70
    32
 40
-3.0
  0
TCOPTIONALDATA
  5
1AA
102
{ACAD_REACTORS
330
1A9
102
}
330
1A9
100
TcOptionalData
 70
     1
 70
    32
 40
-3.0
  0
TCOPTIONALDATA
  5
1AD
102
{ACAD_REACTORS
330
1AC
102
}
330
1AC
100
TcOptionalData
 70
     1
 70
    32
 40
-3.0
  0
TCOPTIONALDATA
  5
1B0
102
{ACAD_REACTORS
330
1AF
102
}
330
1AF
100
TcOptionalData
 70
     1
 70
    32
 40
-3.0
  0
TCOPTIONALDATA
  5
1B3
102
{ACAD_REACTORS
330
1B2
102
}
330
1B2
100
TcOptionalData
 70
     1
 70
    32
 40
-3.0
  0
TCOPTIONALDATA
  5
1B6
102
{ACAD_REACTORS
330
1B5
102
}
330
1B5
100
TcOptionalData
 70
     1
 70
    32
 40
-3.0
  0
TCOPTIONALDATA
  5
1B9
102
{ACAD_REACTORS
330
1B8
102
}
330
1B8
100
TcOptionalData
 70
     1
 70
    32
 40
-3.0
  0
TCOPTIONALDATA
  5
1BC
102
{ACAD_REACTORS
330
1BB
102
}
330
1BB
100
TcOptionalData
 70
     1
 70
    32
 40
-3.0
  0
TCOPTIONALDATA
  5
1BF
102
{ACAD_REACTORS
330
1BE
102
}
330
1BE
100
TcOptionalData
 70
     1
 70
    32
 40
-3.0
  0
TCOPTIONALDATA
  5
1C2
102
{ACAD_REACTORS
330
1C1
102
}
330
1C1
100
TcOptionalData
 70
     1
 70
    32
 40
-3.0
  0
TCOPTIONALDATA
  5
1C5
102
{ACAD_REACTORS
330
1C4
102
}
330
1C4
100
TcOptionalData
 70
     1
 70
    32
 40
-3.0
  0
TCOPTIONALDATA
  5
1C8
102
{ACAD_REACTORS
330
1C7
102
}
330
1C7
100
TcOptionalData
 70
     1
 70
    32
 40
-3.0
  0
TCOPTIONALDATA
  5
1CB
102
{ACAD_REACTORS
330
1CA
102
}
330
1CA
100
TcOptionalData
 70
     1
 70
    32
 40
-3.0
  0
TCOPTIONALDATA
  5
1CE
102
{ACAD_REACTORS
330
1CD
102
}
330
1CD
100
TcOptionalData
 70
     1
 70
    32
 40
-3.0
  0
TCOPTIONALDATA
  5
1D1
102
{ACAD_REACTORS
330
1D0
102
}
330
1D0
100
TcOptionalData
 70
     1
 70
    32
 40
-3.0
  0
TCOPTIONALDATA
  5
1D4
102
{ACAD_REACTORS
330
1D3
102
}
330
1D3
100
TcOptionalData
 70
     1
 70
    32
 40
-3.0
  0
TCOPTIONALDATA
  5
1D7
102
{ACAD_REACTORS
330
1D6
102
}
330
1D6
100
TcOptionalData
 70
     1
 70
    32
 40
-3.0
  0
TCOPTIONALDATA
  5
1DA
102
{ACAD_REACTORS
330
1D9
102
}
330
1D9
100
TcOptionalData
 70
     1
 70
    32
 40
-3.0
  0
TCOPTIONALDATA
  5
1DD
102
{ACAD_REACTORS
330
1DC
102
}
330
1DC
100
TcOptionalData
 70
     1
 70
    32
 40
-3.0
  0
TCOPTIONALDATA
  5
1E0
102
{ACAD_REACTORS
330
1DF
102
}
330
1DF
100
TcOptionalData
 70
     1
 70
    32
 40
-3.0
  0
TCOPTIONALDATA
  5
1E3
102
{ACAD_REACTORS
330
1E2
102
}
330
1E2
100
TcOptionalData
 70
     1
 70
    32
 40
-3.0
  0
TCOPTIONALDATA
  5
1E6
102
{ACAD_REACTORS
330
1E5
102
}
330
1E5
100
TcOptionalData
 70
     1
 70
    32
 40
-3.0
  0
TCOPTIONALDATA
  5
1E9
102
{ACAD_REACTORS
330
1E8
102
}
330
1E8
100
TcOptionalData
 70
     1
 70
    32
 40
-3.0
  0
TCOPTIONALDATA
  5
1EC
102
{ACAD_REACTORS
330
1EB
102
}
330
1EB
100
TcOptionalData
 70
     1
 70
    32
 40
-3.0
  0
TCOPTIONALDATA
  5
1EF
102
{ACAD_REACTORS
330
1EE
102
}
330
1EE
100
TcOptionalData
 70
     1
 70
    32
 40
-3.0
  0
TCOPTIONALDATA
  5
1F2
102
{ACAD_REACTORS
330
1F1
102
}
330
1F1
100
TcOptionalData
 70
     1
 70
    32
 40
-3.0
  0
TCOPTIONALDATA
  5
1F5
102
{ACAD_REACTORS
330
1F4
102
}
330
1F4
100
TcOptionalData
 70
     1
 70
    32
 40
-3.0
  0
TCOPTIONALDATA
  5
1F8
102
{ACAD_REACTORS
330
1F7
102
}
330
1F7
100
TcOptionalData
 70
     1
 70
    32
 40
-3.0
  0
TCOPTIONALDATA
  5
1FB
102
{ACAD_REACTORS
330
1FA
102
}
330
1FA
100
TcOptionalData
 70
     1
 70
    32
 40
-3.0
  0
TCOPTIONALDATA
  5
1FE
102
{ACAD_REACTORS
330
1FD
102
}
330
1FD
100
TcOptionalData
 70
     1
 70
    32
 40
-3.0
  0
TCOPTIONALDATA
  5
201
102
{ACAD_REACTORS
330
200
102
}
330
200
100
TcOptionalData
 70
     1
 70
    32
 40
-3.0
  0
TCOPTIONALDATA
  5
204
102
{ACAD_REACTORS
330
203
102
}
330
203
100
TcOptionalData
 70
     1
 70
    32
 40
-3.0
  0
TCOPTIONALDATA
  5
207
102
{ACAD_REACTORS
330
206
102
}
330
206
100
TcOptionalData
 70
     1
 70
    32
 40
-3.0
  0
TCOPTIONALDATA
  5
20A
102
{ACAD_REACTORS
330
209
102
}
330
209
100
TcOptionalData
 70
     1
 70
    32
 40
-3.0
  0
TCOPTIONALDATA
  5
20D
102
{ACAD_REACTORS
330
20C
102
}
330
20C
100
TcOptionalData
 70
     1
 70
    32
 40
-3.0
  0
TCOPTIONALDATA
  5
210
102
{ACAD_REACTORS
330
20F
102
}
330
20F
100
TcOptionalData
 70
     1
 70
    32
 40
-3.0
  0
TCOPTIONALDATA
  5
213
102
{ACAD_REACTORS
330
212
102
}
330
212
100
TcOptionalData
 70
     1
 70
    32
 40
-3.0
  0
TCOPTIONALDATA
  5
216
102
{ACAD_REACTORS
330
215
102
}
330
215
100
TcOptionalData
 70
     1
 70
    32
 40
-3.0
  0
TCOPTIONALDATA
  5
219
102
{ACAD_REACTORS
330
218
102
}
330
218
100
TcOptionalData
 70
     1
 70
    32
 40
-3.0
  0
TCOPTIONALDATA
  5
21C
102
{ACAD_REACTORS
330
21B
102
}
330
21B
100
TcOptionalData
 70
     1
 70
    32
 40
-3.0
  0
TCOPTIONALDATA
  5
21F
102
{ACAD_REACTORS
330
21E
102
}
330
21E
100
TcOptionalData
 70
     1
 70
    32
 40
-3.0
  0
TCOPTIONALDATA
  5
222
102
{ACAD_REACTORS
330
221
102
}
330
221
100
TcOptionalData
 70
     1
 70
    32
 40
-3.0
  0
TCOPTIONALDATA
  5
225
102
{ACAD_REACTORS
330
224
102
}
330
224
100
TcOptionalData
 70
     1
 70
    32
 40
-3.0
  0
TCOPTIONALDATA
  5
228
102
{ACAD_REACTORS
330
227
102
}
330
227
100
TcOptionalData
 70
     1
 70
    32
 40
-3.0
  0
TCOPTIONALDATA
  5
22B
102
{ACAD_REACTORS
330
22A
102
}
330
22A
100
TcOptionalData
 70
     1
 70
    32
 40
-3.0
  0
TCOPTIONALDATA
  5
22E
102
{ACAD_REACTORS
330
22D
102
}
330
22D
100
TcOptionalData
 70
     1
 70
    32
 40
-3.0
  0
TCOPTIONALDATA
  5
231
102
{ACAD_REACTORS
330
230
102
}
330
230
100
TcOptionalData
 70
     1
 70
    32
 40
-3.0
  0
TCOPTIONALDATA
  5
234
102
{ACAD_REACTORS
330
233
102
}
330
233
100
TcOptionalData
 70
     1
 70
    32
 40
-3.0
  0
TCOPTIONALDATA
  5
237
102
{ACAD_REACTORS
330
236
102
}
330
236
100
TcOptionalData
 70
     1
 70
    32
 40
-3.0
  0
TCOPTIONALDATA
  5
23A
102
{ACAD_REACTORS
330
239
102
}
330
239
100
TcOptionalData
 70
     1
 70
    32
 40
-3.0
  0
TCOPTIONALDATA
  5
23D
102
{ACAD_REACTORS
330
23C
102
}
330
23C
100
TcOptionalData
 70
     1
 70
    32
 40
-3.0
  0
TCOPTIONALDATA
  5
240
102
{ACAD_REACTORS
330
23F
102
}
330
23F
100
TcOptionalData
 70
     1
 70
    32
 40
-3.0
  0
TCOPTIONALDATA
  5
243
102
{ACAD_REACTORS
330
242
102
}
330
242
100
TcOptionalData
 70
     1
 70
    32
 40
-3.0
  0
TCOPTIONALDATA
  5
246
102
{ACAD_REACTORS
330
245
102
}
330
245
100
TcOptionalData
 70
     1
 70
    32
 40
-3.0
  0
TCOPTIONALDATA
  5
249
102
{ACAD_REACTORS
330
248
102
}
330
248
100
TcOptionalData
 70
     1
 70
    32
 40
-3.0
  0
TCOPTIONALDATA
  5
24C
102
{ACAD_REACTORS
330
24B
102
}
330
24B
100
TcOptionalData
 70
     1
 70
    32
 40
-3.0
  0
TCOPTIONALDATA
  5
24F
102
{ACAD_REACTORS
330
24E
102
}
330
24E
100
TcOptionalData
 70
     1
 70
    32
 40
-3.0
  0
TCOPTIONALDATA
  5
252
102
{ACAD_REACTORS
330
251
102
}
330
251
100
TcOptionalData
 70
     1
 70
    32
 40
-3.0
  0
TCOPTIONALDATA
  5
255
102
{ACAD_REACTORS
330
254
102
}
330
254
100
TcOptionalData
 70
     1
 70
    32
 40
-3.0
  0
TCOPTIONALDATA
  5
258
102
{ACAD_REACTORS
330
257
102
}
330
257
100
TcOptionalData
 70
     1
 70
    32
 40
-3.0
  0
TCOPTIONALDATA
  5
25B
102
{ACAD_REACTORS
330
25A
102
}
330
25A
100
TcOptionalData
 70
     1
 70
    32
 40
-3.0
  0
TCOPTIONALDATA
  5
25E
102
{ACAD_REACTORS
330
25D
102
}
330
25D
100
TcOptionalData
 70
     1
 70
    32
 40
-3.0
  0
TCOPTIONALDATA
  5
261
102
{ACAD_REACTORS
330
260
102
}
330
260
100
TcOptionalData
 70
     1
 70
    32
 40
-3.0
  0
TCOPTIONALDATA
  5
264
102
{ACAD_REACTORS
330
263
102
}
330
263
100
TcOptionalData
 70
     1
 70
    32
 40
-3.0
  0
TCOPTIONALDATA
  5
267
102
{ACAD_REACTORS
330
266
102
}
330
266
100
TcOptionalData
 70
     1
 70
    32
 40
-3.0
  0
TCOPTIONALDATA
  5
26A
102
{ACAD_REACTORS
330
269
102
}
330
269
100
TcOptionalData
 70
     1
 70
    32
 40
-3.0
  0
TCOPTIONALDATA
  5
26D
102
{ACAD_REACTORS
330
26C
102
}
330
26C
100
TcOptionalData
 70
     1
 70
    32
 40
-3.0
  0
TCOPTIONALDATA
  5
270
102
{ACAD_REACTORS
330
26F
102
}
330
26F
100
TcOptionalData
 70
     1
 70
    32
 40
-3.0
  0
TCOPTIONALDATA
  5
273
102
{ACAD_REACTORS
330
272
102
}
330
272
100
TcOptionalData
 70
     1
 70
    32
 40
-3.0
  0
TCOPTIONALDATA
  5
276
102
{ACAD_REACTORS
330
275
102
}
330
275
100
TcOptionalData
 70
     1
 70
    32
 40
-3.0
  0
TCOPTIONALDATA
  5
279
102
{ACAD_REACTORS
330
278
102
}
330
278
100
TcOptionalData
 70
     1
 70
    32
 40
-3.0
  0
TCOPTIONALDATA
  5
27C
102
{ACAD_REACTORS
330
27B
102
}
330
27B
100
TcOptionalData
 70
     1
 70
    32
 40
-3.0
  0
TCOPTIONALDATA
  5
27F
102
{ACAD_REACTORS
330
27E
102
}
330
27E
100
TcOptionalData
 70
     1
 70
    32
 40
-3.0
  0
TCOPTIONALDATA
  5
282
102
{ACAD_REACTORS
330
281
102
}
330
281
100
TcOptionalData
 70
     1
 70
    32
 40
-3.0
  0
TCOPTIONALDATA
  5
285
102
{ACAD_REACTORS
330
284
102
}
330
284
100
TcOptionalData
 70
     1
 70
    32
 40
-3.0
  0
TCOPTIONALDATA
  5
288
102
{ACAD_REACTORS
330
287
102
}
330
287
100
TcOptionalData
 70
     1
 70
    32
 40
-3.0
  0
TCOPTIONALDATA
  5
28B
102
{ACAD_REACTORS
330
28A
102
}
330
28A
100
TcOptionalData
 70
     1
 70
    32
 40
-3.0
  0
TCOPTIONALDATA
  5
28E
102
{ACAD_REACTORS
330
28D
102
}
330
28D
100
TcOptionalData
 70
     1
 70
    32
 40
-3.0
  0
TCOPTIONALDATA
  5
291
102
{ACAD_REACTORS
330
290
102
}
330
290
100
TcOptionalData
 70
     1
 70
    32
 40
-3.0
  0
TCOPTIONALDATA
  5
294
102
{ACAD_REACTORS
330
293
102
}
330
293
100
TcOptionalData
 70
     1
 70
    32
 40
-3.0
  0
TCOPTIONALDATA
  5
297
102
{ACAD_REACTORS
330
296
102
}
330
296
100
TcOptionalData
 70
     1
 70
    32
 40
-3.0
  0
TCOPTIONALDATA
  5
29A
102
{ACAD_REACTORS
330
299
102
}
330
299
100
TcOptionalData
 70
     1
 70
    32
 40
-3.0
  0
TCOPTIONALDATA
  5
29D
102
{ACAD_REACTORS
330
29C
102
}
330
29C
100
TcOptionalData
 70
     1
 70
    32
 40
-3.0
  0
TCOPTIONALDATA
  5
2A0
102
{ACAD_REACTORS
330
29F
102
}
330
29F
100
TcOptionalData
 70
     1
 70
    32
 40
-3.0
  0
TCOPTIONALDATA
  5
2A3
102
{ACAD_REACTORS
330
2A2
102
}
330
2A2
100
TcOptionalData
 70
     1
 70
    32
 40
-3.0
  0
TCOPTIONALDATA
  5
2A6
102
{ACAD_REACTORS
330
2A5
102
}
330
2A5
100
TcOptionalData
 70
     1
 70
    32
 40
-3.0
  0
TCOPTIONALDATA
  5
2A9
102
{ACAD_REACTORS
330
2A8
102
}
330
2A8
100
TcOptionalData
 70
     1
 70
    32
 40
-3.0
  0
TCOPTIONALDATA
  5
2AC
102
{ACAD_REACTORS
330
2AB
102
}
330
2AB
100
TcOptionalData
 70
     1
 70
    32
 40
-3.0
  0
TCOPTIONALDATA
  5
2AF
102
{ACAD_REACTORS
330
2AE
102
}
330
2AE
100
TcOptionalData
 70
     1
 70
    32
 40
-3.0
  0
TCOPTIONALDATA
  5
2B2
102
{ACAD_REACTORS
330
2B1
102
}
330
2B1
100
TcOptionalData
 70
     1
 70
    32
 40
-3.0
  0
TCOPTIONALDATA
  5
2B5
102
{ACAD_REACTORS
330
2B4
102
}
330
2B4
100
TcOptionalData
 70
     1
 70
    32
 40
-3.0
  0
TCOPTIONALDATA
  5
2B8
102
{ACAD_REACTORS
330
2B7
102
}
330
2B7
100
TcOptionalData
 70
     1
 70
    32
 40
-3.0
  0
TCOPTIONALDATA
  5
2BB
102
{ACAD_REACTORS
330
2BA
102
}
330
2BA
100
TcOptionalData
 70
     1
 70
    32
 40
-3.0
  0
TCOPTIONALDATA
  5
2BE
102
{ACAD_REACTORS
330
2BD
102
}
330
2BD
100
TcOptionalData
 70
     1
 70
    32
 40
-3.0
  0
TCOPTIONALDATA
  5
2C1
102
{ACAD_REACTORS
330
2C0
102
}
330
2C0
100
TcOptionalData
 70
     1
 70
    32
 40
-3.0
  0
TCOPTIONALDATA
  5
2C4
102
{ACAD_REACTORS
330
2C3
102
}
330
2C3
100
TcOptionalData
 70
     1
 70
    32
 40
-3.0
  0
TCOPTIONALDATA
  5
2C7
102
{ACAD_REACTORS
330
2C6
102
}
330
2C6
100
TcOptionalData
 70
     1
 70
    32
 40
-3.0
  0
TCOPTIONALDATA
  5
2CA
102
{ACAD_REACTORS
330
2C9
102
}
330
2C9
100
TcOptionalData
 70
     1
 70
    32
 40
-3.0
  0
TCOPTIONALDATA
  5
2CD
102
{ACAD_REACTORS
330
2CC
102
}
330
2CC
100
TcOptionalData
 70
     1
 70
    32
 40
-3.0
  0
TCOPTIONALDATA
  5
2D0
102
{ACAD_REACTORS
330
2CF
102
}
330
2CF
100
TcOptionalData
 70
     1
 70
    32
 40
-3.0
  0
TCOPTIONALDATA
  5
2D3
102
{ACAD_REACTORS
330
2D2
102
}
330
2D2
100
TcOptionalData
 70
     1
 70
    32
 40
-3.0
  0
TCOPTIONALDATA
  5
2D6
102
{ACAD_REACTORS
330
2D5
102
}
330
2D5
100
TcOptionalData
 70
     1
 70
    32
 40
-3.0
  0
TCOPTIONALDATA
  5
2D9
102
{ACAD_REACTORS
330
2D8
102
}
330
2D8
100
TcOptionalData
 70
     1
 70
    32
 40
-3.0
  0
TCOPTIONALDATA
  5
2DC
102
{ACAD_REACTORS
330
2DB
102
}
330
2DB
100
TcOptionalData
 70
     1
 70
    32
 40
-3.0
  0
TCOPTIONALDATA
  5
2DF
102
{ACAD_REACTORS
330
2DE
102
}
330
2DE
100
TcOptionalData
 70
     1
 70
    32
 40
-3.0
  0
TCOPTIONALDATA
  5
2E2
102
{ACAD_REACTORS
330
2E1
102
}
330
2E1
100
TcOptionalData
 70
     1
 70
    32
 40
-3.0
  0
TCOPTIONALDATA
  5
2E5
102
{ACAD_REACTORS
330
2E4
102
}
330
2E4
100
TcOptionalData
 70
     1
 70
    32
 40
-3.0
  0
TCOPTIONALDATA
  5
2E8
102
{ACAD_REACTORS
330
2E7
102
}
330
2E7
100
TcOptionalData
 70
     1
 70
    32
 40
-3.0
  0
TCOPTIONALDATA
  5
2EB
102
{ACAD_REACTORS
330
2EA
102
}
330
2EA
100
TcOptionalData
 70
     1
 70
    32
 40
-3.0
  0
TCOPTIONALDATA
  5
2EE
102
{ACAD_REACTORS
330
2ED
102
}
330
2ED
100
TcOptionalData
 70
     1
 70
    32
 40
-3.0
  0
TCOPTIONALDATA
  5
2F1
102
{ACAD_REACTORS
330
2F0
102
}
330
2F0
100
TcOptionalData
 70
     1
 70
    32
 40
-3.0
  0
TCOPTIONALDATA
  5
2F4
102
{ACAD_REACTORS
330
2F3
102
}
330
2F3
100
TcOptionalData
 70
     1
 70
    32
 40
-3.0
  0
TCOPTIONALDATA
  5
2F7
102
{ACAD_REACTORS
330
2F6
102
}
330
2F6
100
TcOptionalData
 70
     1
 70
    32
 40
-3.0
  0
TCOPTIONALDATA
  5
2FA
102
{ACAD_REACTORS
330
2F9
102
}
330
2F9
100
TcOptionalData
 70
     1
 70
    32
 40
-3.0
  0
TCOPTIONALDATA
  5
2FD
102
{ACAD_REACTORS
330
2FC
102
}
330
2FC
100
TcOptionalData
 70
     1
 70
    32
 40
-3.0
  0
TCOPTIONALDATA
  5
300
102
{ACAD_REACTORS
330
2FF
102
}
330
2FF
100
TcOptionalData
 70
     1
 70
    32
 40
-3.0
  0
TCOPTIONALDATA
  5
303
102
{ACAD_REACTORS
330
302
102
}
330
302
100
TcOptionalData
 70
     1
 70
    32
 40
-3.0
  0
TCOPTIONALDATA
  5
306
102
{ACAD_REACTORS
330
305
102
}
330
305
100
TcOptionalData
 70
     1
 70
    32
 40
-3.0
  0
TCOPTIONALDATA
  5
309
102
{ACAD_REACTORS
330
308
102
}
330
308
100
TcOptionalData
 70
     1
 70
    32
 40
-3.0
  0
TCOPTIONALDATA
  5
30C
102
{ACAD_REACTORS
330
30B
102
}
330
30B
100
TcOptionalData
 70
     1
 70
    32
 40
-3.0
  0
TCOPTIONALDATA
  5
30F
102
{ACAD_REACTORS
330
30E
102
}
330
30E
100
TcOptionalData
 70
     1
 70
    32
 40
-3.0
  0
TCOPTIONALDATA
  5
312
102
{ACAD_REACTORS
330
311
102
}
330
311
100
TcOptionalData
 70
     1
 70
    32
 40
-3.0
  0
TCOPTIONALDATA
  5
315
102
{ACAD_REACTORS
330
314
102
}
330
314
100
TcOptionalData
 70
     1
 70
    32
 40
-3.0
  0
TCOPTIONALDATA
  5
318
102
{ACAD_REACTORS
330
317
102
}
330
317
100
TcOptionalData
 70
     1
 70
    32
 40
-3.0
  0
TCOPTIONALDATA
  5
31B
102
{ACAD_REACTORS
330
31A
102
}
330
31A
100
TcOptionalData
 70
     1
 70
    32
 40
-3.0
  0
TCOPTIONALDATA
  5
31E
102
{ACAD_REACTORS
330
31D
102
}
330
31D
100
TcOptionalData
 70
     1
 70
    32
 40
-3.0
  0
TCOPTIONALDATA
  5
321
102
{ACAD_REACTORS
330
320
102
}
330
320
100
TcOptionalData
 70
     1
 70
    32
 40
-3.0
  0
TCOPTIONALDATA
  5
324
102
{ACAD_REACTORS
330
323
102
}
330
323
100
TcOptionalData
 70
     1
 70
    32
 40
-3.0
  0
TCOPTIONALDATA
  5
327
102
{ACAD_REACTORS
330
326
102
}
330
326
100
TcOptionalData
 70
     1
 70
    32
 40
-3.0
  0
TCOPTIONALDATA
  5
32A
102
{ACAD_REACTORS
330
329
102
}
330
329
100
TcOptionalData
 70
     1
 70
    32
 40
-3.0
  0
TCOPTIONALDATA
  5
32D
102
{ACAD_REACTORS
330
32C
102
}
330
32C
100
TcOptionalData
 70
     1
 70
    32
 40
-3.0
  0
TCOPTIONALDATA
  5
330
102
{ACAD_REACTORS
330
32F
102
}
330
32F
100
TcOptionalData
 70
     1
 70
    32
 40
-3.0
  0
TCOPTIONALDATA
  5
333
102
{ACAD_REACTORS
330
332
102
}
330
332
100
TcOptionalData
 70
     1
 70
    32
 40
-3.0
  0
TCOPTIONALDATA
  5
336
102
{ACAD_REACTORS
330
335
102
}
330
335
100
TcOptionalData
 70
     1
 70
    32
 40
-3.0
  0
TCOPTIONALDATA
  5
339
102
{ACAD_REACTORS
330
338
102
}
330
338
100
TcOptionalData
 70
     1
 70
    32
 40
-3.0
  0
TCOPTIONALDATA
  5
33C
102
{ACAD_REACTORS
330
33B
102
}
330
33B
100
TcOptionalData
 70
     1
 70
    32
 40
-3.0
  0
TCOPTIONALDATA
  5
33F
102
{ACAD_REACTORS
330
33E
102
}
330
33E
100
TcOptionalData
 70
     1
 70
    32
 40
-3.0
  0
TCOPTIONALDATA
  5
342
102
{ACAD_REACTORS
330
341
102
}
330
341
100
TcOptionalData
 70
     1
 70
    32
 40
-3.0
  0
TCOPTIONALDATA
  5
345
102
{ACAD_REACTORS
330
344
102
}
330
344
100
TcOptionalData
 70
     1
 70
    32
 40
-3.0
  0
TCOPTIONALDATA
  5
348
102
{ACAD_REACTORS
330
347
102
}
330
347
100
TcOptionalData
 70
     1
 70
    32
 40
-3.0
  0
TCOPTIONALDATA
  5
34B
102
{ACAD_REACTORS
330
34A
102
}
330
34A
100
TcOptionalData
 70
     1
 70
    32
 40
-3.0
  0
TCOPTIONALDATA
  5
34E
102
{ACAD_REACTORS
330
34D
102
}
330
34D
100
TcOptionalData
 70
     1
 70
    32
 40
-3.0
  0
TCOPTIONALDATA
  5
351
102
{ACAD_REACTORS
330
350
102
}
330
350
100
TcOptionalData
 70
     1
 70
    32
 40
-3.0
  0
TCOPTIONALDATA
  5
354
102
{ACAD_REACTORS
330
353
102
}
330
353
100
TcOptionalData
 70
     1
 70
    32
 40
-3.0
  0
TCOPTIONALDATA
  5
357
102
{ACAD_REACTORS
330
356
102
}
330
356
100
TcOptionalData
 70
     1
 70
    32
 40
-3.0
  0
TCOPTIONALDATA
  5
35A
102
{ACAD_REACTORS
330
359
102
}
330
359
100
TcOptionalData
 70
     1
 70
    32
 40
-3.0
  0
TCOPTIONALDATA
  5
35D
102
{ACAD_REACTORS
330
35C
102
}
330
35C
100
TcOptionalData
 70
     1
 70
    32
 40
-3.0
  0
TCOPTIONALDATA
  5
360
102
{ACAD_REACTORS
330
35F
102
}
330
35F
100
TcOptionalData
 70
     1
 70
    32
 40
-3.0
  0
TCOPTIONALDATA
  5
363
102
{ACAD_REACTORS
330
362
102
}
330
362
100
TcOptionalData
 70
     1
 70
    32
 40
-3.0
  0
TCOPTIONALDATA
  5
366
102
{ACAD_REACTORS
330
365
102
}
330
365
100
TcOptionalData
 70
     1
 70
    32
 40
-3.0
  0
TCOPTIONALDATA
  5
369
102
{ACAD_REACTORS
330
368
102
}
330
368
100
TcOptionalData
 70
     1
 70
    32
 40
-3.0
  0
TCOPTIONALDATA
  5
36C
102
{ACAD_REACTORS
330
36B
102
}
330
36B
100
TcOptionalData
 70
     1
 70
    32
 40
-3.0
  0
TCOPTIONALDATA
  5
36F
102
{ACAD_REACTORS
330
36E
102
}
330
36E
100
TcOptionalData
 70
     1
 70
    32
 40
-3.0
  0
TCOPTIONALDATA
  5
372
102
{ACAD_REACTORS
330
371
102
}
330
371
100
TcOptionalData
 70
     1
 70
    32
 40
-3.0
  0
TCOPTIONALDATA
  5
375
102
{ACAD_REACTORS
330
374
102
}
330
374
100
TcOptionalData
 70
     1
 70
    32
 40
-3.0
  0
TCOPTIONALDATA
  5
378
102
{ACAD_REACTORS
330
377
102
}
330
377
100
TcOptionalData
 70
     1
 70
    32
 40
-3.0
  0
TCOPTIONALDATA
  5
37B
102
{ACAD_REACTORS
330
37A
102
}
330
37A
100
TcOptionalData
 70
     1
 70
    32
 40
-3.0
  0
TCOPTIONALDATA
  5
37E
102
{ACAD_REACTORS
330
37D
102
}
330
37D
100
TcOptionalData
 70
     1
 70
    32
 40
-3.0
  0
TCOPTIONALDATA
  5
381
102
{ACAD_REACTORS
330
380
102
}
330
380
100
TcOptionalData
 70
     1
 70
    32
 40
-3.0
  0
TCOPTIONALDATA
  5
384
102
{ACAD_REACTORS
330
383
102
}
330
383
100
TcOptionalData
 70
     1
 70
    32
 40
-3.0
  0
TCOPTIONALDATA
  5
387
102
{ACAD_REACTORS
330
386
102
}
330
386
100
TcOptionalData
 70
     1
 70
    32
 40
-3.0
  0
TCOPTIONALDATA
  5
38A
102
{ACAD_REACTORS
330
389
102
}
330
389
100
TcOptionalData
 70
     1
 70
    32
 40
-3.0
  0
TCOPTIONALDATA
  5
38D
102
{ACAD_REACTORS
330
38C
102
}
330
38C
100
TcOptionalData
 70
     1
 70
    32
 40
-3.0
  0
TCOPTIONALDATA
  5
390
102
{ACAD_REACTORS
330
38F
102
}
330
38F
100
TcOptionalData
 70
     1
 70
    32
 40
-3.0
  0
TCOPTIONALDATA
  5
393
102
{ACAD_REACTORS
330
392
102
}
330
392
100
TcOptionalData
 70
     1
 70
    32
 40
-3.0
  0
TCOPTIONALDATA
  5
396
102
{ACAD_REACTORS
330
395
102
}
330
395
100
TcOptionalData
 70
     1
 70
    32
 40
-3.0
  0
TCOPTIONALDATA
  5
399
102
{ACAD_REACTORS
330
398
102
}
330
398
100
TcOptionalData
 70
     1
 70
    32
 40
-3.0
  0
TCOPTIONALDATA
  5
39C
102
{ACAD_REACTORS
330
39B
102
}
330
39B
100
TcOptionalData
 70
     1
 70
    32
 40
-3.0
  0
TCOPTIONALDATA
  5
39F
102
{ACAD_REACTORS
330
39E
102
}
330
39E
100
TcOptionalData
 70
     1
 70
    32
 40
-3.0
  0
TCOPTIONALDATA
  5
3A2
102
{ACAD_REACTORS
330
3A1
102
}
330
3A1
100
TcOptionalData
 70
     1
 70
    32
 40
-3.0
  0
TCOPTIONALDATA
  5
3A5
102
{ACAD_REACTORS
330
3A4
102
}
330
3A4
100
TcOptionalData
 70
     1
 70
    32
 40
-3.0
  0
TCOPTIONALDATA
  5
3A8
102
{ACAD_REACTORS
330
3A7
102
}
330
3A7
100
TcOptionalData
 70
     1
 70
    32
 40
-3.0
  0
TCOPTIONALDATA
  5
3AB
102
{ACAD_REACTORS
330
3AA
102
}
330
3AA
100
TcOptionalData
 70
     1
 70
    32
 40
-3.0
  0
TCOPTIONALDATA
  5
3AE
102
{ACAD_REACTORS
330
3AD
102
}
330
3AD
100
TcOptionalData
 70
     1
 70
    32
 40
-3.0
  0
TCOPTIONALDATA
  5
3B1
102
{ACAD_REACTORS
330
3B0
102
}
330
3B0
100
TcOptionalData
 70
     1
 70
    32
 40
-3.0
  0
TCOPTIONALDATA
  5
3B4
102
{ACAD_REACTORS
330
3B3
102
}
330
3B3
100
TcOptionalData
 70
     1
 70
    32
 40
-3.0
  0
TCOPTIONALDATA
  5
3B7
102
{ACAD_REACTORS
330
3B6
102
}
330
3B6
100
TcOptionalData
 70
     1
 70
    32
 40
-3.0
  0
TCOPTIONALDATA
  5
3BA
102
{ACAD_REACTORS
330
3B9
102
}
330
3B9
100
TcOptionalData
 70
     1
 70
    32
 40
-3.0
  0
TCOPTIONALDATA
  5
3BD
102
{ACAD_REACTORS
330
3BC
102
}
330
3BC
100
TcOptionalData
 70
     1
 70
    32
 40
-3.0
  0
TCOPTIONALDATA
  5
3C0
102
{ACAD_REACTORS
330
3BF
102
}
330
3BF
100
TcOptionalData
 70
     1
 70
    32
 40
-3.0
  0
TCOPTIONALDATA
  5
3C3
102
{ACAD_REACTORS
330
3C2
102
}
330
3C2
100
TcOptionalData
 70
     1
 70
    32
 40
-3.0
  0
TCOPTIONALDATA
  5
3C6
102
{ACAD_REACTORS
330
3C5
102
}
330
3C5
100
TcOptionalData
 70
     1
 70
    32
 40
-3.0
  0
TCOPTIONALDATA
  5
3C9
102
{ACAD_REACTORS
330
3C8
102
}
330
3C8
100
TcOptionalData
 70
     1
 70
    32
 40
-3.0
  0
TCOPTIONALDATA
  5
3CC
102
{ACAD_REACTORS
330
3CB
102
}
330
3CB
100
TcOptionalData
 70
     1
 70
    32
 40
-3.0
  0
TCOPTIONALDATA
  5
3D0
102
{ACAD_REACTORS
330
3CF
102
}
330
3CF
100
TcOptionalData
 70
     1
 70
    32
 40
-3.0
  0
TCOPTIONALDATA
  5
3D3
102
{ACAD_REACTORS
330
3D2
102
}
330
3D2
100
TcOptionalData
 70
     1
 70
    32
 40
-3.0
  0
TCOPTIONALDATA
  5
3D6
102
{ACAD_REACTORS
330
3D5
102
}
330
3D5
100
TcOptionalData
 70
     1
 70
    32
 40
-3.0
  0
TCOPTIONALDATA
  5
3DC
102
{ACAD_REACTORS
330
3DB
102
}
330
3DB
100
TcOptionalData
 70
     1
 70
    32
 40
-3.0
  0
TCOPTIONALDATA
  5
3DF
102
{ACAD_REACTORS
330
3DE
102
}
330
3DE
100
TcOptionalData
 70
     1
 70
    32
 40
-3.0
  0
TCOPTIONALDATA
  5
3E2
102
{ACAD_REACTORS
330
3E1
102
}
330
3E1
100
TcOptionalData
 70
     1
 70
    32
 40
-3.0
  0
TCOPTIONALDATA
  5
3E5
102
{ACAD_REACTORS
330
3E4
102
}
330
3E4
100
TcOptionalData
 70
     1
 70
    32
 40
-3.0
  0
TCOPTIONALDATA
  5
3E8
102
{ACAD_REACTORS
330
3E7
102
}
330
3E7
100
TcOptionalData
 70
     1
 70
    32
 40
-3.0
  0
TCOPTIONALDATA
  5
3EC
102
{ACAD_REACTORS
330
3EB
102
}
330
3EB
100
TcOptionalData
 70
     1
 70
    32
 40
-3.0
  0
TCOPTIONALDATA
  5
3EF
102
{ACAD_REACTORS
330
3EE
102
}
330
3EE
100
TcOptionalData
 70
     1
 70
    32
 40
-3.0
  0
TCOPTIONALDATA
  5
3F2
102
{ACAD_REACTORS
330
3F1
102
}
330
3F1
100
TcOptionalData
 70
     1
 70
    32
 40
-3.0
  0
TCOPTIONALDATA
  5
3F5
102
{ACAD_REACTORS
330
3F4
102
}
330
3F4
100
TcOptionalData
 70
     1
 70
    32
 40
-3.0
  0
TCOPTIONALDATA
  5
3F8
102
{ACAD_REACTORS
330
3F7
102
}
330
3F7
100
TcOptionalData
 70
     1
 70
    32
 40
-3.0
  0
TCOPTIONALDATA
  5
3FB
102
{ACAD_REACTORS
330
3FA
102
}
330
3FA
100
TcOptionalData
 70
     1
 70
    32
 40
-3.0
  0
TCOPTIONALDATA
  5
400
102
{ACAD_REACTORS
330
3FF
102
}
330
3FF
100
TcOptionalData
 70
     1
 70
    32
 40
-3.0
  0
TCOPTIONALDATA
  5
405
102
{ACAD_REACTORS
330
404
102
}
330
404
100
TcOptionalData
 70
     1
 70
    32
 40
-3.0
  0
TCOPTIONALDATA
  5
408
102
{ACAD_REACTORS
330
407
102
}
330
407
100
TcOptionalData
 70
     1
 70
    32
 40
-3.0
  0
TCOPTIONALDATA
  5
40B
102
{ACAD_REACTORS
330
40A
102
}
330
40A
100
TcOptionalData
 70
     1
 70
    32
 40
-3.0
  0
TCOPTIONALDATA
  5
410
102
{ACAD_REACTORS
330
40F
102
}
330
40F
100
TcOptionalData
 70
     1
 70
    32
 40
-3.0
  0
TCOPTIONALDATA
  5
413
102
{ACAD_REACTORS
330
412
102
}
330
412
100
TcOptionalData
 70
     1
 70
    32
 40
-3.0
  0
TCOPTIONALDATA
  5
416
102
{ACAD_REACTORS
330
415
102
}
330
415
100
TcOptionalData
 70
     1
 70
    32
 40
-3.0
  0
TCOPTIONALDATA
  5
419
102
{ACAD_REACTORS
330
418
102
}
330
418
100
TcOptionalData
 70
     1
 70
    32
 40
-3.0
  0
TCOPTIONALDATA
  5
41C
102
{ACAD_REACTORS
330
41B
102
}
330
41B
100
TcOptionalData
 70
     1
 70
    32
 40
-3.0
  0
TCOPTIONALDATA
  5
41F
102
{ACAD_REACTORS
330
41E
102
}
330
41E
100
TcOptionalData
 70
     1
 70
    32
 40
-3.0
  0
TCOPTIONALDATA
  5
422
102
{ACAD_REACTORS
330
421
102
}
330
421
100
TcOptionalData
 70
     1
 70
    32
 40
-3.0
  0
TCOPTIONALDATA
  5
425
102
{ACAD_REACTORS
330
424
102
}
330
424
100
TcOptionalData
 70
     1
 70
    32
 40
-3.0
  0
TCOPTIONALDATA
  5
428
102
{ACAD_REACTORS
330
427
102
}
330
427
100
TcOptionalData
 70
     1
 70
    32
 40
-3.0
  0
TCOPTIONALDATA
  5
42B
102
{ACAD_REACTORS
330
42A
102
}
330
42A
100
TcOptionalData
 70
     1
 70
    32
 40
-3.0
  0
TCOPTIONALDATA
  5
42E
102
{ACAD_REACTORS
330
42D
102
}
330
42D
100
TcOptionalData
 70
     1
 70
    32
 40
-3.0
  0
TCOPTIONALDATA
  5
431
102
{ACAD_REACTORS
330
430
102
}
330
430
100
TcOptionalData
 70
     1
 70
    32
 40
-3.0
  0
LAYOUT
  5
1E
102
{ACAD_REACTORS
330
1A
102
}
330
1A
100
AcDbPlotSettings
  1

  2
none_device
  4
ISO_A4_(210.00_x_297.00_MM)
  6

 40
4.18041658401489
 41
13.23975372314453
 42
4.18040466308594
 43
3.17498779296875
 44
210.0
 45
297.0
 46
-1.20634217591106
 47
0.0923129968142611
 48
0.0
 49
0.0
140
0.0
141
0.0
142
1.0
143
1.0
 70
   672
 72
     1
 73
     1
 74
     5
  7

 75
    16
 76
     0
 77
     2
 78
   300
147
1.0
148
0.0
149
0.0
100
AcDbLayout
  1
Layout1
 70
     1
 71
     1
 10
-2.97407440810383
 20
-13.33206671995879
 11
294.0259255918962
 21
196.6679332800412
 12
0.0
 22
0.0
 32
0.0
 14
-2.97407440810383
 24
-13.33206671995879
 34
0.0
 15
294.0259255918962
 25
196.6679332800412
 35
0.0
146
0.0
 13
0.0
 23
0.0
 33
0.0
 16
1.0
 26
0.0
 36
0.0
 17
0.0
 27
1.0
 37
0.0
 76
     0
330
1B
331
433
  0
LAYOUT
  5
3C
102
{ACAD_REACTORS
330
1A
102
}
330
1A
100
AcDbPlotSettings
  1

  2
none_device
  4
ISO_C5_(229.00_x_162.00_MM)
  6

 40
0.0
 41
0.0
 42
0.0
 43
0.0
 44
229.0
 45
162.0
 46
0.0
 47
0.0
 48
0.0
 49
0.0
140
0.0
141
0.0
142
1.0
143
1.0
 70
   672
 72
     1
 73
     0
 74
     5
  7

 75
    16
 76
     0
 77
     2
 78
   300
147
1.0
148
0.0
149
0.0
100
AcDbLayout
  1
Layout2
 70
     1
 71
     2
 10
0.0
 20
0.0
 11
162.0
 21
229.0
 12
0.0
 22
0.0
 32
0.0
 14
0.0
 24
0.0
 34
0.0
 15
162.0
 25
229.0
 35
0.0
146
0.0
 13
0.0
 23
0.0
 33
0.0
 16
1.0
 26
0.0
 36
0.0
 17
0.0
 27
1.0
 37
0.0
 76
     0
330
3B
331
435
  0
LAYOUT
  5
22
102
{ACAD_REACTORS
330
1A
102
}
330
1A
100
AcDbPlotSettings
  1

  2
none_device
  4
ISO_A4_(210.00_x_297.00_MM)
  6

 40
4.18041658401489
 41
13.23975372314453
 42
4.18040466308594
 43
3.17498779296875
 44
210.0
 45
297.0
 46
3.420417320701127
 47
-83.08387087411725
 48
0.0
 49
0.0
140
0.0
141
0.0
142
1.0
143
1.232892
 70
  1696
 72
     1
 73
     1
 74
     0
  7

 75
     0
 76
     0
 77
     2
 78
   300
147
1.0
148
0.0
149
0.0
100
AcDbLayout
  1
Model
 70
     1
 71
     0
 10
-9.37100731445314
 20
86.11025328249707
 11
356.7979442118175
 21
345.0175927455168
 12
0.0
 22
0.0
 32
0.0
 14
-9.37100731445314
 24
86.11025328249707
 34
0.0
 15
356.7979442118175
 25
345.0175927455168
 35
0.0
146
0.0
 13
0.0
 23
0.0
 33
0.0
 16
1.0
 26
0.0
 36
0.0
 17
0.0
 27
1.0
 37
0.0
 76
     0
330
1F
331
29
  0
MLINESTYLE
  5
18
102
{ACAD_REACTORS
330
17
102
}
330
17
100
AcDbMlineStyle
  2
Standard
 70
     0
  3

 62
   256
 51
90.0
 52
90.0
 71
     6
 49
0.5
 62
   256
  6
BYLAYER
 49
-0.5
 62
   256
  6
BYLAYER
 49
0.5
 62
   256
  6
BYLAYER
 49
-0.5
 62
   256
  6
BYLAYER
 49
0.5
 62
   256
  6
BYLAYER
 49
-0.5
 62
   256
  6
BYLAYER
  0
ACDBPLACEHOLDER
  5
F
102
{ACAD_REACTORS
330
E
102
}
330
E
  0
VISUALSTYLE
  5
2F
102
{ACAD_REACTORS
330
2A
102
}
330
2A
100
AcDbVisualStyle
  2
2dWireframe
 70
     4
 71
     0
 72
     2
 73
     0
 90
        0
 40
-0.6
 41
-30.0
 62
     5
 63
     7
421
 16777215
 74
     1
 91
        4
 64
     7
 65
   257
 75
     1
175
     1
 42
1.0
 92
        0
 66
   257
 43
1.0
 76
     1
 77
     6
 78
     2
 67
     7
 79
     5
170
     0
171
     0
290
     0
174
     0
 93
        1
 44
0.0
173
     0
291
     0
 45
0.0
1001
ACAD
1000
AcDbSavedByObjectVersion
1070
     0
  0
VISUALSTYLE
  5
31
102
{ACAD_REACTORS
330
2A
102
}
330
2A
100
AcDbVisualStyle
  2
3D Hidden
 70
     6
 71
     1
 72
     2
 73
     2
 90
        0
 40
-0.6
 41
-30.0
 62
     5
 63
     7
421
 16777215
 74
     2
 91
        2
 64
     7
 65
   257
 75
     2
175
     1
 42
40.0
 92
        0
 66
   257
 43
1.0
 76
     1
 77
     6
 78
     2
 67
     7
 79
     3
170
     0
171
     0
290
     0
174
     0
 93
        1
 44
0.0
173
     0
291
     0
 45
0.0
1001
ACAD
1000
AcDbSavedByObjectVersion
1070
     0
  0
VISUALSTYLE
  5
30
102
{ACAD_REACTORS
330
2A
102
}
330
2A
100
AcDbVisualStyle
  2
3dWireframe
 70
     5
 71
     0
 72
     2
 73
     0
 90
        0
 40
-0.6
 41
-30.0
 62
     5
 63
     7
421
 16777215
 74
     1
 91
        4
 64
     7
 65
   257
 75
     1
175
     1
 42
1.0
 92
        0
 66
   257
 43
1.0
 76
     1
 77
     6
 78
     2
 67
     7
 79
     5
170
     0
171
     0
290
     0
174
     0
 93
        1
 44
0.0
173
     0
291
     0
 45
0.0
1001
ACAD
1000
AcDbSavedByObjectVersion
1070
     0
  0
VISUALSTYLE
  5
32
102
{ACAD_REACTORS
330
2A
102
}
330
2A
100
AcDbVisualStyle
  2
Basic
 70
     7
 71
     1
 72
     0
 73
     1
 90
        0
 40
-0.6
 41
-30.0
 62
     5
 63
     7
421
 16777215
 74
     0
 91
        4
 64
     7
 65
   257
 75
     1
175
     1
 42
1.0
 92
        8
 66
     7
 43
1.0
 76
     1
 77
     6
 78
     2
 67
     7
 79
     5
170
     0
171
     0
290
     0
174
     0
 93
        1
 44
0.0
173
     0
291
     1
 45
0.0
1001
ACAD
1000
AcDbSavedByObjectVersion
1070
     0
  0
VISUALSTYLE
  5
36
102
{ACAD_REACTORS
330
2A
102
}
330
2A
100
AcDbVisualStyle
  2
Brighten
 70
    12
 71
     2
 72
     2
 73
     0
 90
        0
 40
-0.6
 41
-30.0
 62
     5
 63
     7
421
 16777215
 74
     1
 91
        4
 64
     7
 65
   257
 75
     1
175
     1
 42
1.0
 92
        8
 66
     7
 43
1.0
 76
     1
 77
     6
 78
     2
 67
     7
 79
     5
170
     0
171
     0
290
     0
174
     0
 93
        1
 44
50.0
173
     0
291
     1
 45
0.0
1001
ACAD
1000
AcDbSavedByObjectVersion
1070
     0
  0
VISUALSTYLE
  5
3A
102
{ACAD_REACTORS
330
2A
102
}
330
2A
100
AcDbVisualStyle
  2
ColorChange
 70
    16
 71
     2
 72
     2
 73
     3
 90
        0
 40
-0.6
 41
-30.0
 62
     5
 63
     8
421
  8421504
 74
     1
 91
        4
 64
     7
 65
   257
 75
     1
175
     1
 42
1.0
 92
        8
 66
     8
424
  8421504
 43
1.0
 76
     1
 77
     6
 78
     2
 67
     7
 79
     5
170
     0
171
     0
290
     0
174
     0
 93
        1
 44
0.0
173
     0
291
     1
 45
0.0
1001
ACAD
1000
AcDbSavedByObjectVersion
1070
     0
  0
VISUALSTYLE
  5
34
102
{ACAD_REACTORS
330
2A
102
}
330
2A
100
AcDbVisualStyle
  2
Conceptual
 70
     9
 71
     3
 72
     2
 73
     0
 90
        0
 40
-0.6
 41
-30.0
 62
     5
 63
     7
421
 16777215
 74
     2
 91
        2
 64
     7
 65
   257
 75
     1
175
     1
 42
40.0
 92
        8
 66
     7
 43
1.0
 76
     1
 77
     6
 78
     2
 67
     7
 79
     3
170
     0
171
     0
290
     0
174
     0
 93
        1
 44
0.0
173
     0
291
     0
 45
0.0
1001
ACAD
1000
AcDbSavedByObjectVersion
1070
     0
  0
VISUALSTYLE
  5
35
102
{ACAD_REACTORS
330
2A
102
}
330
2A
100
AcDbVisualStyle
  2
Dim
 70
    11
 71
     2
 72
     2
 73
     0
 90
        0
 40
-0.6
 41
-30.0
 62
     5
 63
     7
421
 16777215
 74
     1
 91
        4
 64
     7
 65
   257
 75
     1
175
     1
 42
1.0
 92
        8
 66
     7
 43
1.0
 76
     1
 77
     6
 78
     2
 67
     7
 79
     5
170
     0
171
     0
290
     0
174
     0
 93
        1
 44
-50.0
173
     0
291
     1
 45
0.0
1001
ACAD
1000
AcDbSavedByObjectVersion
1070
     0
  0
VISUALSTYLE
  5
39
102
{ACAD_REACTORS
330
2A
102
}
330
2A
100
AcDbVisualStyle
  2
Facepattern
 70
    15
 71
     2
 72
     2
 73
     0
 90
        0
 40
-0.6
 41
-30.0
 62
     5
 63
     7
421
 16777215
 74
     1
 91
        4
 64
     7
 65
   257
 75
     1
175
     1
 42
1.0
 92
        8
 66
     7
 43
1.0
 76
     1
 77
     6
 78
     2
 67
     7
 79
     5
170
     0
171
     0
290
     0
174
     0
 93
        1
 44
0.0
173
     0
291
     1
 45
0.0
1001
ACAD
1000
AcDbSavedByObjectVersion
1070
     0
  0
VISUALSTYLE
  5
2B
102
{ACAD_REACTORS
330
2A
102
}
330
2A
100
AcDbVisualStyle
  2
Flat
 70
     0
 71
     2
 72
     1
 73
     1
 90
        2
 40
-0.6
 41
30.0
 62
     5
 63
     7
421
 16777215
 74
     0
 91
        4
 64
     7
 65
   257
 75
     1
175
     1
 42
1.0
 92
        8
 66
     7
 43
1.0
 76
     1
 77
     6
 78
     2
 67
     7
 79
     5
170
     0
171
     0
290
     0
174
     0
 93
       13
 44
0.0
173
     0
291
     1
 45
0.0
1001
ACAD
1000
AcDbSavedByObjectVersion
1070
     0
  0
VISUALSTYLE
  5
2C
102
{ACAD_REACTORS
330
2A
102
}
330
2A
100
AcDbVisualStyle
  2
FlatWithEdges
 70
     1
 71
     2
 72
     1
 73
     1
 90
        2
 40
-0.6
 41
30.0
 62
     5
 63
     7
421
 16777215
 74
     1
 91
        4
 64
     7
 65
   257
 75
     1
175
     1
 42
1.0
 92
        0
 66
   257
 43
1.0
 76
     1
 77
     6
 78
     2
 67
     7
 79
     5
170
     0
171
     0
290
     0
174
     0
 93
       13
 44
0.0
173
     0
291
     1
 45
0.0
1001
ACAD
1000
AcDbSavedByObjectVersion
1070
     0
  0
VISUALSTYLE
  5
2D
102
{ACAD_REACTORS
330
2A
102
}
330
2A
100
AcDbVisualStyle
  2
Gouraud
 70
     2
 71
     2
 72
     2
 73
     1
 90
        2
 40
-0.6
 41
30.0
 62
     5
 63
     7
421
 16777215
 74
     0
 91
        4
 64
     7
 65
   257
 75
     1
175
     1
 42
1.0
 92
        0
 66
     7
 43
1.0
 76
     1
 77
     6
 78
     2
 67
     7
 79
     5
170
     0
171
     0
290
     0
174
     0
 93
       13
 44
0.0
173
     0
291
     1
 45
0.0
1001
ACAD
1000
AcDbSavedByObjectVersion
1070
     0
  0
VISUALSTYLE
  5
2E
102
{ACAD_REACTORS
330
2A
102
}
330
2A
100
AcDbVisualStyle
  2
GouraudWithEdges
 70
     3
 71
     2
 72
     2
 73
     1
 90
        2
 40
-0.6
 41
30.0
 62
     5
 63
     7
421
 16777215
 74
     1
 91
        4
 64
     7
 65
   257
 75
     1
175
     1
 42
1.0
 92
        0
 66
   257
 43
1.0
 76
     1
 77
     6
 78
     2
 67
     7
 79
     5
170
     0
171
     0
290
     0
174
     0
 93
       13
 44
0.0
173
     0
291
     1
 45
0.0
1001
ACAD
1000
AcDbSavedByObjectVersion
1070
     0
  0
VISUALSTYLE
  5
38
102
{ACAD_REACTORS
330
2A
102
}
330
2A
100
AcDbVisualStyle
  2
Linepattern
 70
    14
 71
     2
 72
     2
 73
     0
 90
        0
 40
-0.6
 41
-30.0
 62
     5
 63
     7
421
 16777215
 74
     1
 91
        4
 64
     7
 65
   257
 75
     7
175
     7
 42
1.0
 92
        8
 66
     7
 43
1.0
 76
     1
 77
     6
 78
     2
 67
     7
 79
     5
170
     0
171
     0
290
     0
174
     0
 93
        1
 44
0.0
173
     0
291
     1
 45
0.0
1001
ACAD
1000
AcDbSavedByObjectVersion
1070
     0
  0
VISUALSTYLE
  5
33
102
{ACAD_REACTORS
330
2A
102
}
330
2A
100
AcDbVisualStyle
  2
Realistic
 70
     8
 71
     2
 72
     2
 73
     0
 90
        0
 40
-0.6
 41
-30.0
 62
     5
 63
     7
421
 16777215
 74
     1
 91
        0
 64
     7
 65
   257
 75
     1
175
     1
 42
1.0
 92
        8
 66
     8
424
  7895160
 43
1.0
 76
     1
 77
     6
 78
     2
 67
     7
 79
     5
170
     0
171
     0
290
     0
174
     0
 93
       13
 44
0.0
173
     0
291
     0
 45
0.0
1001
ACAD
1000
AcDbSavedByObjectVersion
1070
     0
  0
VISUALSTYLE
  5
37
102
{ACAD_REACTORS
330
2A
102
}
330
2A
100
AcDbVisualStyle
  2
Thicken
 70
    13
 71
     2
 72
     2
 73
     0
 90
        0
 40
-0.6
 41
-30.0
 62
     5
 63
     7
421
 16777215
 74
     1
 91
        4
 64
     7
 65
   257
 75
     1
175
     1
 42
1.0
 92
       12
 66
     7
 43
1.0
 76
     1
 77
     6
 78
     2
 67
     7
 79
     5
170
     0
171
     0
290
     0
174
     0
 93
        1
 44
0.0
173
     0
291
     1
 45
0.0
1001
ACAD
1000
AcDbSavedByObjectVersion
1070
     0
  0
ENDSEC
  0
SECTION
  2
THUMBNAILIMAGE
 90
    16364
310
28000000B40000005500000001000800000000000000000000000000000000000000000000000000FFFFFF000000FF0000FFFF0000FF0000FFFF0000FF000000FF00FF000000000080808000C0C0C0000000FF007F7FFF000000A5005252A50000007F003F3F7F0000004C0026264C000000260013132600003FFF007F9FFF
310
000029A5005267A500001F7F003F4F7F0000134C00262F4C000009260013172600007FFF007FBFFF000052A500527CA500003F7F003F5F7F0000264C0026394C0000132600131C260000BFFF007FDFFF00007CA5005291A500005F7F003F6F7F0000394C0026424C00001C26001321260000FFFF007FFFFF0000A5A50052A5
310
A500007F7F003F7F7F00004C4C00264C4C00002626001326260000FFBF007FFFDF0000A57C0052A59100007F5F003F7F6F00004C3900264C420000261C001326210000FF7F007FFFBF0000A5520052A57C00007F3F003F7F5F00004C2600264C39000026130013261C0000FF3F007FFF9F0000A5290052A56700007F1F003F
310
7F4F00004C1300264C2F00002609001326170000FF00007FFF7F0000A5000052A55200007F00003F7F3F00004C0000264C260000260000132613003FFF00009FFF7F0029A5000067A552001F7F00004F7F3F00134C00002F4C260009260000172613007FFF0000BFFF7F0052A500007CA552003F7F00005F7F3F00264C0000
310
394C2600132600001C261300BFFF0000DFFF7F007CA5000091A552005F7F00006F7F3F00394C0000424C26001C26000021261300FFFF0000FFFF7F00A5A50000A5A552007F7F00007F7F3F004C4C00004C4C26002626000026261300FFBF0000FFDF7F00A57C0000A59152007F5F00007F6F3F004C3900004C422600261C00
310
0026211300FF7F0000FFBF7F00A5520000A57C52007F3F00007F5F3F004C2600004C39260026130000261C1300FF3F0000FF9F7F00A5290000A56752007F1F00007F4F3F004C1300004C2F26002609000026171300FF000000FF7F7F00A5000000A55252007F0000007F3F3F004C0000004C2626002600000026131300FF00
310
3F00FF7F9F00A5002900A55267007F001F007F3F4F004C0013004C262F002600090026131700FF007F00FF7FBF00A5005200A5527C007F003F007F3F5F004C0026004C2639002600130026131C00FF00BF00FF7FDF00A5007C00A55291007F005F007F3F6F004C0039004C26420026001C0026132100FF00FF00FF7FFF00A5
310
00A500A552A5007F007F007F3F7F004C004C004C264C002600260026132600BF00FF00DF7FFF007C00A5009152A5005F007F006F3F7F0039004C0042264C001C002600211326007F00FF00BF7FFF005200A5007C52A5003F007F005F3F7F0026004C0039264C00130026001C1326003F00FF009F7FFF002900A5006752A500
310
1F007F004F3F7F0013004C002F264C000900260017132600000000002D2D2D005B5B5B0089898900B7B7B700B3B3B30000000000000000000000000000000000000000000000000000000000000000000000000000000000000000000000000000000000000000000000000000000000000000000000000000000000000000
310
00000000000000000000000000000000000000000000000000000000000000000000000000000000000000000000000000000000000000000000000000000000000000000000000000000000000000000000000000000000000000000000000000000000000000000000000000000000000000000000000000000000000000
310
00000000000000000000000000000000000000000000000000000000000000000000000000000000000000000000000000000000000000000000000000000000000000000000000000000000000000000000000000000000000000000000000000000000000000000000000000000000000000000000000000000000000000
310
00000000000000000000000000000000000000000000000000000000000000000000000000000000000000000000000000000000000000000000000000000000000000000000000000000000000000000000000000000000000000000000000000000000000000000000000000000000000000000000000000000000000000
310
00000000000000000000000000000000000000000000000000000000000000000000000000000000000000000000000000000000000000000000000000000000000000000000000000000000000000000000000000000000000000000000000000000000000000000000000000000000000000000000000000000000000000
310
00000000000000000000000000000000000000000000000000000000000000000000000000000000000000000000000000000000000000000000000000000000000000000000000000000000000000000000000000000000000000000000000000000000000000000000000000000000000000000000000000000000000000
310
00000000000000000000000000000000000000000000000000000000000000000000000000000000000000000000000000000000000000000000000000000000000000000000000000000000000000000000000000000000000000000000000000000000000000000000000000000000000000000000000000000000000000
310
00000000000000000000000000000000000000000000000000000000000000000000000000000000000000000000000000000000000000000000000000000000000000000000000000000000000000000000000000000000000000000000000000000000000000000000000000000000000000000000000000000000000000
310
00000000000000000000000000000000000000000000000000000000000000000000000000000000000000000000000000000000000000000000000000000000000000000000000000000000000000000000000000000000000000000000000000000000000000000000000000000000000000000000000000000000000000
310
00000000000000000000000000000000000000000000000000000000000000000000000000000000000000000000000000000000000000000000000000000000000000000000000000000000000000000000000000000000000000000000000000000000000000000000000000000000000000000000000000000000000000
310
00000000000000000000000000000000000000000000000000000000000000000000000000000000000000000000000000000000000000000000000000000000000000000000000000000000000000000000000000000000000000000000000000000000000000000000000000000000000000000000000000000000000000
310
00000000000000000000000000000000000000000000000000000000000000000000000000000000000000000000000000000000000000000000000000000000000000000000000000000000000000000000000000000000000000000000000000000000000000000000000000000000000000000000000000000000000000
310
00000000000000000000000000000000000000000000000000000000000000000000000000000000000000000000000000000000000000000000000000000000000000000000000000000000000000000000000000000000000000000000000000000000000000000000000000000000000000000000000000000000000000
310
00000000000000000000000000000000000000000000000000000000000000000000000000000000000000000000000000000000000000000000000000000000000000000000000000000000000000000000000000000000000000000000000000000000000000000000000000000000000000000000000000000000000000
310
00000000000000000000000000000000000000000000000000000000000000000000000000000000000000000000000000000000000000000000000000000000000000000000000000000000000000000000000000000000000000000000000000000000000000000000000000000000000000000000000000000000000000
310
00000000000000000000000000000000000000000000000000000000000000000000000000000000000000000000000000000000000000000000000000000000000000000000000000000000000000000000000000000000000000000000000000000000000000000000000000000000000000000000000000000000000000
310
00000000000000000000000000000000000000000000000000000000000000000000000000000000000000000000000000000000000000000000000000000000000000000000000000000000000000000000000000000000000000000000000000000000000000000000000000000000000000000000000000000000000000
310
00000000000000000000000000000000000000000000000000000000000000000000000000000000000000000000000000000000000000000000000000000000000000000000000000000000000000000000000000000000000000000000000000000000000000000000000000000000000000000000000000000000000000
310
00000000000000000000000000000000000000000000000000000000000000000000000000000000000000000000000000000000000000000000000000000000000000000000000000000000000000000000000000000000000000000000000000000000000000000000000000000000000000000000000000000000000000
310
00000000000000000000000000000000000000000000000000000000000000000000000000000000000000000000000000000000000000000000000000000000000000000000000000000000000000000000000000000000000000000000000000000000000000000000000000000000000000000000000000000000000000
310
00000000000000000000000000000000000000000000000000000000000000000000000000000000000000000000000000000000000000000000000000000000000000000000000000000000000000000000000000000000000000000000000000000000000000000000000000000000000000000000000000000000000000
310
00000000000000000000000000000000000000000000000000000000000000000000000000000000000000000000000000000000000000000000000000000000000000000000000000000000000000000000000000000000000000000000000000000000000000000000000000000000000000000000000000000000000000
310
00000000000000000000000000000000000000000000000000000000000000000000000000000000000000000000000000000000000000000000000000000000000000000000000000000000000000000000000000000000000000000000000000000000000000000000000000000000000000000000000000000000000000
310
00000000000000000000000000000000000000000000000000000000000000000000000000000000000000000000000000000000000000000000000000000000000000000000000000000000000000000000000000000000000000000000000000000000000000000000000000000000000000000000000000000000000000
310
00000000000000000000000000000000000000000000000000000000000000000000000000000000000000000000000000000000000000000000000000000000000000000000000000000000000000000000000000000000000000000000000000000000000000000000000000000000000000000000000000000000000000
310
00000000000000000000000000000000000000000000000000000000000000000000000000000000000000000000000000000000000000000000000000000000000000000000000000000000000000000000000000000000000000000000000000000000000000000000000000000000000000000000000000000000000000
310
00000000000000000000000000000000000000000000000000000000000000000000000000000000000000000000000000000000000000000000000000000000000000000000000000000000000000000000000000000000000000000000000000000000000000000000000000000000000000000000000000000000000000
310
00000000000000000000000000000000000000000000000000000000000000000000000000000000000000000000000000000000000000000000000000000000000000000000000000000000000000000000000000000000000000000000000000000000000000000000000000000000000000000000000000000000000000
310
00000000000000000000000000000000000000000000000000000000000000000000000000000000000000000000000000000000000000000000000000000000000000000000000000000000000000000000000000000000000000000000000000000000000000000000000000000000000000000000000000000000000000
310
00000000000000000000000000000000000000000000000000000000000000000000000000000000000000000000000000000000000000000000000000000000000000000000000000000000000000000000000000000000000000000000000000000000000000000000000000000000000000000000000000000000000000
310
00000000000000000000000000000000000000000000000000000000000000000000000000000000000000000000000000000000000000000000000000000000000000000000000000000000000000000000000000000000000000000000000000000000000000000000000000000000000000000000000000000000000000
310
00000000000000000000000000000000000000000000000000000000000000000000000000000000000000000000000000000000000000000000000000000000000000000000000000000000000000000000000000000000000000000000000000000000000000000000000000000000000000000000000000000000000000
310
00000000000000000000000000000000000000000000000000000000000000000000000000000000000000000000000000000000000000000000000000000000000000000000000000000000000000000000000000000000000000000000000000000000000000000000000000000000000000000000000000000000000000
310
00000000000000000000000000000000000000000000000000000000000000000000000000000000000000000000000000000000000000000000000000000000000000000000000000000000000000000000000000000000000000000000000000000000000000000000000000000000000000000000000000000000000000
310
00000000000000000000000000000000000000000000000000000000000000000000000000000000000000000000000000000000000000000000000000000000000000000000000000000000000000000000000000000000000000000000000000000000000000000000000000000000000000000000000000000000000000
310
00000000000000000000000000000000000000000000000000000000000000000000000000000000000000000000000000000000000000000000000000000000000000000000000000000000000000000000000000000000000000000000000000000000000000000000000000000000000000000000000000000000000000
310
00000000000000000000000000000000000000000000000000000000000000000000000000000000000000000000000000000000000000000000000000000000000000000000000000000000000000000000000000000000000000000000000000000000000000000000000000000000000000000000000000000000000000
310
00000000000000000000000000000000000000000000000000000000000000000000000000000000000000000000010101010001010100000101010001010100000101010001010101000101010000010101000101010000010101000101010000010101000101010100010101000001010100010101000001010100010101
310
00000101010001010101000000000000000000000000000000000101000000000000000000000000000000000000000000000000000000000000000000000000000000000000000000000000000000000000000000000000000000000000000000000001000001000100010000010001000100010000010001000100000100
310
01000100000100010001000100000100010001000100000100010001000001000100010000010001000100010000010001000100010000010001000100000100000000000000000000000000000101000001010000000000000000000000000000000000000000000000000000000000000000000000000000000000000000
310
00000000000000000000000000000000000000000000000000010000010001000100000100010001000100000100010001000001000100010000010001000100010000010001000100010000010001000100000100010001000001000100010001000001000100010001000001000100010000010000000000000000000000
310
00000100000000000100000000000000000000000000000000000000000000000000000000000000000000000000000000000000000000000000000000000000000000000000000000000000000001010101000101010000010101000101010000010101000101010100010101000001010100010101000001010100010101
310
00000101010001010101000101010000010101000101010000010101000101010000010101000101010100000000000000000000000000010000000100000100000000000000000000000000000000000000000000000000000000000000000000000000000000000000000000000000000000000000000000000000000000
310
00000000010000010001000100000100010001000100000100010001000001000100010000010001000100010000010001000100010000010001000100000100010001000001000100010001000001000100010001000001000100010000010000000000000000000000000001000101000100010000000000000000000000
310
00000000000000000000000000000000000000000000000000000000000000000000000000000000000000000000000000000000000000000001010101010101010101010101010101010101010101010101010101010101010101010101010101010101010101010101010101010101010101010101010101010101010101
310
01010101010101010101010101010101010101010101010000000000000000000000010000010100000100000000000000000000000000000000000000000000000000000000000000000000000000000000000000000000000000000000000000000000000000000000000000000100000000000000000000000000000000
310
00000000000000000000000000000000000000000000000000000000000000000000000000000000000000000000000000000000000000000000000000000000000000000000000000000001000000000000000000000001000000000001010000000000000000000000000000000000000000000000000000000000000000
310
00000000000000000000000000000000000000000000000000000000000000000000000001000000000000000000000000000000000000000000000000000000000000000000000000000000000000000000000000000000000000000000000000000000000000000000000000000000000000000000000000000000000000
310
00010000000000000000000000010000000000010100000000000000000000000000000000000000000000000000000000000000000000000000000000000000000000000000000000000000000000000000000000000000000100000000000000000000000000000000000000000000000000000000000000000000000000
310
00000000000000000000000000000000000000000000000000000000000000000000000000000000000000000000000000000000000001000000000000000000000000010000010100010000000000000000000000000000000000000000000000000000000000000000000000000000000000000000000000000000000000
310
00000000000000000000000000000001000000000000000000000000000000000000000000000000000000000000000000000000000000000000000000000000000000000000000000000000000000000000000000000000000000000000000000000000000000000000000100000000000000000000000001010101010101
310
00000000000000000000000000000000000000000000000000000000000000000000000000000000000000000000000000000000000000000000000000000000000000000100000000000000000000000000000000000000000000000000000000000000000000000000000000000000000000000000000000000000000000
310
00000000000000000000000000000000000000000000000000000000000000000001000000000000000000000001000000000000010000000000000000000000000000000000000000000000000000000000000000000000000000000000000000000000000000000000000000000000000000000000000000010000000000
310
00000000000000000000000000000000000000000000000000000000000000000000000000000000000000000000000000000000000000000000000000000000000000000000000000000000000000000000000000000100000000000000000000000101000000000001010100000000000000000000000000000000000000
310
00000000000000000000000000000000000000000000000000000000000000000000000000000000000000000000000100000000000000000000000000000000000000000000000000000000000000000000000000000000000000000000000000000000000000000000000000000000000000000000000000000000000000
310
00000000000000000000000001000000000000000000000000000101010000010000010101010101000000000000000000000000000000000000000000000000000000000000000000000000000000000000000000000000000000000000000000000000010000000000000000000000000000000000000000000000000000
310
00000000000000000000000000000000000000000000000000000000000000000000000000000000000000000000000000000000000000000000000000000000000100000000000000000000000000000001000001010100000000000001010101010100000000000000000000000000000000000000000000000000000000
310
00000000000000000000000000000000000000000000000000000100000000000000000000000000000000000000000000000000000000000000000000000000000000000000000000000000000000000000000000000000000000000000000000000000000000000000000000000000000000000000010000000000000000
310
00000000000000010000010000010101010101000000000000010101010101000000000000000000000000000000000000000000000000000000000000000000000000000000000000000000000000070101010101010101010101010101010101010101010101010101010101010101010101010101010101010101010101
310
01010101010101010101010101010101010101010101010101010101010101010101010101010101010101010100000000000000000000000000000001000001010101010101010101010101010101010101010101010101010101010101010101010100000000000000000000000000000000000000000000000000000000
310
00000000000101010101010101010101010101010101010101010101010101010101010101010101010101010101010101010101010101010101010101010101010101010101010101010101010101010101010101010101010101010101010101010000000000000000000000000000000100000101010101010101010101
310
01010101010101010101010101010101010101010101010101000000000000000000000000000000000000000000000000000000000000000000010000000000000000000000000000000000000000000000000000000000000000000000000000000000000000000000000000000000000000000000000000000000000000
310
00000000000000000000000000000000000000000000000100000000000000000000000000000001000001010101010101010101010101010101010101010101010101010101010101010100000000000000000000000000000000000000000000000000000000000000000000000001000000000000000000000000000000
310
00000000000000000000000000000000000000000000000000000000000000000000000000000000000000000000000000000000000000000000000000000000000000000000000000000000010000000000000000000000000000000100000100000000000000000000000000000000000000000000000000000000000000
310
00000000000000000000000000000000000000000000000000000000000000000000000000010000000000000000000000000000000000000000000000000000000000000000000000000000000000000000000000000000000000000000000000000000000000000000000000000000000000000000000000000000000000
310
00000100000000000000000000000000000101000001000000000000000000000000000000000000000000000000000000000000000000000000000000000000000000000000000000000000000000000000000000000000000001000000000000000000000000000000000000000000000000000000000000000000000000
310
00000000000000000000000000000000000000000000000000000000000000000000000000000000000000000000000000000000000000010000000000000000000000010101000000000100000000000000000000000000000000000000000000000000000000000000000000000000000000000000000000000000000000
310
00000000000000000000000000000000010000000000000000000000000000000000000000000000000000000000000000000000000000000000000000000000000000000000000000000000000000000000000000000000000000000000000000000000000000000000000001000000000000000000000001000000000000
310
01000000000000000000000000000000000000000000000000000000000000000000000000000000000000000000000000000000000000000000000000000000000000000001000000000000000000000000000000000000000000000000000000000000000000000000000000000000000000000000000000000000000000
310
00000000000000000000000000000000000000000000000000000000000000000000010000000000000000000000000101010100000100000000000000000000000000000000000000000000000000000000000000000000000000000000000000000000000000000000000000000000000000000000000000000100000000
310
00000000000000000000000000000000000000000000000000000000000000000000000000000000000000000000000000000000000000000000000000000000000000000000000000000000000000000000000000000001000000000000000000000000010000010000010000000000000000000000000000000000000000
310
00000000000000000000000000000000000000000000000000000000000000000000000000000000000000000000000001000000000000000000000000000000000000000000000000000000000000000000000000000000000000000000000000000000000000000000000000000000000000000000000000000000000000
310
00000000000000000000000000010000000000000000000000010000000001010100000000000000000000000000000000000000000000000000000000000000000000000000000000000000000000000000000000000000000000000000000000000000000100000000000000000000000000000000000000000000000000
310
00000000000000000000000000000000000000000000000000000000000000000000000000000000000000000000000000000000000000000000000000000000000001000000000000000000000001000000000001010000000000000000000000000000000000000000000000000000000000000000000000000000000000
310
00000000000000000000000000000000000000000000000000000001010101010101010101010101010101010101010101010101010101010101010101010101010101010101010101010101010101010101010101010101010101010101010101010101010101010101010101010101010101010101010100000000000000
310
00000000010000000100000100000000000000000000000000000000000000000000000000000000000000000000000000000000000000000000000000000000000000000000000000000000000000000000000100010001000001000100010001000001000100010000010001000100010000010001000100000100010001
310
00000100010001000100000100010001000100000100010001000001000100010000010001000100010000010001000000000000000000000001000101000100010000000000000000000000000000000000000000000000000000000000000000000000000000000000000000000000000000000000000000000000000000
310
00000000000000000001010100010101010001010100010101010001010100000101010001010100000101010001010101000101010000010101000101010000010101000101010000010101000101010100010101000001010100010101000001010100000000000000000000000100000101000001000000000000000000
310
00000000000000000000000000000000000000000000000000000000000000000000000000000000000000000000000000000000000000000000000000000100010001000001000100010001000001000100010000010001000100010000010001000100000100010001000001000100010001000001000100010001000001
310
00010001000001000100010000010001000100010000010001000000000000000000000001000000000001000000000000000000000000000000000000000000000000000000000000000000000000000000000000000000000000000000000000000000000000000000000000000000000000010001000100000100010001
310
00010000010001000100000100010001000100000100010001000001000100010000010001000100010000010001000100010000010001000100000100010001000001000100010001000001000100000000000000000000000001010000010100000000000000000000000000000000000000000000000000000000000000
310
00000000000000000000000000000000000000000000000000000000000000000000000000000000000101010001010101000101010001010101000101010000010101000101010000010101000101010100010101000001010100010101000001010100010101000001010100010101010001010100000101010001010100
310
00010101000000000000000000000000000001010000000000000000000000000000000000000000000000000000000000000000000000000000000000000000000000000000000000000000000000000000000000000000000000000000000000000000000000000000000000000000000000000000000000000000000000
310
00000000000000000000000000000000000000000000000000000000000000000000000000000000000000000000000000000000000000000000000000000000000000000000000000000000000000000000000000000000000000000000000000000000000000000000000000000000000000000000000000000000000000
310
00000000000000000000000000000000000000000000000000000000000000000000000000000000000000000000000000000000000000000000000000000000000000000000000000000000000000000000000000000000000000000000000000000000000000000000000000000000000000000000000000000000000000
310
00000000000000000000000000000000000000000000000000000000000000000000000000000000000000000000000000000000000000000000000000000000000000000000000000000000000000000000000000000000000000000000000000000000000000000000000000000000000000000000000000000000000000
310
00000000000000000000000000000000000000000000000000000000000000000000000000000000000000000000000000000000000000000000000000000000000000000000000000000000000000000000000000000000000000000000000000000000000000000000000000000000000000000000000000000000000000
310
00000000000000000000000000000000000000000000000000000000000000000000000000000000000000000000000000000000000000000000000000000000000000000000000000000000000000000000000000000000000000000000000000000000000000000000000000000000000000000000000000000000000000
310
00000000000000000000000000000000000000000000000000000000000000000000000000000000000000000000000000000000000000000000000000000000000000000000000000000000000000000000000000000000000000000000000000000000000000000000000000000000000000000000000000000000000000
310
00000000000000000000000000000000000000000000000000000000000000000000000000000000000000000000000000000000000000000000000000000000000000000000000000000000000000000000000000000000000000000000000000000000000000000000000000000000000000000000000000000000000000
310
00000000000000000000000000000000000000000000000000000000000000000000000000000000000000000000000000000000000000000000000000000000000000000000000000000000000000000000000000000000000000000000000000000000000000000000000000000000000000000000000000000000000000
310
00000000000000000000000000000000000000000000000000000000000000000000000000000000000000000000000000000000000000000000000000000000000000000000000000000000000000000000000000000000000000000000000000000000000000000000000000000000000000000000000000000000000000
310
00000000000000000000000000000000000000000000000000000000000000000000000000000000000000000000000000000000000000000000000000000000000000000000000000000000000000000000000000000000000000000000000000000000000000000000000000000000000000000000000000000000000000
310
00000000000000000000000000000000000000000000000000000000000000000000000000000000000000000000000000000000000000000000000000000000000000000000000000000000000000000000000000000000000000000000000000000000000000000000000000000000000000000000000000000000000000
310
00000000000000000000000000000000000000000000000000000000000000000000000000000000000000000000000000000000000000000000000000000000000000000000000000000000000000000000000000000000000000000000000000000000000000000000000000000000000000000000000000000000000000
310
00000000000000000000000000000000000000000000000000000000000000000000000000000000000000000000000000000000000000000000000000000000000000000000000000000000000000000000000000000000000000000000000000000000000000000000000000000000000000000000000000000000000000
310
00000000000000000000000000000000000000000000000000000000000000000000000000000000000000000000000000000000000000000000000000000000000000000000000000000000000000000000000000000000000000000000000000000000000000000000000000000000000000000000000000000000000000
310
00000000000000000000000000000000000000000000000000000000000000000000000000000000000000000000000000000000000000000000000000000000000000000000000000000000000000000000000000000000000000000000000000000000000000000000000000000000000000000000000000000000000000
310
00000000000000000000000000000000000000000000000000000000000000000000000000000000000000000000000000000000000000000000000000000000000000000000000000000000000000000000000000000000000000000000000000000000000000000000000000000000000000000000000000000000000000
310
00000000000000000000000000000000000000000000000000000000000000000000000000000000000000000000000000000000000000000000000000000000000000000000000000000000000000000000000000000000000000000000000000000000000000000000000000000000000000000000000000000000000000
310
00000000000000000000000000000000000000000000000000000000000000000000000000000000000000000000000000000000000000000000000000000000000000000000000000000000000000000000000000000000000000000000000000000000000000000000000000000000000000000000000000000000000000
310
00000000000000000000000000000000000000000000000000000000000000000000000000000000000000000000000000000000000000000000000000000000000000000000000000000000000000000000000000000000000000000000000000000000000000000000000000000000000000000000000000000000000000
310
00000000000000000000000000000000000000000000000000000000000000000000000000000000000000000000000000000000000000000000000000000000000000000000000000000000000000000000000000000000000000000000000000000000000000000000000000000000000000000000000000000000000000
310
00000000000000000000000000000000000000000000000000000000000000000000000000000000000000000000000000000000000000000000000000000000000000000000000000000000000000000000000000000000000000000000000000000000000000000000000000000000000000000000000000000000000000
310
00000000000000000000000000000000000000000000000000000000000000000000000000000000000000000000000000000000000000000000000000000000000000000000000000000000000000000000000000000000000000000000000000000000000000000000000000000000000000000000000000000000000000
310
00000000000000000000000000000000000000000000000000000000000000000000000000000000000000000000000000000000000000000000000000000000000000000000000000000000000000000000000000000000000000000000000000000000000000000000000000000000000000000000000000000000000000
310
00000000000000000000000000000000000000000000000000000000000000000000000000000000000000000000000000000000000000000000000000000000000000000000000000000000000000000000000000000000000000000000000000000000000000000000000000000000000000000000000000000000000000
310
00000000000000000000000000000000000000000000000000000000000000000000000000000000000000000000000000000000000000000000000000000000000000000000000000000000000000000000000000000000000000000000000000000000000000000000000000000000000000000000000000000000000000
310
00000000000000000000000000000000000000000000000000000000000000000000000000000000000000000000000000000000000000000000000000000000000000000000000000000000000000000000000000000000000000000000000000000000000000000000000000000000000000000000000000000000000000
310
00000000000000000000000000000000000000000000000000000000000000000000000000000000000000000000000000000000000000000000000000000000000000000000000000000000000000000000000000000000000000000000000000000000000000000000000000000000000000000000000000000000000000
310
00000000000000000000000000000000000000000000000000000000000000000000000000000000000000000000000000000000000000000000000000000000000000000000000000000000000000000000000000000000000000000000000000000000000000000000000000000000000000000000000000000000000000
310
00000000000000000000000000000000000000000000000000000000000000000000000000000000000000000000000000000000000000000000000000000000000000000000000000000000000000000000000000000000000000000000000000000000000000000000000000000000000000000000000000000000000000
310
00000000000000000000000000000000000000000000000000000000000000000000000000000000000000000000000000000000000000000000000000000000000000000000000000000000000000000000000000000000000000000000000000000000000000000000000000000000000000000000000000000000000000
310
00000000000000000000000000000000000000000000000000000000000000000000000000000000000000000000000000000000000000000000000000000000000000000000000000000000000000000000000000000000000000000000000000000000000000000000000000000000000000000000000000000000000000
310
00000000000000000000000000000000000000000000000000000000000000000000000000000000000000000000000000000000000000000000000000000000000000000000000000000000000000000000000000000000000000000000000000000000000000000000000000000000000000000000000000000000000000
310
00000000000000000000000000000000000000000000000000000000000000000000000000000000000000000000000000000000000000000000000000000000000000000000000000000000000000000000000000000000000000000000000000000000000000000000000000000000000000000000000000000000000000
310
00000000000000000000000000000000000000000000000000000000000000000000000000000000000000000000000000000000000000000000000000000000000000000000000000000000000000000000000000000000000000000000000000000000000000000000000000000000000000000000000000000000000000
310
00000000000000000000000000000000000000000000000000000000000000000000000000000000000000000000000000000000000000000000000000000000000000000000000000000000000000000000000000000000000000000000000000000000000000000000000000000000000000000000000000000000000000
310
00000000000000000000000000000000000000000000000000000000000000000000000000000000000000000000000000000000000000000000000000000000000000000000000000000000000000000000000000000000000000000000000000000000000000000000000000000000000000000000000000000000000000
310
00000000000000000000000000000000000000000000000000000000000000000000000000000000000000000000000000000000000000000000000000000000000000000000000000000000000000000000000000000000000000000000000000000000000000000000000000000000000000000000000000000000000000
310
000000000000000000000000000000000000000000000000000000000000000000000000000000000000000000000000000000000000000000000000000000000000000000000000000000000000000000000000000000000000000000000000000000000000000000000000
  0
ENDSEC
  0
EOF
