  0
SECTION
  2
HEADER
  9
$ACADVER
  1
AC1018
  9
$ACADMAINTVER
 70
     0
  9
$DWGCODEPAGE
  3
ANSI_1252
  9
$INSBASE
 10
0.0
 20
0.0
 30
0.0
  9
$EXTMIN
 10
-10.33117582923079
 20
94.9332486368879
 30
0.0
  9
$EXTMAX
 10
393.356036706442
 20
380.3686514398888
 30
0.0
  9
$LIMMIN
 10
-10.33117582923079
 20
94.9332486368879
  9
$LIMMAX
 10
393.356036706442
 20
380.3686514398888
  9
$ORTHOMODE
 70
     1
  9
$REGENMODE
 70
     1
  9
$FILLMODE
 70
     1
  9
$QTEXTMODE
 70
     0
  9
$MIRRTEXT
 70
     0
  9
$LTSCALE
 40
1.0
  9
$ATTMODE
 70
     1
  9
$TEXTSIZE
 40
2.5
  9
$TRACEWID
 40
1.0
  9
$TEXTSTYLE
  7
Standard
  9
$CLAYER
  8
0
  9
$CELTYPE
  6
ByLayer
  9
$CECOLOR
 62
     7
  9
$CELTSCALE
 40
1.0
  9
$DISPSILH
 70
     0
  9
$DIMSCALE
 40
1.0
  9
$DIMASZ
 40
0.18
  9
$DIMEXO
 40
0.0625
  9
$DIMDLI
 40
0.38
  9
$DIMRND
 40
0.0000001
  9
$DIMDLE
 40
0.0
  9
$DIMEXE
 40
0.18
  9
$DIMTP
 40
0.0
  9
$DIMTM
 40
0.0
  9
$DIMTXT
 40
0.18
  9
$DIMCEN
 40
0.09
  9
$DIMTSZ
 40
0.0
  9
$DIMTOL
 70
     0
  9
$DIMLIM
 70
     0
  9
$DIMTIH
 70
     1
  9
$DIMTOH
 70
     1
  9
$DIMSE1
 70
     0
  9
$DIMSE2
 70
     0
  9
$DIMTAD
 70
     0
  9
$DIMZIN
 70
     0
  9
$DIMBLK
  1

  9
$DIMASO
 70
     1
  9
$DIMSHO
 70
     1
  9
$DIMPOST
  1

  9
$DIMAPOST
  1

  9
$DIMALT
 70
     0
  9
$DIMALTD
 70
     2
  9
$DIMALTF
 40
25.4
  9
$DIMLFAC
 40
1.0
  9
$DIMTOFL
 70
     0
  9
$DIMTVP
 40
0.0
  9
$DIMTIX
 70
     0
  9
$DIMSOXD
 70
     0
  9
$DIMSAH
 70
     0
  9
$DIMBLK1
  1

  9
$DIMBLK2
  1

  9
$DIMSTYLE
  2
Standard
  9
$DIMCLRD
 70
     0
  9
$DIMCLRE
 70
     0
  9
$DIMCLRT
 70
     0
  9
$DIMTFAC
 40
1.0
  9
$DIMGAP
 40
0.09
  9
$DIMJUST
 70
     0
  9
$DIMSD1
 70
     0
  9
$DIMSD2
 70
     0
  9
$DIMTOLJ
 70
     1
  9
$DIMTZIN
 70
     0
  9
$DIMALTZ
 70
     0
  9
$DIMALTTZ
 70
     0
  9
$DIMUPT
 70
     0
  9
$DIMDEC
 70
     4
  9
$DIMTDEC
 70
     4
  9
$DIMALTU
 70
     2
  9
$DIMALTTD
 70
     2
  9
$DIMTXSTY
  7
_TCW_TXTSTY_1
  9
$DIMAUNIT
 70
     0
  9
$DIMADEC
 70
     4
  9
$DIMALTRND
 40
0.01
  9
$DIMAZIN
 70
     0
  9
$DIMDSEP
 70
    46
  9
$DIMATFIT
 70
     3
  9
$DIMFRAC
 70
     0
  9
$DIMLDRBLK
  1

  9
$DIMLUNIT
 70
     2
  9
$DIMLWD
 70
    -2
  9
$DIMLWE
 70
    -2
  9
$DIMTMOVE
 70
     0
  9
$LUNITS
 70
     2
  9
$LUPREC
 70
     4
  9
$SKETCHINC
 40
1.0
  9
$FILLETRAD
 40
0.0
  9
$AUNITS
 70
     0
  9
$AUPREC
 70
     0
  9
$MENU
  1
.
  9
$ELEVATION
 40
0.0
  9
$PELEVATION
 40
0.0
  9
$THICKNESS
 40
0.0
  9
$LIMCHECK
 70
     0
  9
$CHAMFERA
 40
0.5
  9
$CHAMFERB
 40
0.5
  9
$CHAMFERC
 40
1.0
  9
$CHAMFERD
 40
0.0
  9
$SKPOLY
 70
     0
  9
$TDCREATE
 40
2454839.558212222
  9
$TDUCREATE
 40
2454839.516545556
  9
$TDUPDATE
 40
2454839.558212234
  9
$TDUUPDATE
 40
2454839.516545567
  9
$TDINDWG
 40
0.0
  9
$TDUSRTIMER
 40
0.0
  9
$USRTIMER
 70
     1
  9
$ANGBASE
 50
0.0
  9
$ANGDIR
 70
     0
  9
$PDMODE
 70
     0
  9
$PDSIZE
 40
0.0
  9
$PLINEWID
 40
0.0
  9
$SPLFRAME
 70
     0
  9
$SPLINETYPE
 70
     6
  9
$SPLINESEGS
 70
     8
  9
$HANDSEED
  5
428
  9
$SURFTAB1
 70
     6
  9
$SURFTAB2
 70
     6
  9
$SURFTYPE
 70
     6
  9
$SURFU
 70
     6
  9
$SURFV
 70
     6
  9
$UCSBASE
  2

  9
$UCSNAME
  2

  9
$UCSORG
 10
0.0
 20
0.0
 30
0.0
  9
$UCSXDIR
 10
1.0
 20
0.0
 30
0.0
  9
$UCSYDIR
 10
0.0
 20
1.0
 30
0.0
  9
$UCSORTHOREF
  2

  9
$UCSORTHOVIEW
 70
     0
  9
$UCSORGTOP
 10
0.0
 20
0.0
 30
0.0
  9
$UCSORGBOTTOM
 10
0.0
 20
0.0
 30
0.0
  9
$UCSORGLEFT
 10
0.0
 20
0.0
 30
0.0
  9
$UCSORGRIGHT
 10
0.0
 20
0.0
 30
0.0
  9
$UCSORGFRONT
 10
0.0
 20
0.0
 30
0.0
  9
$UCSORGBACK
 10
0.0
 20
0.0
 30
0.0
  9
$PUCSBASE
  2

  9
$PUCSNAME
  2

  9
$PUCSORG
 10
0.0
 20
0.0
 30
0.0
  9
$PUCSXDIR
 10
1.0
 20
0.0
 30
0.0
  9
$PUCSYDIR
 10
0.0
 20
1.0
 30
0.0
  9
$PUCSORTHOREF
  2

  9
$PUCSORTHOVIEW
 70
     0
  9
$PUCSORGTOP
 10
0.0
 20
0.0
 30
0.0
  9
$PUCSORGBOTTOM
 10
0.0
 20
0.0
 30
0.0
  9
$PUCSORGLEFT
 10
0.0
 20
0.0
 30
0.0
  9
$PUCSORGRIGHT
 10
0.0
 20
0.0
 30
0.0
  9
$PUCSORGFRONT
 10
0.0
 20
0.0
 30
0.0
  9
$PUCSORGBACK
 10
0.0
 20
0.0
 30
0.0
  9
$USERI1
 70
     0
  9
$USERI2
 70
     0
  9
$USERI3
 70
     0
  9
$USERI4
 70
     0
  9
$USERI5
 70
     0
  9
$USERR1
 40
0.0
  9
$USERR2
 40
0.0
  9
$USERR3
 40
0.0
  9
$USERR4
 40
0.0
  9
$USERR5
 40
0.0
  9
$WORLDVIEW
 70
     1
  9
$SHADEDGE
 70
     3
  9
$SHADEDIF
 70
    70
  9
$TILEMODE
 70
     1
  9
$MAXACTVP
 70
    64
  9
$PINSBASE
 10
0.0
 20
0.0
 30
0.0
  9
$PLIMCHECK
 70
     0
  9
$PEXTMIN
 10
-2.97407440810383
 20
-13.33206671995879
 30
0.0
  9
$PEXTMAX
 10
294.0259255918962
 20
196.6679332800412
 30
0.0
  9
$PLIMMIN
 10
-2.97407440810383
 20
-13.33206671995879
  9
$PLIMMAX
 10
294.0259255918962
 20
196.6679332800412
  9
$UNITMODE
 70
     0
  9
$VISRETAIN
 70
     1
  9
$PLINEGEN
 70
     0
  9
$PSLTSCALE
 70
     1
  9
$TREEDEPTH
 70
  3020
  9
$CMLSTYLE
  2
Standard
  9
$CMLJUST
 70
     0
  9
$CMLSCALE
 40
1.0
  9
$PROXYGRAPHICS
 70
     1
  9
$MEASUREMENT
 70
     0
  9
$CELWEIGHT
370
    -1
  9
$ENDCAPS
280
     0
  9
$JOINSTYLE
280
     0
  9
$LWDISPLAY
290
     0
  9
$INSUNITS
 70
     1
  9
$HYPERLINKBASE
  1

  9
$STYLESHEET
  1

  9
$XEDIT
290
     1
  9
$CEPSNTYPE
380
     0
  9
$PSTYLEMODE
290
     1
  9
$FINGERPRINTGUID
  2
{C1DAC775-ADEB-4F57-B213-14FE849C0399}
  9
$VERSIONGUID
  2
{FAEB1C32-E019-11D5-929B-00C0DF256EC4}
  9
$EXTNAMES
290
     1
  9
$PSVPSCALE
 40
0.0
  9
$OLESTARTUP
290
     0
  9
$SORTENTS
280
   127
  9
$INDEXCTL
280
     0
  9
$HIDETEXT
280
     1
  9
$XCLIPFRAME
290
     0
  9
$HALOGAP
280
     0
  9
$OBSCOLOR
 70
   257
  9
$OBSLTYPE
280
     0
  9
$INTERSECTIONDISPLAY
280
     0
  9
$INTERSECTIONCOLOR
 70
   257
  9
$DIMASSOC
280
     2
  9
$PROJECTNAME
  1

  0
ENDSEC
  0
SECTION
  2
CLASSES
  0
CLASS
  1
ACDBDICTIONARYWDFLT
  2
AcDbDictionaryWithDefault
  3
ObjectDBX Classes
 90
        0
 91
        3
280
     0
281
     0
  0
CLASS
  1
VISUALSTYLE
  2
AcDbVisualStyle
  3
ObjectDBX Classes
 90
     4095
 91
        3
280
     0
281
     0
  0
CLASS
  1
TCOPTIONALDATA
  2
TcOptionalData
  3
ExTcadCustObjs|Description: TurboCAD extension data object
 90
        0
 91
        3
280
     0
281
     0
  0
ENDSEC
  0
SECTION
  2
TABLES
  0
TABLE
  2
VPORT
  5
8
330
0
100
AcDbSymbolTable
 70
     1
  0
VPORT
  5
29
330
8
100
AcDbSymbolTableRecord
100
AcDbViewportTableRecord
  2
*Active
 70
     0
 10
0.0
 20
0.0
 11
1.0
 21
1.0
 12
0.0
 22
0.0000000000000142
 13
0.0
 23
0.0
 14
10.0
 24
10.0
 15
10.0
 25
10.0
 16
0.0
 26
0.0
 36
1.0
 17
0.65110818975043
 27
162.9379726368159
 37
0.0
 40
204.6364108828631
 41
1.972704714640198
 42
50.0
 43
0.0
 44
0.0
 50
0.0
 51
0.0
 71
     0
 72
   100
 73
     1
 74
     3
 75
     0
 76
     0
 77
     0
 78
     0
281
     0
 65
     1
110
0.0
120
0.0
130
0.0
111
1.0
121
0.0
131
0.0
112
0.0
122
1.0
132
0.0
 79
     0
146
0.0
  0
ENDTAB
  0
TABLE
  2
LTYPE
  5
5
330
0
100
AcDbSymbolTable
 70
    17
  0
LTYPE
  5
14
330
5
100
AcDbSymbolTableRecord
100
AcDbLinetypeTableRecord
  2
ByBlock
 70
     0
  3

 72
    65
 73
     0
 40
0.0
  0
LTYPE
  5
15
330
5
100
AcDbSymbolTableRecord
100
AcDbLinetypeTableRecord
  2
ByLayer
 70
     0
  3

 72
    65
 73
     0
 40
0.0
  0
LTYPE
  5
16
330
5
100
AcDbSymbolTableRecord
100
AcDbLinetypeTableRecord
  2
Continuous
 70
     0
  3
Solid line
 72
    65
 73
     0
 40
0.0
  0
LTYPE
  5
40
330
5
100
AcDbSymbolTableRecord
100
AcDbLinetypeTableRecord
  2
Durchgehend
 70
     0
  3
Durchgehend
 72
    65
 73
     0
 40
0.0
  0
LTYPE
  5
41
330
5
100
AcDbSymbolTableRecord
100
AcDbLinetypeTableRecord
  2
Rand
 70
     0
  3
Rand
 72
    65
 73
     6
 40
1.75
 49
0.5
 74
     0
 49
-0.25
 74
     0
 49
0.5
 74
     0
 49
-0.25
 74
     0
 49
0.0
 74
     0
 49
-0.25
 74
     0
  0
LTYPE
  5
42
330
5
100
AcDbSymbolTableRecord
100
AcDbLinetypeTableRecord
  2
Mitte
 70
     0
  3
Mitte
 72
    65
 73
     4
 40
2.0
 49
1.25
 74
     0
 49
-0.25
 74
     0
 49
0.25
 74
     0
 49
-0.25
 74
     0
  0
LTYPE
  5
43
330
5
100
AcDbSymbolTableRecord
100
AcDbLinetypeTableRecord
  2
Strichpunkt
 70
     0
  3
Strichpunkt
 72
    65
 73
     4
 40
1.0
 49
0.5
 74
     0
 49
-0.25
 74
     0
 49
0.0
 74
     0
 49
-0.25
 74
     0
  0
LTYPE
  5
44
330
5
100
AcDbSymbolTableRecord
100
AcDbLinetypeTableRecord
  2
Gestrichelt
 70
     0
  3
Gestrichelt
 72
    65
 73
     2
 40
0.75
 49
0.5
 74
     0
 49
-0.25
 74
     0
  0
LTYPE
  5
45
330
5
100
AcDbSymbolTableRecord
100
AcDbLinetypeTableRecord
  2
Teilen
 70
     0
  3
Teilen
 72
    65
 73
     6
 40
1.25
 49
0.5
 74
     0
 49
-0.25
 74
     0
 49
0.0
 74
     0
 49
-0.25
 74
     0
 49
0.0
 74
     0
 49
-0.25
 74
     0
  0
LTYPE
  5
46
330
5
100
AcDbSymbolTableRecord
100
AcDbLinetypeTableRecord
  2
Punkt
 70
     0
  3
Punkt
 72
    65
 73
     2
 40
0.25
 49
0.0
 74
     0
 49
-0.25
 74
     0
  0
LTYPE
  5
47
330
5
100
AcDbSymbolTableRecord
100
AcDbLinetypeTableRecord
  2
Verdeckt
 70
     0
  3
Verdeckt
 72
    65
 73
     2
 40
0.375
 49
0.25
 74
     0
 49
-0.125
 74
     0
  0
LTYPE
  5
48
330
5
100
AcDbSymbolTableRecord
100
AcDbLinetypeTableRecord
  2
$INVISIBLE
 70
     0
  3
$INVISIBLE
 72
    65
 73
     2
 40
200.0
 49
-100.0
 74
     0
 49
-100.0
 74
     0
  0
LTYPE
  5
49
330
5
100
AcDbSymbolTableRecord
100
AcDbLinetypeTableRecord
  2
HIDDEN
 70
     0
  3
HIDDEN
 72
    65
 73
     2
 40
9.524999999999999
 49
6.35
 74
     0
 49
-3.175
 74
     0
  0
LTYPE
  5
4A
330
5
100
AcDbSymbolTableRecord
100
AcDbLinetypeTableRecord
  2
DOT
 70
     0
  3
DOT
 72
    65
 73
     2
 40
0.25
 49
0.0
 74
     0
 49
-0.25
 74
     0
  0
LTYPE
  5
4B
330
5
100
AcDbSymbolTableRecord
100
AcDbLinetypeTableRecord
  2
CENTER
 70
     0
  3
CENTER
 72
    65
 73
     4
 40
50.8
 49
31.75
 74
     0
 49
-6.35
 74
     0
 49
6.35
 74
     0
 49
-6.35
 74
     0
  0
LTYPE
  5
4C
330
5
100
AcDbSymbolTableRecord
100
AcDbLinetypeTableRecord
  2
DASHDOT
 70
     0
  3
DASHDOT
 72
    65
 73
     4
 40
1.0
 49
0.5
 74
     0
 49
-0.25
 74
     0
 49
0.0
 74
     0
 49
-0.25
 74
     0
  0
LTYPE
  5
4D
330
5
100
AcDbSymbolTableRecord
100
AcDbLinetypeTableRecord
  2
DASHED
 70
     0
  3
DASHED
 72
    65
 73
     2
 40
0.75
 49
0.5
 74
     0
 49
-0.25
 74
     0
  0
LTYPE
  5
4E
330
5
100
AcDbSymbolTableRecord
100
AcDbLinetypeTableRecord
  2
$SNAPEXT
 70
     0
  3
$SNAPEXT
 72
    65
 73
     2
 40
0.04
 49
0.02
 74
     0
 49
-0.02
 74
     0
  0
LTYPE
  5
4F
330
5
100
AcDbSymbolTableRecord
100
AcDbLinetypeTableRecord
  2
$AUXILIARY
 70
     0
  3
$AUXILIARY
 72
    65
 73
     2
 40
0.1
 49
0.05
 74
     0
 49
-0.05
 74
     0
  0
ENDTAB
  0
TABLE
  2
LAYER
  5
2
330
0
100
AcDbSymbolTable
 70
     2
  0
LAYER
  5
10
330
2
100
AcDbSymbolTableRecord
100
AcDbLayerTableRecord
  2
0
 70
     0
 62
     7
  6
Continuous
370
     0
390
F
  0
LAYER
  5
50
330
2
100
AcDbSymbolTableRecord
100
AcDbLayerTableRecord
  2
Main lines
 70
     0
 62
     1
420
 16711680
  6
Continuous
370
    50
390
F
  0
ENDTAB
  0
TABLE
  2
STYLE
  5
3
330
0
100
AcDbSymbolTable
 70
     5
  0
STYLE
  5
11
330
3
100
AcDbSymbolTableRecord
100
AcDbTextStyleTableRecord
  2
Standard
 70
     0
 40
0.0
 41
1.0
 50
0.0
 71
     0
 42
0.2
  3
txt
  4

  0
STYLE
  5
54
330
3
100
AcDbSymbolTableRecord
100
AcDbTextStyleTableRecord
  2
ISO Proportional
 70
     0
 40
0.0
 41
1.0
 50
0.0
 71
     0
 42
2.5
  3
ISOCP.SHX
  4

  0
STYLE
  5
55
330
3
100
AcDbSymbolTableRecord
100
AcDbTextStyleTableRecord
  2

 70
     1
 40
0.0
 41
1.0
 50
0.0
 71
     0
 42
2.5
  3
LTYPESHP.SHX
  4

  0
STYLE
  5
56
330
3
100
AcDbSymbolTableRecord
100
AcDbTextStyleTableRecord
  2
YUSIMPLE
 70
     0
 40
0.0
 41
1.0
 50
0.0
 71
     0
 42
2.5
  3
YUSIMPLE.SHX
  4

  0
STYLE
  5
57
330
3
100
AcDbSymbolTableRecord
100
AcDbTextStyleTableRecord
  2
_TCW_TXTSTY_1
 70
     0
 40
0.0
 41
1.0
 50
0.0
 71
     0
 42
0.6000000238418579
  3
TXT.SHX
  4

  0
ENDTAB
  0
TABLE
  2
VIEW
  5
6
330
0
100
AcDbSymbolTable
 70
     3
  0
VIEW
  5
51
330
6
100
AcDbSymbolTableRecord
100
AcDbViewTableRecord
  2
Ansicht_0
 70
     0
 40
210.0
 10
148.5
 20
105.0
 41
297.0
 11
0.0
 21
0.0
 31
1.0
 12
0.0
 22
0.0
 32
0.0
 42
50.0
 43
0.0
 44
0.0
 50
0.0
 71
     0
281
     0
 72
     0
  0
VIEW
  5
52
330
6
100
AcDbSymbolTableRecord
100
AcDbViewTableRecord
  2
View_1
 70
     0
 40
201.3931070680139
 10
717.1860183610022
 20
392.4295019556221
 41
280.2283967588442
 11
0.0
 21
0.0
 31
1.0
 12
0.0
 22
0.0
 32
0.0
 42
50.0
 43
0.0
 44
0.0
 50
0.0
 71
     0
281
     0
 72
     0
  0
VIEW
  5
53
330
6
100
AcDbSymbolTableRecord
100
AcDbViewTableRecord
  2
View_2
 70
     0
 40
201.393107068014
 10
717.186022139866
 20
392.4295042396324
 41
280.2283967588442
 11
0.0
 21
0.0
 31
1.0
 12
0.0
 22
0.0
 32
0.0
 42
50.0
 43
0.0
 44
0.0
 50
0.0
 71
     0
281
     0
 72
     0
  0
ENDTAB
  0
TABLE
  2
UCS
  5
7
330
0
100
AcDbSymbolTable
 70
     0
  0
ENDTAB
  0
TABLE
  2
APPID
  5
9
330
0
100
AcDbSymbolTable
 70
     2
  0
APPID
  5
12
330
9
100
AcDbSymbolTableRecord
100
AcDbRegAppTableRecord
  2
ACAD
 70
     0
  0
APPID
  5
3F
330
9
100
AcDbSymbolTableRecord
100
AcDbRegAppTableRecord
  2
TCAD
 70
     0
  0
ENDTAB
  0
TABLE
  2
DIMSTYLE
  5
A
330
0
100
AcDbSymbolTable
 70
     2
100
AcDbDimStyleTable
  0
DIMSTYLE
105
27
330
A
100
AcDbSymbolTableRecord
100
AcDbDimStyleTableRecord
  2
Standard
 70
     0
 45
0.0000001
148
0.01
179
     4
340
57
  0
DIMSTYLE
105
58
330
A
100
AcDbSymbolTableRecord
100
AcDbDimStyleTableRecord
  2
ISO-25
 70
     0
 41
2.5
 42
0.625
 43
3.75
 44
1.25
 45
0.0000001
 73
     0
 74
     0
 77
     1
 78
     8
140
2.5
143
0.03937007874016
147
0.625
148
0.0000001
171
     3
172
     1
178
     1
179
     2
271
     2
272
     2
274
     3
283
     0
284
     8
340
57
  0
ENDTAB
  0
TABLE
  2
BLOCK_RECORD
  5
1
330
0
100
AcDbSymbolTable
 70
     2
  0
BLOCK_RECORD
  5
1F
330
1
100
AcDbSymbolTableRecord
100
AcDbBlockTableRecord
  2
*Model_Space
340
22
  0
BLOCK_RECORD
  5
1B
330
1
100
AcDbSymbolTableRecord
100
AcDbBlockTableRecord
  2
*Paper_Space
340
1E
  0
BLOCK_RECORD
  5
3B
330
1
100
AcDbSymbolTableRecord
100
AcDbBlockTableRecord
  2
*Paper_Space1
340
3C
  0
ENDTAB
  0
ENDSEC
  0
SECTION
  2
BLOCKS
  0
BLOCK
  5
20
330
1F
100
AcDbEntity
  8
0
100
AcDbBlockBegin
  2
*Model_Space
 70
     0
 71
     0
 10
0.0
 20
0.0
 30
0.0
  3
*Model_Space
  1

  0
ENDBLK
  5
21
330
1F
100
AcDbEntity
  8
0
100
AcDbBlockEnd
  0
BLOCK
  5
1C
330
1B
100
AcDbEntity
 67
     1
  8
0
100
AcDbBlockBegin
  2
*Paper_Space
 70
     0
 71
     0
 10
0.0
 20
0.0
 30
0.0
  3
*Paper_Space
  1

  0
ENDBLK
  5
1D
330
1B
100
AcDbEntity
 67
     1
  8
0
100
AcDbBlockEnd
  0
BLOCK
  5
3D
330
3B
100
AcDbEntity
  8
0
100
AcDbBlockBegin
  2
*Paper_Space1
 70
     0
 71
     0
 10
0.0
 20
0.0
 30
0.0
  3
*Paper_Space1
  1

  0
VIEWPORT
  5
426
330
3B
100
AcDbEntity
  8
0
100
AcDbViewport
 10
140.0218848823794
 20
101.9028953504165
 30
0.0
 40
280.2283957583874
 41
201.3931063490108
 68
     1
 69
     1
 12
140.0218848823794
 22
101.9028953504165
 13
0.0
 23
0.0
 14
5.0
 24
5.0
 15
5.0
 25
5.0
 16
0.0
 26
0.0
 36
1.0
 17
0.0
 27
0.0
 37
0.0
 42
50.0
 43
0.0
 44
0.0
 45
201.3931063490108
 50
0.0
 51
0.0
 72
  1000
 90
    32800
  1

281
     0
 71
     1
 74
     0
110
0.0
120
0.0
130
0.0
111
1.0
121
0.0
131
0.0
112
0.0
122
1.0
132
0.0
 79
     0
146
0.0
170
     0
  0
ENDBLK
  5
3E
330
3B
100
AcDbEntity
  8
0
100
AcDbBlockEnd
  0
ENDSEC
  0
SECTION
  2
ENTITIES
  0
ARC
  5
5B
102
{ACAD_XDICTIONARY
360
59
102
}
330
1F
100
AcDbEntity
  8
Main lines
100
AcDbCircle
 10
71.03721933115538
 20
161.8192771073659
 30
0.0
 40
16.66666666666666
100
AcDbArc
 50
120.7809281900039
 51
132.1353425990125
  0
LINE
  5
5E
102
{ACAD_XDICTIONARY
360
5C
102
}
330
1F
100
AcDbEntity
  8
Main lines
100
AcDbLine
 10
75.08534326263909
 20
162.9379726368158
 30
0.0
 11
75.08534326263909
 21
187.9379726368158
 31
0.0
  0
CIRCLE
  5
5F
330
1F
100
AcDbEntity
  8
Main lines
370
     0
100
AcDbCircle
 10
67.08534326263909
 20
187.9379726368158
 30
0.0
 40
3.0
  0
ARC
  5
62
102
{ACAD_XDICTIONARY
360
60
102
}
330
1F
100
AcDbEntity
  8
Main lines
100
AcDbCircle
 10
67.08534326263909
 20
187.9379726368158
 30
0.0
 40
8.0
100
AcDbArc
 50
0.0
 51
198.4723357155829
  0
LINE
  5
65
102
{ACAD_XDICTIONARY
360
63
102
}
330
1F
100
AcDbEntity
  8
Main lines
100
AcDbLine
 10
59.49752926447043
 20
185.4031987358149
 30
0.0
 11
62.50793736335784
 21
176.1381152896899
 31
0.0
  0
LINE
  5
68
102
{ACAD_XDICTIONARY
360
66
102
}
330
1F
100
AcDbEntity
  8
Main lines
  6
ByBlock
100
AcDbLine
 10
75.08534326263909
 20
150.5004726368158
 30
0.0
 11
75.08534326263909
 21
155.042960289905
 31
0.0
  0
ARC
  5
6B
102
{ACAD_XDICTIONARY
360
69
102
}
330
1F
100
AcDbEntity
  8
Main lines
100
AcDbCircle
 10
60.40716077236404
 20
152.3067277475699
 30
0.0
 40
0.8218175097249487
100
AcDbArc
 50
114.927644561257
 51
227.8646574009889
  0
LINE
  5
6E
102
{ACAD_XDICTIONARY
360
6C
102
}
330
1F
100
AcDbEntity
  8
Main lines
100
AcDbLine
 10
75.08534326263909
 20
162.9379726368158
 30
0.0
 11
75.08534326263909
 21
137.9379726368158
 31
0.0
  0
ARC
  5
71
102
{ACAD_XDICTIONARY
360
6F
102
}
330
1F
100
AcDbEntity
  8
Main lines
100
AcDbCircle
 10
67.08534326263909
 20
137.9379726368158
 30
0.0
 40
16.66666666666664
100
AcDbArc
 50
90.0
 51
114.9276445612571
  0
ARC
  5
74
102
{ACAD_XDICTIONARY
360
72
102
}
330
1F
100
AcDbEntity
  8
Main lines
100
AcDbCircle
 10
67.08534326263909
 20
187.9379726368158
 30
0.0
 40
16.66666666666668
100
AcDbArc
 50
-114.9276445612572
 51
-90.0
  0
ARC
  5
77
102
{ACAD_XDICTIONARY
360
75
102
}
330
1F
100
AcDbEntity
  8
Main lines
100
AcDbCircle
 10
60.40716077236404
 20
173.5692175260618
 30
0.0
 40
0.821817509724982
100
AcDbArc
 50
132.1353425990134
 51
245.0723554387419
  0
LINE
  5
7A
102
{ACAD_XDICTIONARY
360
78
102
}
330
1F
100
AcDbEntity
  8
Main lines
100
AcDbLine
 10
67.08534326263909
 20
171.2713059701492
 30
0.0
 11
67.08534326263909
 21
154.6046393034825
 31
0.0
  0
LINE
  5
7D
102
{ACAD_XDICTIONARY
360
7B
102
}
330
1F
100
AcDbEntity
  8
Main lines
  6
ByBlock
100
AcDbLine
 10
67.08534326263909
 20
154.6671393034825
 30
0.0
 11
67.08534326263909
 21
155.042960289905
 31
0.0
  0
POINT
  5
7E
330
1F
100
AcDbEntity
  8
Main lines
  6
Durchgehend
100
AcDbPoint
 10
67.08534326263909
 20
154.6046393034825
 30
0.0
  0
POINT
  5
7F
330
1F
100
AcDbEntity
  8
Main lines
  6
Durchgehend
100
AcDbPoint
 10
67.08534326263909
 20
154.8629602899051
 30
0.0
  0
ARC
  5
82
102
{ACAD_XDICTIONARY
360
80
102
}
330
1F
100
AcDbEntity
  8
Main lines
100
AcDbCircle
 10
67.08534326263909
 20
137.9379726368158
 30
0.0
 40
7.999999999999991
100
AcDbArc
 50
161.5276642844173
 51
360.0
  0
CIRCLE
  5
83
330
1F
100
AcDbEntity
  8
Main lines
370
     0
100
AcDbCircle
 10
67.08534326263909
 20
137.9379726368158
 30
0.0
 40
3.0
  0
LINE
  5
86
102
{ACAD_XDICTIONARY
360
84
102
}
330
1F
100
AcDbEntity
  8
Main lines
100
AcDbLine
 10
59.45677007105998
 20
140.3473026392689
 30
0.0
 11
62.50793736335784
 21
149.7378299839416
 31
0.0
  0
ARC
  5
89
102
{ACAD_XDICTIONARY
360
87
102
}
330
1F
100
AcDbEntity
  8
Main lines
100
AcDbCircle
 10
71.03721933115538
 20
164.0566681662657
 30
0.0
 40
16.66666666666664
100
AcDbArc
 50
-132.1353425990124
 51
-120.7809281900038
  0
POINT
  5
8A
330
1F
100
AcDbEntity
  8
Main lines
  6
Durchgehend
100
AcDbPoint
 10
75.08534326263909
 20
150.4379726368158
 30
0.0
  0
LINE
  5
8D
102
{ACAD_XDICTIONARY
360
8B
102
}
330
1F
100
AcDbEntity
  8
Main lines
  6
ByBlock
 48
5.0
100
AcDbLine
 10
75.08534326263909
 20
150.5004726368158
 30
0.0
 11
75.08534326263909
 21
155.7483925552569
 31
0.0
  0
LINE
  5
90
102
{ACAD_XDICTIONARY
360
8E
102
}
330
1F
100
AcDbEntity
  8
Main lines
  6
ByBlock
 48
5.0
100
AcDbLine
 10
67.08534326263909
 20
154.9175497966938
 30
0.0
 11
67.08534326263909
 21
155.7483925552569
 31
0.0
  0
POINT
  5
91
330
1F
100
AcDbEntity
  8
Main lines
  6
Durchgehend
 48
5.0
100
AcDbPoint
 10
75.08534326263909
 20
150.4379726368158
 30
0.0
  0
POINT
  5
92
330
1F
100
AcDbEntity
  8
Main lines
  6
Durchgehend
 48
5.0
100
AcDbPoint
 10
67.08534326263909
 20
154.8550497966938
 30
0.0
  0
POINT
  5
93
330
1F
100
AcDbEntity
  8
Main lines
  6
Durchgehend
 48
5.0
100
AcDbPoint
 10
67.08534326263909
 20
155.568392555257
 30
0.0
  0
LINE
  5
96
102
{ACAD_XDICTIONARY
360
94
102
}
330
1F
100
AcDbEntity
  8
Main lines
 48
5.0
100
AcDbLine
 10
62.50793736335784
 20
176.1381152896899
 30
0.0
 11
67.08534326263909
 21
176.1381152896899
 31
0.0
  0
LINE
  5
99
102
{ACAD_XDICTIONARY
360
97
102
}
330
1F
100
AcDbEntity
  8
Main lines
 48
5.0
100
AcDbLine
 10
67.08534326263909
 20
179.4379726368157
 30
0.0
 11
67.08534326263909
 21
176.1381152896899
 31
0.0
  0
ARC
  5
9C
102
{ACAD_XDICTIONARY
360
9A
102
}
330
1F
100
AcDbEntity
  8
Main lines
 48
5.0
100
AcDbCircle
 10
67.08534326263909
 20
187.9379726368157
 30
0.0
 40
8.5
100
AcDbArc
 50
-90.0
 51
-19.74992279564183
  0
LINE
  5
9F
102
{ACAD_XDICTIONARY
360
9D
102
}
330
1F
100
AcDbEntity
  8
Main lines
 48
5.0
100
AcDbLine
 10
62.50793736335784
 20
149.7378299839416
 30
0.0
 11
75.08534326263909
 21
149.7378299839416
 31
0.0
  0
ARC
  5
A2
102
{ACAD_XDICTIONARY
360
A0
102
}
330
1F
100
AcDbEntity
  8
Main lines
 48
5.0
100
AcDbCircle
 10
67.08534326263909
 20
137.9379726368158
 30
0.0
 40
8.500000000000002
100
AcDbArc
 50
19.74992279564261
 51
90.0
  0
LINE
  5
A5
102
{ACAD_XDICTIONARY
360
A3
102
}
330
1F
100
AcDbEntity
  8
Main lines
 48
5.0
100
AcDbLine
 10
67.08534326263909
 20
146.4379726368158
 30
0.0
 11
67.08534326263909
 21
149.7378299839416
 31
0.0
  0
LINE
  5
A8
102
{ACAD_XDICTIONARY
360
A6
102
}
330
1F
100
AcDbEntity
  8
Main lines
 48
5.0
100
AcDbLine
 10
62.50793736335784
 20
149.7378299839416
 30
0.0
 11
67.08534326263909
 21
149.7378299839416
 31
0.0
  0
LINE
  5
AB
102
{ACAD_XDICTIONARY
360
A9
102
}
330
1F
100
AcDbEntity
  8
Main lines
  6
ByBlock
 48
5.0
100
AcDbLine
 10
75.08534326263909
 20
175.5004726368158
 30
0.0
 11
75.08534326263909
 21
177.5804123945718
 31
0.0
  0
POINT
  5
AC
330
1F
100
AcDbEntity
  8
Main lines
  6
Durchgehend
 48
5.0
100
AcDbPoint
 10
59.58534326263909
 20
173.5692175260618
 30
0.0
  0
POINT
  5
AD
330
1F
100
AcDbEntity
  8
Main lines
  6
Durchgehend
 48
5.0
100
AcDbPoint
 10
75.08534326263909
 20
175.4379726368158
 30
0.0
  0
POINT
  5
AE
330
1F
100
AcDbEntity
  8
Main lines
  6
Durchgehend
 62
     0
 48
5.0
100
AcDbPoint
 10
75.08534326263909
 20
177.4004123945718
 30
0.0
  0
LINE
  5
B1
102
{ACAD_XDICTIONARY
360
AF
102
}
330
1F
100
AcDbEntity
  8
Main lines
 48
5.0
100
AcDbLine
 10
76.24282069289491
 20
160.9379726368158
 30
0.0
 11
75.08534326263909
 21
160.9379726368158
 31
0.0
  0
LINE
  5
B4
102
{ACAD_XDICTIONARY
360
B2
102
}
330
1F
100
AcDbEntity
  8
Main lines
 48
5.0
100
AcDbLine
 10
75.08534326263909
 20
160.9379726368158
 30
0.0
 11
123.0853432626391
 21
160.9379726368158
 31
0.0
  0
LINE
  5
B7
102
{ACAD_XDICTIONARY
360
B5
102
}
330
1F
100
AcDbEntity
  8
Main lines
 48
5.0
100
AcDbLine
 10
123.0853432626391
 20
164.9379726368157
 30
0.0
 11
75.08534326263909
 21
164.9379726368157
 31
0.0
  0
ARC
  5
BA
102
{ACAD_XDICTIONARY
360
B8
102
}
330
1F
100
AcDbEntity
  8
Main lines
 48
5.0
100
AcDbCircle
 10
173.0853432626391
 20
162.9379726368158
 30
0.0
 40
2.0
100
AcDbArc
 50
-90.0
 51
90.0
  0
LINE
  5
BD
102
{ACAD_XDICTIONARY
360
BB
102
}
330
1F
100
AcDbEntity
  8
Main lines
 48
5.0
100
AcDbLine
 10
170.0853432626392
 20
164.9379726368158
 30
0.0
 11
170.0853432626392
 21
164.9379726368157
 31
0.0
  0
LINE
  5
C0
102
{ACAD_XDICTIONARY
360
BE
102
}
330
1F
100
AcDbEntity
  8
Main lines
 48
5.0
100
AcDbLine
 10
119.8353432626391
 20
165.4379726368158
 30
0.0
 11
75.08534326263909
 21
165.4379726368158
 31
0.0
  0
LINE
  5
C3
102
{ACAD_XDICTIONARY
360
C1
102
}
330
1F
100
AcDbEntity
  8
Main lines
 48
5.0
100
AcDbLine
 10
119.8353432626391
 20
165.4379726368158
 30
0.0
 11
169.5853432626392
 21
165.4379726368158
 31
0.0
  0
LINE
  5
C6
102
{ACAD_XDICTIONARY
360
C4
102
}
330
1F
100
AcDbEntity
  8
Main lines
 48
5.0
100
AcDbLine
 10
123.0853432626391
 20
164.9379726368157
 30
0.0
 11
173.0853432626391
 21
164.9379726368158
 31
0.0
  0
LINE
  5
C9
102
{ACAD_XDICTIONARY
360
C7
102
}
330
1F
100
AcDbEntity
  8
Main lines
 48
5.0
100
AcDbLine
 10
173.0853432626391
 20
160.9379726368158
 30
0.0
 11
123.0853432626391
 21
160.9379726368158
 31
0.0
  0
LINE
  5
CC
102
{ACAD_XDICTIONARY
360
CA
102
}
330
1F
100
AcDbEntity
  8
Main lines
 48
5.0
100
AcDbLine
 10
75.08534326263909
 20
152.9379726368158
 30
0.0
 11
150.0853432626391
 21
160.9379726368158
 31
0.0
  0
LINE
  5
CF
102
{ACAD_XDICTIONARY
360
CD
102
}
330
1F
100
AcDbEntity
  8
Main lines
 48
5.0
100
AcDbLine
 10
75.08534326263909
 20
156.9379726368158
 30
0.0
 11
112.5853432626391
 21
160.9379726368158
 31
0.0
  0
ARC
  5
D2
102
{ACAD_XDICTIONARY
360
D0
102
}
330
1F
100
AcDbEntity
  8
Main lines
 48
5.0
100
AcDbCircle
 10
169.5853432626392
 20
164.9379726368158
 30
0.0
 40
0.5
100
AcDbArc
 50
0.0
 51
90.0
  0
LINE
  5
D5
102
{ACAD_XDICTIONARY
360
D3
102
}
330
1F
100
AcDbEntity
  8
Main lines
100
AcDbLine
 10
-58.88312688313817
 20
129.9379726368158
 30
0.0
 11
-63.68312688313819
 21
129.9379726368158
 31
0.0
  0
LINE
  5
D8
102
{ACAD_XDICTIONARY
360
D6
102
}
330
1F
100
AcDbEntity
  8
Main lines
 48
5.0
100
AcDbLine
 10
-58.68312688313816
 20
185.0656913135468
 30
0.0
 11
-63.88312688313817
 21
185.0656913135468
 31
0.0
  0
LINE
  5
DB
102
{ACAD_XDICTIONARY
360
D9
102
}
330
1F
100
AcDbEntity
  8
Main lines
 48
5.0
100
AcDbLine
 10
-173.7831268831382
 20
185.0656913135468
 30
0.0
 11
-173.7831268831382
 21
140.8102539600849
 31
0.0
  0
LINE
  5
DE
102
{ACAD_XDICTIONARY
360
DC
102
}
330
1F
100
AcDbEntity
  8
Main lines
 48
5.0
100
AcDbLine
 10
-138.6831268831381
 20
185.0656913135468
 30
0.0
 11
-143.8831268831382
 21
185.0656913135468
 31
0.0
  0
LINE
  5
E1
102
{ACAD_XDICTIONARY
360
DF
102
}
330
1F
100
AcDbEntity
  8
Main lines
 48
5.0
100
AcDbLine
 10
-168.6831268831382
 20
195.9379726368158
 30
0.0
 11
-168.6831268831381
 21
185.0656913135468
 31
0.0
  0
LINE
  5
E4
102
{ACAD_XDICTIONARY
360
E2
102
}
330
1F
100
AcDbEntity
  8
Main lines
100
AcDbLine
 10
-148.6831268831381
 20
185.0656913135468
 30
0.0
 11
-148.6831268831382
 21
195.9379726368158
 31
0.0
  0
LINE
  5
E7
102
{ACAD_XDICTIONARY
360
E5
102
}
330
1F
100
AcDbEntity
  8
Main lines
100
AcDbLine
 10
-143.8831268831381
 20
185.0656913135468
 30
0.0
 11
-143.8831268831382
 21
195.9379726368158
 31
0.0
  0
LINE
  5
EA
102
{ACAD_XDICTIONARY
360
E8
102
}
330
1F
100
AcDbEntity
  8
Main lines
100
AcDbLine
 10
-153.8831268831381
 20
185.0656913135468
 30
0.0
 11
-153.8831268831382
 21
195.9379726368158
 31
0.0
  0
LINE
  5
ED
102
{ACAD_XDICTIONARY
360
EB
102
}
330
1F
100
AcDbEntity
  8
Main lines
100
AcDbLine
 10
-158.6831268831381
 20
185.0656913135468
 30
0.0
 11
-158.6831268831382
 21
195.9379726368158
 31
0.0
  0
LINE
  5
F0
102
{ACAD_XDICTIONARY
360
EE
102
}
330
1F
100
AcDbEntity
  8
Main lines
100
AcDbLine
 10
-163.8831268831382
 20
185.0656913135468
 30
0.0
 11
-163.8831268831382
 21
195.9379726368158
 31
0.0
  0
LINE
  5
F3
102
{ACAD_XDICTIONARY
360
F1
102
}
330
1F
100
AcDbEntity
  8
Main lines
100
AcDbLine
 10
-168.6831268831382
 20
195.9379726368158
 30
0.0
 11
-163.8831268831382
 21
195.9379726368158
 31
0.0
  0
LINE
  5
F6
102
{ACAD_XDICTIONARY
360
F4
102
}
330
1F
100
AcDbEntity
  8
Main lines
100
AcDbLine
 10
-168.6831268831382
 20
195.9379726368159
 30
0.0
 11
-163.8831268831382
 21
195.9379726368159
 31
0.0
  0
LINE
  5
F9
102
{ACAD_XDICTIONARY
360
F7
102
}
330
1F
100
AcDbEntity
  8
Main lines
100
AcDbLine
 10
-158.6831268831382
 20
195.9379726368158
 30
0.0
 11
-153.8831268831382
 21
195.9379726368158
 31
0.0
  0
LINE
  5
FC
102
{ACAD_XDICTIONARY
360
FA
102
}
330
1F
100
AcDbEntity
  8
Main lines
100
AcDbLine
 10
-148.6831268831382
 20
195.9379726368158
 30
0.0
 11
-143.8831268831382
 21
195.9379726368158
 31
0.0
  0
LINE
  5
FF
102
{ACAD_XDICTIONARY
360
FD
102
}
330
1F
100
AcDbEntity
  8
Main lines
 48
5.0
100
AcDbLine
 10
-158.6831268831381
 20
185.0656913135468
 30
0.0
 11
-163.8831268831382
 21
185.0656913135468
 31
0.0
  0
LINE
  5
102
102
{ACAD_XDICTIONARY
360
100
102
}
330
1F
100
AcDbEntity
  8
Main lines
 48
5.0
100
AcDbLine
 10
-168.6831268831381
 20
185.0656913135468
 30
0.0
 11
-173.7831268831382
 21
185.0656913135468
 31
0.0
  0
LINE
  5
105
102
{ACAD_XDICTIONARY
360
103
102
}
330
1F
100
AcDbEntity
  8
Main lines
 48
5.0
100
AcDbLine
 10
-168.6831268831381
 20
185.0656913135468
 30
0.0
 11
-168.6871573260753
 21
185.0656913135468
 31
0.0
  0
LINE
  5
108
102
{ACAD_XDICTIONARY
360
106
102
}
330
1F
100
AcDbEntity
  8
Main lines
 48
5.0
100
AcDbLine
 10
-148.6831268831382
 20
185.0656913135468
 30
0.0
 11
-153.8831268831381
 21
185.0656913135468
 31
0.0
  0
LINE
  5
10B
102
{ACAD_XDICTIONARY
360
109
102
}
330
1F
100
AcDbEntity
  8
Main lines
 48
5.0
100
AcDbLine
 10
-98.68312688313813
 20
185.0656913135468
 30
0.0
 11
-103.8831268831382
 21
185.0656913135468
 31
0.0
  0
LINE
  5
10E
102
{ACAD_XDICTIONARY
360
10C
102
}
330
1F
100
AcDbEntity
  8
Main lines
100
AcDbLine
 10
-138.6831268831381
 20
185.0656913135468
 30
0.0
 11
-138.6831268831382
 21
195.9379726368158
 31
0.0
  0
LINE
  5
111
102
{ACAD_XDICTIONARY
360
10F
102
}
330
1F
100
AcDbEntity
  8
Main lines
100
AcDbLine
 10
-133.8831268831382
 20
185.0656913135468
 30
0.0
 11
-133.8831268831382
 21
195.9379726368158
 31
0.0
  0
LINE
  5
114
102
{ACAD_XDICTIONARY
360
112
102
}
330
1F
100
AcDbEntity
  8
Main lines
100
AcDbLine
 10
-128.6831268831381
 20
185.0656913135468
 30
0.0
 11
-128.6831268831382
 21
195.9379726368158
 31
0.0
  0
LINE
  5
117
102
{ACAD_XDICTIONARY
360
115
102
}
330
1F
100
AcDbEntity
  8
Main lines
100
AcDbLine
 10
-123.8831268831382
 20
185.0656913135468
 30
0.0
 11
-123.8831268831382
 21
195.9379726368158
 31
0.0
  0
LINE
  5
11A
102
{ACAD_XDICTIONARY
360
118
102
}
330
1F
100
AcDbEntity
  8
Main lines
100
AcDbLine
 10
-118.6831268831381
 20
185.0656913135468
 30
0.0
 11
-118.6831268831382
 21
195.9379726368158
 31
0.0
  0
LINE
  5
11D
102
{ACAD_XDICTIONARY
360
11B
102
}
330
1F
100
AcDbEntity
  8
Main lines
100
AcDbLine
 10
-113.8831268831381
 20
185.0656913135468
 30
0.0
 11
-113.8831268831382
 21
195.9379726368158
 31
0.0
  0
LINE
  5
120
102
{ACAD_XDICTIONARY
360
11E
102
}
330
1F
100
AcDbEntity
  8
Main lines
100
AcDbLine
 10
-108.6831268831382
 20
185.0656913135468
 30
0.0
 11
-108.6831268831382
 21
195.9379726368158
 31
0.0
  0
LINE
  5
123
102
{ACAD_XDICTIONARY
360
121
102
}
330
1F
100
AcDbEntity
  8
Main lines
100
AcDbLine
 10
-103.8831268831381
 20
185.0656913135468
 30
0.0
 11
-103.8831268831382
 21
195.9379726368158
 31
0.0
  0
LINE
  5
126
102
{ACAD_XDICTIONARY
360
124
102
}
330
1F
100
AcDbEntity
  8
Main lines
100
AcDbLine
 10
-138.6831268831382
 20
195.9379726368158
 30
0.0
 11
-133.8831268831382
 21
195.9379726368158
 31
0.0
  0
LINE
  5
129
102
{ACAD_XDICTIONARY
360
127
102
}
330
1F
100
AcDbEntity
  8
Main lines
100
AcDbLine
 10
-128.6831268831382
 20
195.9379726368158
 30
0.0
 11
-123.8831268831382
 21
195.9379726368158
 31
0.0
  0
LINE
  5
12C
102
{ACAD_XDICTIONARY
360
12A
102
}
330
1F
100
AcDbEntity
  8
Main lines
100
AcDbLine
 10
-118.6831268831382
 20
195.9379726368158
 30
0.0
 11
-113.8831268831382
 21
195.9379726368158
 31
0.0
  0
LINE
  5
12F
102
{ACAD_XDICTIONARY
360
12D
102
}
330
1F
100
AcDbEntity
  8
Main lines
100
AcDbLine
 10
-108.6831268831382
 20
195.9379726368158
 30
0.0
 11
-103.8831268831382
 21
195.9379726368158
 31
0.0
  0
LINE
  5
132
102
{ACAD_XDICTIONARY
360
130
102
}
330
1F
100
AcDbEntity
  8
Main lines
 48
5.0
100
AcDbLine
 10
-118.6831268831381
 20
185.0656913135468
 30
0.0
 11
-123.8831268831382
 21
185.0656913135468
 31
0.0
  0
LINE
  5
135
102
{ACAD_XDICTIONARY
360
133
102
}
330
1F
100
AcDbEntity
  8
Main lines
 48
5.0
100
AcDbLine
 10
-128.6871573260753
 20
185.0656913135468
 30
0.0
 11
-133.8831268831382
 21
185.0656913135468
 31
0.0
  0
LINE
  5
138
102
{ACAD_XDICTIONARY
360
136
102
}
330
1F
100
AcDbEntity
  8
Main lines
 48
5.0
100
AcDbLine
 10
-128.6831268831381
 20
185.0656913135468
 30
0.0
 11
-128.6871573260753
 21
185.0656913135468
 31
0.0
  0
LINE
  5
13B
102
{ACAD_XDICTIONARY
360
139
102
}
330
1F
100
AcDbEntity
  8
Main lines
 48
5.0
100
AcDbLine
 10
-108.6831268831382
 20
185.0656913135468
 30
0.0
 11
-113.8831268831381
 21
185.0656913135468
 31
0.0
  0
LINE
  5
13E
102
{ACAD_XDICTIONARY
360
13C
102
}
330
1F
100
AcDbEntity
  8
Main lines
100
AcDbLine
 10
-98.68312688313813
 20
185.0656913135468
 30
0.0
 11
-98.68312688313819
 21
195.9379726368158
 31
0.0
  0
LINE
  5
141
102
{ACAD_XDICTIONARY
360
13F
102
}
330
1F
100
AcDbEntity
  8
Main lines
100
AcDbLine
 10
-93.88312688313817
 20
185.0656913135468
 30
0.0
 11
-93.8831268831382
 21
195.9379726368158
 31
0.0
  0
LINE
  5
144
102
{ACAD_XDICTIONARY
360
142
102
}
330
1F
100
AcDbEntity
  8
Main lines
100
AcDbLine
 10
-88.68312688313813
 20
185.0656913135468
 30
0.0
 11
-88.68312688313819
 21
195.9379726368158
 31
0.0
  0
LINE
  5
147
102
{ACAD_XDICTIONARY
360
145
102
}
330
1F
100
AcDbEntity
  8
Main lines
100
AcDbLine
 10
-83.88312688313817
 20
185.0656913135468
 30
0.0
 11
-83.8831268831382
 21
195.9379726368158
 31
0.0
  0
LINE
  5
14A
102
{ACAD_XDICTIONARY
360
148
102
}
330
1F
100
AcDbEntity
  8
Main lines
100
AcDbLine
 10
-78.68312688313813
 20
185.0656913135468
 30
0.0
 11
-78.68312688313819
 21
195.9379726368158
 31
0.0
  0
LINE
  5
14D
102
{ACAD_XDICTIONARY
360
14B
102
}
330
1F
100
AcDbEntity
  8
Main lines
100
AcDbLine
 10
-73.88312688313812
 20
185.0656913135468
 30
0.0
 11
-73.8831268831382
 21
195.9379726368158
 31
0.0
  0
LINE
  5
150
102
{ACAD_XDICTIONARY
360
14E
102
}
330
1F
100
AcDbEntity
  8
Main lines
100
AcDbLine
 10
-63.88312688313815
 20
185.0656913135468
 30
0.0
 11
-63.88312688313817
 21
195.9379726368158
 31
0.0
  0
LINE
  5
153
102
{ACAD_XDICTIONARY
360
151
102
}
330
1F
100
AcDbEntity
  8
Main lines
100
AcDbLine
 10
-68.68312688313813
 20
185.0656913135468
 30
0.0
 11
-68.68312688313819
 21
195.9379726368158
 31
0.0
  0
LINE
  5
156
102
{ACAD_XDICTIONARY
360
154
102
}
330
1F
100
AcDbEntity
  8
Main lines
100
AcDbLine
 10
-98.68312688313819
 20
195.9379726368158
 30
0.0
 11
-93.8831268831382
 21
195.9379726368158
 31
0.0
  0
LINE
  5
159
102
{ACAD_XDICTIONARY
360
157
102
}
330
1F
100
AcDbEntity
  8
Main lines
100
AcDbLine
 10
-88.68312688313819
 20
195.9379726368158
 30
0.0
 11
-83.8831268831382
 21
195.9379726368158
 31
0.0
  0
LINE
  5
15C
102
{ACAD_XDICTIONARY
360
15A
102
}
330
1F
100
AcDbEntity
  8
Main lines
100
AcDbLine
 10
-78.68312688313819
 20
195.9379726368158
 30
0.0
 11
-73.8831268831382
 21
195.9379726368158
 31
0.0
  0
LINE
  5
15F
102
{ACAD_XDICTIONARY
360
15D
102
}
330
1F
100
AcDbEntity
  8
Main lines
100
AcDbLine
 10
-68.68312688313819
 20
195.9379726368158
 30
0.0
 11
-63.88312688313817
 21
195.9379726368158
 31
0.0
  0
LINE
  5
162
102
{ACAD_XDICTIONARY
360
160
102
}
330
1F
100
AcDbEntity
  8
Main lines
 48
5.0
100
AcDbLine
 10
-78.68312688313813
 20
185.0656913135468
 30
0.0
 11
-83.88312688313817
 21
185.0656913135468
 31
0.0
  0
LINE
  5
165
102
{ACAD_XDICTIONARY
360
163
102
}
330
1F
100
AcDbEntity
  8
Main lines
 48
5.0
100
AcDbLine
 10
-88.6871573260753
 20
185.0656913135468
 30
0.0
 11
-93.88312688313817
 21
185.0656913135468
 31
0.0
  0
LINE
  5
168
102
{ACAD_XDICTIONARY
360
166
102
}
330
1F
100
AcDbEntity
  8
Main lines
 48
5.0
100
AcDbLine
 10
-88.68312688313813
 20
185.0656913135468
 30
0.0
 11
-88.6871573260753
 21
185.0656913135468
 31
0.0
  0
LINE
  5
16B
102
{ACAD_XDICTIONARY
360
169
102
}
330
1F
100
AcDbEntity
  8
Main lines
 48
5.0
100
AcDbLine
 10
-68.68312688313819
 20
185.0656913135468
 30
0.0
 11
-73.88312688313812
 21
185.0656913135468
 31
0.0
  0
LINE
  5
16E
102
{ACAD_XDICTIONARY
360
16C
102
}
330
1F
100
AcDbEntity
  8
Main lines
100
AcDbLine
 10
-138.8831268831382
 20
129.9379726368158
 30
0.0
 11
-143.6831268831382
 21
129.9379726368158
 31
0.0
  0
LINE
  5
171
102
{ACAD_XDICTIONARY
360
16F
102
}
330
1F
100
AcDbEntity
  8
Main lines
 48
5.0
100
AcDbLine
 10
-168.8831268831381
 20
140.8102539600849
 30
0.0
 11
-168.8831268831382
 21
129.9379726368159
 31
0.0
  0
LINE
  5
174
102
{ACAD_XDICTIONARY
360
172
102
}
330
1F
100
AcDbEntity
  8
Main lines
 48
5.0
100
AcDbLine
 10
-173.6831268831382
 20
140.8102539600849
 30
0.0
 11
-173.6831268831382
 21
129.9379726368159
 31
0.0
  0
LINE
  5
177
102
{ACAD_XDICTIONARY
360
175
102
}
330
1F
100
AcDbEntity
  8
Main lines
100
AcDbLine
 10
-143.6831268831382
 20
140.8102539600849
 30
0.0
 11
-143.6831268831382
 21
129.9379726368158
 31
0.0
  0
LINE
  5
17A
102
{ACAD_XDICTIONARY
360
178
102
}
330
1F
100
AcDbEntity
  8
Main lines
100
AcDbLine
 10
-148.8831268831382
 20
129.9379726368158
 30
0.0
 11
-148.8831268831381
 21
140.8102539600849
 31
0.0
  0
LINE
  5
17D
102
{ACAD_XDICTIONARY
360
17B
102
}
330
1F
100
AcDbEntity
  8
Main lines
100
AcDbLine
 10
-153.6831268831382
 20
140.8102539600849
 30
0.0
 11
-153.6831268831382
 21
129.9379726368158
 31
0.0
  0
LINE
  5
180
102
{ACAD_XDICTIONARY
360
17E
102
}
330
1F
100
AcDbEntity
  8
Main lines
100
AcDbLine
 10
-158.8831268831382
 20
129.9379726368158
 30
0.0
 11
-158.8831268831381
 21
140.8102539600849
 31
0.0
  0
LINE
  5
183
102
{ACAD_XDICTIONARY
360
181
102
}
330
1F
100
AcDbEntity
  8
Main lines
100
AcDbLine
 10
-163.6831268831382
 20
140.8102539600849
 30
0.0
 11
-163.6831268831382
 21
129.9379726368158
 31
0.0
  0
LINE
  5
186
102
{ACAD_XDICTIONARY
360
184
102
}
330
1F
100
AcDbEntity
  8
Main lines
 48
5.0
100
AcDbLine
 10
-173.6831268831382
 20
140.8102539600849
 30
0.0
 11
-173.7831268831382
 21
140.8102539600849
 31
0.0
  0
LINE
  5
189
102
{ACAD_XDICTIONARY
360
187
102
}
330
1F
100
AcDbEntity
  8
Main lines
 48
5.0
100
AcDbLine
 10
-163.6831268831382
 20
140.8102539600849
 30
0.0
 11
-168.8831268831381
 21
140.8102539600849
 31
0.0
  0
LINE
  5
18C
102
{ACAD_XDICTIONARY
360
18A
102
}
330
1F
100
AcDbEntity
  8
Main lines
 48
5.0
100
AcDbLine
 10
-153.6831268831382
 20
140.8102539600849
 30
0.0
 11
-158.8831268831382
 21
140.8102539600849
 31
0.0
  0
LINE
  5
18F
102
{ACAD_XDICTIONARY
360
18D
102
}
330
1F
100
AcDbEntity
  8
Main lines
 48
5.0
100
AcDbLine
 10
-143.6831268831382
 20
140.8102539600849
 30
0.0
 11
-148.8831268831381
 21
140.8102539600849
 31
0.0
  0
LINE
  5
192
102
{ACAD_XDICTIONARY
360
190
102
}
330
1F
100
AcDbEntity
  8
Main lines
100
AcDbLine
 10
-158.8831268831382
 20
129.9379726368158
 30
0.0
 11
-163.6831268831382
 21
129.9379726368158
 31
0.0
  0
LINE
  5
195
102
{ACAD_XDICTIONARY
360
193
102
}
330
1F
100
AcDbEntity
  8
Main lines
100
AcDbLine
 10
-168.8831268831382
 20
129.9379726368159
 30
0.0
 11
-173.6831268831382
 21
129.9379726368159
 31
0.0
  0
LINE
  5
198
102
{ACAD_XDICTIONARY
360
196
102
}
330
1F
100
AcDbEntity
  8
Main lines
100
AcDbLine
 10
-148.8831268831382
 20
129.9379726368158
 30
0.0
 11
-153.6831268831382
 21
129.9379726368158
 31
0.0
  0
LINE
  5
19B
102
{ACAD_XDICTIONARY
360
199
102
}
330
1F
100
AcDbEntity
  8
Main lines
100
AcDbLine
 10
-98.88312688313817
 20
129.9379726368158
 30
0.0
 11
-103.6831268831382
 21
129.9379726368158
 31
0.0
  0
LINE
  5
19E
102
{ACAD_XDICTIONARY
360
19C
102
}
330
1F
100
AcDbEntity
  8
Main lines
100
AcDbLine
 10
-108.8831268831382
 20
129.9379726368158
 30
0.0
 11
-108.8831268831381
 21
140.8102539600849
 31
0.0
  0
LINE
  5
1A1
102
{ACAD_XDICTIONARY
360
19F
102
}
330
1F
100
AcDbEntity
  8
Main lines
100
AcDbLine
 10
-138.8831268831382
 20
129.9379726368158
 30
0.0
 11
-138.8831268831381
 21
140.8102539600849
 31
0.0
  0
LINE
  5
1A4
102
{ACAD_XDICTIONARY
360
1A2
102
}
330
1F
100
AcDbEntity
  8
Main lines
100
AcDbLine
 10
-133.6831268831382
 20
140.8102539600849
 30
0.0
 11
-133.6831268831382
 21
129.9379726368158
 31
0.0
  0
LINE
  5
1A7
102
{ACAD_XDICTIONARY
360
1A5
102
}
330
1F
100
AcDbEntity
  8
Main lines
100
AcDbLine
 10
-128.8831268831382
 20
129.9379726368158
 30
0.0
 11
-128.8831268831381
 21
140.8102539600849
 31
0.0
  0
LINE
  5
1AA
102
{ACAD_XDICTIONARY
360
1A8
102
}
330
1F
100
AcDbEntity
  8
Main lines
100
AcDbLine
 10
-123.6831268831382
 20
140.8102539600849
 30
0.0
 11
-123.6831268831382
 21
129.9379726368158
 31
0.0
  0
LINE
  5
1AD
102
{ACAD_XDICTIONARY
360
1AB
102
}
330
1F
100
AcDbEntity
  8
Main lines
100
AcDbLine
 10
-118.8831268831382
 20
129.9379726368158
 30
0.0
 11
-118.8831268831381
 21
140.8102539600849
 31
0.0
  0
LINE
  5
1B0
102
{ACAD_XDICTIONARY
360
1AE
102
}
330
1F
100
AcDbEntity
  8
Main lines
100
AcDbLine
 10
-113.6831268831382
 20
140.8102539600849
 30
0.0
 11
-113.6831268831382
 21
129.9379726368158
 31
0.0
  0
LINE
  5
1B3
102
{ACAD_XDICTIONARY
360
1B1
102
}
330
1F
100
AcDbEntity
  8
Main lines
100
AcDbLine
 10
-103.6831268831382
 20
140.8102539600849
 30
0.0
 11
-103.6831268831382
 21
129.9379726368158
 31
0.0
  0
LINE
  5
1B6
102
{ACAD_XDICTIONARY
360
1B4
102
}
330
1F
100
AcDbEntity
  8
Main lines
 48
5.0
100
AcDbLine
 10
-133.6831268831382
 20
140.8102539600849
 30
0.0
 11
-138.8831268831381
 21
140.8102539600849
 31
0.0
  0
LINE
  5
1B9
102
{ACAD_XDICTIONARY
360
1B7
102
}
330
1F
100
AcDbEntity
  8
Main lines
 48
5.0
100
AcDbLine
 10
-123.6831268831382
 20
140.8102539600849
 30
0.0
 11
-128.8831268831381
 21
140.8102539600849
 31
0.0
  0
LINE
  5
1BC
102
{ACAD_XDICTIONARY
360
1BA
102
}
330
1F
100
AcDbEntity
  8
Main lines
 48
5.0
100
AcDbLine
 10
-113.6831268831382
 20
140.8102539600849
 30
0.0
 11
-118.8831268831382
 21
140.8102539600849
 31
0.0
  0
LINE
  5
1BF
102
{ACAD_XDICTIONARY
360
1BD
102
}
330
1F
100
AcDbEntity
  8
Main lines
 48
5.0
100
AcDbLine
 10
-103.6831268831382
 20
140.8102539600849
 30
0.0
 11
-108.8831268831381
 21
140.8102539600849
 31
0.0
  0
LINE
  5
1C2
102
{ACAD_XDICTIONARY
360
1C0
102
}
330
1F
100
AcDbEntity
  8
Main lines
100
AcDbLine
 10
-118.8831268831382
 20
129.9379726368158
 30
0.0
 11
-123.6831268831382
 21
129.9379726368158
 31
0.0
  0
LINE
  5
1C5
102
{ACAD_XDICTIONARY
360
1C3
102
}
330
1F
100
AcDbEntity
  8
Main lines
100
AcDbLine
 10
-128.8831268831382
 20
129.9379726368158
 30
0.0
 11
-133.6831268831382
 21
129.9379726368158
 31
0.0
  0
LINE
  5
1C8
102
{ACAD_XDICTIONARY
360
1C6
102
}
330
1F
100
AcDbEntity
  8
Main lines
100
AcDbLine
 10
-108.8831268831382
 20
129.9379726368158
 30
0.0
 11
-113.6831268831382
 21
129.9379726368158
 31
0.0
  0
LINE
  5
1CB
102
{ACAD_XDICTIONARY
360
1C9
102
}
330
1F
100
AcDbEntity
  8
Main lines
100
AcDbLine
 10
-68.88312688313817
 20
129.9379726368158
 30
0.0
 11
-68.88312688313812
 21
140.8102539600849
 31
0.0
  0
LINE
  5
1CE
102
{ACAD_XDICTIONARY
360
1CC
102
}
330
1F
100
AcDbEntity
  8
Main lines
100
AcDbLine
 10
-98.88312688313817
 20
129.9379726368158
 30
0.0
 11
-98.88312688313812
 21
140.8102539600849
 31
0.0
  0
LINE
  5
1D1
102
{ACAD_XDICTIONARY
360
1CF
102
}
330
1F
100
AcDbEntity
  8
Main lines
100
AcDbLine
 10
-93.68312688313819
 20
140.8102539600849
 30
0.0
 11
-93.68312688313819
 21
129.9379726368158
 31
0.0
  0
LINE
  5
1D4
102
{ACAD_XDICTIONARY
360
1D2
102
}
330
1F
100
AcDbEntity
  8
Main lines
100
AcDbLine
 10
-88.88312688313817
 20
129.9379726368158
 30
0.0
 11
-88.88312688313812
 21
140.8102539600849
 31
0.0
  0
LINE
  5
1D7
102
{ACAD_XDICTIONARY
360
1D5
102
}
330
1F
100
AcDbEntity
  8
Main lines
100
AcDbLine
 10
-83.68312688313819
 20
140.8102539600849
 30
0.0
 11
-83.68312688313819
 21
129.9379726368158
 31
0.0
  0
LINE
  5
1DA
102
{ACAD_XDICTIONARY
360
1D8
102
}
330
1F
100
AcDbEntity
  8
Main lines
100
AcDbLine
 10
-78.88312688313817
 20
129.9379726368158
 30
0.0
 11
-78.88312688313812
 21
140.8102539600849
 31
0.0
  0
LINE
  5
1DD
102
{ACAD_XDICTIONARY
360
1DB
102
}
330
1F
100
AcDbEntity
  8
Main lines
100
AcDbLine
 10
-73.68312688313819
 20
140.8102539600849
 30
0.0
 11
-73.68312688313819
 21
129.9379726368158
 31
0.0
  0
LINE
  5
1E0
102
{ACAD_XDICTIONARY
360
1DE
102
}
330
1F
100
AcDbEntity
  8
Main lines
100
AcDbLine
 10
-63.68312688313819
 20
140.8102539600849
 30
0.0
 11
-63.68312688313819
 21
129.9379726368158
 31
0.0
  0
LINE
  5
1E3
102
{ACAD_XDICTIONARY
360
1E1
102
}
330
1F
100
AcDbEntity
  8
Main lines
 48
5.0
100
AcDbLine
 10
-93.68312688313819
 20
140.8102539600849
 30
0.0
 11
-98.88312688313812
 21
140.8102539600849
 31
0.0
  0
LINE
  5
1E6
102
{ACAD_XDICTIONARY
360
1E4
102
}
330
1F
100
AcDbEntity
  8
Main lines
 48
5.0
100
AcDbLine
 10
-83.68312688313819
 20
140.8102539600849
 30
0.0
 11
-88.88312688313812
 21
140.8102539600849
 31
0.0
  0
LINE
  5
1E9
102
{ACAD_XDICTIONARY
360
1E7
102
}
330
1F
100
AcDbEntity
  8
Main lines
 48
5.0
100
AcDbLine
 10
-73.68312688313819
 20
140.8102539600849
 30
0.0
 11
-78.88312688313817
 21
140.8102539600849
 31
0.0
  0
LINE
  5
1EC
102
{ACAD_XDICTIONARY
360
1EA
102
}
330
1F
100
AcDbEntity
  8
Main lines
 48
5.0
100
AcDbLine
 10
-63.68312688313819
 20
140.8102539600849
 30
0.0
 11
-68.88312688313815
 21
140.8102539600849
 31
0.0
  0
LINE
  5
1EF
102
{ACAD_XDICTIONARY
360
1ED
102
}
330
1F
100
AcDbEntity
  8
Main lines
100
AcDbLine
 10
-78.88312688313817
 20
129.9379726368158
 30
0.0
 11
-83.68312688313819
 21
129.9379726368158
 31
0.0
  0
LINE
  5
1F2
102
{ACAD_XDICTIONARY
360
1F0
102
}
330
1F
100
AcDbEntity
  8
Main lines
100
AcDbLine
 10
-88.88312688313817
 20
129.9379726368158
 30
0.0
 11
-93.68312688313819
 21
129.9379726368158
 31
0.0
  0
LINE
  5
1F5
102
{ACAD_XDICTIONARY
360
1F3
102
}
330
1F
100
AcDbEntity
  8
Main lines
100
AcDbLine
 10
-68.88312688313817
 20
129.9379726368158
 30
0.0
 11
-73.68312688313819
 21
129.9379726368158
 31
0.0
  0
LINE
  5
1F8
102
{ACAD_XDICTIONARY
360
1F6
102
}
330
1F
100
AcDbEntity
  8
Main lines
100
AcDbLine
 10
26.21687311686185
 20
171.2713059701492
 30
0.0
 11
26.21687311686179
 21
159.0617360341867
 31
0.0
  0
LINE
  5
1FB
102
{ACAD_XDICTIONARY
360
1F9
102
}
330
1F
100
AcDbEntity
  8
Main lines
100
AcDbLine
 10
11.31687311686181
 20
195.9379726368158
 30
0.0
 11
16.11687311686177
 21
195.9379726368158
 31
0.0
  0
LINE
  5
1FE
102
{ACAD_XDICTIONARY
360
1FC
102
}
330
1F
100
AcDbEntity
  8
Main lines
100
AcDbLine
 10
-28.68312688313819
 20
195.9379726368158
 30
0.0
 11
-23.88312688313817
 21
195.9379726368158
 31
0.0
  0
LINE
  5
201
102
{ACAD_XDICTIONARY
360
1FF
102
}
330
1F
100
AcDbEntity
  8
Main lines
100
AcDbLine
 10
-33.88312688313812
 20
185.0656913135468
 30
0.0
 11
-33.88312688313817
 21
195.9379726368158
 31
0.0
  0
LINE
  5
204
102
{ACAD_XDICTIONARY
360
202
102
}
330
1F
100
AcDbEntity
  8
Main lines
100
AcDbLine
 10
-38.68312688313813
 20
185.0656913135468
 30
0.0
 11
-38.68312688313819
 21
195.9379726368158
 31
0.0
  0
LINE
  5
207
102
{ACAD_XDICTIONARY
360
205
102
}
330
1F
100
AcDbEntity
  8
Main lines
100
AcDbLine
 10
-43.88312688313817
 20
185.0656913135468
 30
0.0
 11
-43.88312688313817
 21
195.9379726368158
 31
0.0
  0
LINE
  5
20A
102
{ACAD_XDICTIONARY
360
208
102
}
330
1F
100
AcDbEntity
  8
Main lines
100
AcDbLine
 10
-48.68312688313813
 20
185.0656913135468
 30
0.0
 11
-48.68312688313819
 21
195.9379726368158
 31
0.0
  0
LINE
  5
20D
102
{ACAD_XDICTIONARY
360
20B
102
}
330
1F
100
AcDbEntity
  8
Main lines
100
AcDbLine
 10
-53.88312688313817
 20
185.0656913135468
 30
0.0
 11
-53.88312688313817
 21
195.9379726368158
 31
0.0
  0
LINE
  5
210
102
{ACAD_XDICTIONARY
360
20E
102
}
330
1F
100
AcDbEntity
  8
Main lines
100
AcDbLine
 10
-58.68312688313816
 20
185.0656913135468
 30
0.0
 11
-58.68312688313819
 21
195.9379726368158
 31
0.0
  0
LINE
  5
213
102
{ACAD_XDICTIONARY
360
211
102
}
330
1F
100
AcDbEntity
  8
Main lines
100
AcDbLine
 10
-28.68312688313813
 20
185.0656913135468
 30
0.0
 11
-28.68312688313819
 21
195.9379726368158
 31
0.0
  0
LINE
  5
216
102
{ACAD_XDICTIONARY
360
214
102
}
330
1F
100
AcDbEntity
  8
Main lines
100
AcDbLine
 10
-48.68312688313819
 20
195.9379726368158
 30
0.0
 11
-43.88312688313817
 21
195.9379726368158
 31
0.0
  0
LINE
  5
219
102
{ACAD_XDICTIONARY
360
217
102
}
330
1F
100
AcDbEntity
  8
Main lines
100
AcDbLine
 10
-58.68312688313819
 20
195.9379726368158
 30
0.0
 11
-53.88312688313817
 21
195.9379726368158
 31
0.0
  0
LINE
  5
21C
102
{ACAD_XDICTIONARY
360
21A
102
}
330
1F
100
AcDbEntity
  8
Main lines
100
AcDbLine
 10
-38.68312688313819
 20
195.9379726368158
 30
0.0
 11
-33.88312688313817
 21
195.9379726368158
 31
0.0
  0
LINE
  5
21F
102
{ACAD_XDICTIONARY
360
21D
102
}
330
1F
100
AcDbEntity
  8
Main lines
 48
5.0
100
AcDbLine
 10
-48.68715732607529
 20
185.0656913135468
 30
0.0
 11
-53.88312688313817
 21
185.0656913135468
 31
0.0
  0
LINE
  5
222
102
{ACAD_XDICTIONARY
360
220
102
}
330
1F
100
AcDbEntity
  8
Main lines
 48
5.0
100
AcDbLine
 10
-48.68312688313813
 20
185.0656913135468
 30
0.0
 11
-48.68715732607529
 21
185.0656913135468
 31
0.0
  0
LINE
  5
225
102
{ACAD_XDICTIONARY
360
223
102
}
330
1F
100
AcDbEntity
  8
Main lines
 48
5.0
100
AcDbLine
 10
-38.68312688313813
 20
185.0656913135468
 30
0.0
 11
-43.88312688313817
 21
185.0656913135468
 31
0.0
  0
LINE
  5
228
102
{ACAD_XDICTIONARY
360
226
102
}
330
1F
100
AcDbEntity
  8
Main lines
 48
5.0
100
AcDbLine
 10
-28.68312688313819
 20
185.0656913135468
 30
0.0
 11
-33.88312688313812
 21
185.0656913135468
 31
0.0
  0
LINE
  5
22B
102
{ACAD_XDICTIONARY
360
229
102
}
330
1F
100
AcDbEntity
  8
Main lines
100
AcDbLine
 10
-23.88312688313817
 20
185.0656913135468
 30
0.0
 11
-23.88312688313817
 21
195.9379726368158
 31
0.0
  0
LINE
  5
22E
102
{ACAD_XDICTIONARY
360
22C
102
}
330
1F
100
AcDbEntity
  8
Main lines
100
AcDbLine
 10
-18.68312688313819
 20
185.0656913135468
 30
0.0
 11
-18.68312688313819
 21
195.9379726368158
 31
0.0
  0
LINE
  5
231
102
{ACAD_XDICTIONARY
360
22F
102
}
330
1F
100
AcDbEntity
  8
Main lines
100
AcDbLine
 10
-13.88312688313817
 20
185.0656913135468
 30
0.0
 11
-13.88312688313817
 21
195.9379726368158
 31
0.0
  0
LINE
  5
234
102
{ACAD_XDICTIONARY
360
232
102
}
330
1F
100
AcDbEntity
  8
Main lines
100
AcDbLine
 10
-8.68312688313813
 20
185.0656913135468
 30
0.0
 11
-8.683126883138186
 21
195.9379726368158
 31
0.0
  0
LINE
  5
237
102
{ACAD_XDICTIONARY
360
235
102
}
330
1F
100
AcDbEntity
  8
Main lines
100
AcDbLine
 10
-3.883126883138175
 20
185.0656913135468
 30
0.0
 11
-3.883126883138175
 21
195.9379726368158
 31
0.0
  0
LINE
  5
23A
102
{ACAD_XDICTIONARY
360
238
102
}
330
1F
100
AcDbEntity
  8
Main lines
100
AcDbLine
 10
1.316873116861842
 20
185.0656913135468
 30
0.0
 11
1.316873116861814
 21
195.9379726368158
 31
0.0
  0
LINE
  5
23D
102
{ACAD_XDICTIONARY
360
23B
102
}
330
1F
100
AcDbEntity
  8
Main lines
100
AcDbLine
 10
6.116873116861854
 20
185.0656913135468
 30
0.0
 11
6.116873116861797
 21
195.9379726368158
 31
0.0
  0
LINE
  5
240
102
{ACAD_XDICTIONARY
360
23E
102
}
330
1F
100
AcDbEntity
  8
Main lines
100
AcDbLine
 10
11.31687311686181
 20
185.0656913135468
 30
0.0
 11
11.31687311686181
 21
195.9379726368158
 31
0.0
  0
LINE
  5
243
102
{ACAD_XDICTIONARY
360
241
102
}
330
1F
100
AcDbEntity
  8
Main lines
100
AcDbLine
 10
-8.683126883138186
 20
195.9379726368158
 30
0.0
 11
-3.883126883138175
 21
195.9379726368158
 31
0.0
  0
LINE
  5
246
102
{ACAD_XDICTIONARY
360
244
102
}
330
1F
100
AcDbEntity
  8
Main lines
100
AcDbLine
 10
-18.68312688313819
 20
195.9379726368158
 30
0.0
 11
-13.88312688313817
 21
195.9379726368158
 31
0.0
  0
LINE
  5
249
102
{ACAD_XDICTIONARY
360
247
102
}
330
1F
100
AcDbEntity
  8
Main lines
100
AcDbLine
 10
1.316873116861814
 20
195.9379726368158
 30
0.0
 11
6.116873116861797
 21
195.9379726368158
 31
0.0
  0
LINE
  5
24C
102
{ACAD_XDICTIONARY
360
24A
102
}
330
1F
100
AcDbEntity
  8
Main lines
 48
5.0
100
AcDbLine
 10
-18.68312688313819
 20
185.0656913135468
 30
0.0
 11
-23.88312688313817
 21
185.0656913135468
 31
0.0
  0
LINE
  5
24F
102
{ACAD_XDICTIONARY
360
24D
102
}
330
1F
100
AcDbEntity
  8
Main lines
 48
5.0
100
AcDbLine
 10
-8.687157326075294
 20
185.0656913135468
 30
0.0
 11
-13.88312688313817
 21
185.0656913135468
 31
0.0
  0
LINE
  5
252
102
{ACAD_XDICTIONARY
360
250
102
}
330
1F
100
AcDbEntity
  8
Main lines
 48
5.0
100
AcDbLine
 10
-8.68312688313813
 20
185.0656913135468
 30
0.0
 11
-8.687157326075294
 21
185.0656913135468
 31
0.0
  0
LINE
  5
255
102
{ACAD_XDICTIONARY
360
253
102
}
330
1F
100
AcDbEntity
  8
Main lines
 48
5.0
100
AcDbLine
 10
1.316873116861842
 20
185.0656913135468
 30
0.0
 11
-3.883126883138175
 21
185.0656913135468
 31
0.0
  0
LINE
  5
258
102
{ACAD_XDICTIONARY
360
256
102
}
330
1F
100
AcDbEntity
  8
Main lines
 48
5.0
100
AcDbLine
 10
11.31687311686181
 20
185.0656913135468
 30
0.0
 11
6.116873116861854
 21
185.0656913135468
 31
0.0
  0
LINE
  5
25B
102
{ACAD_XDICTIONARY
360
259
102
}
330
1F
100
AcDbEntity
  8
Main lines
100
AcDbLine
 10
16.11687311686183
 20
185.0656913135468
 30
0.0
 11
16.11687311686177
 21
195.9379726368158
 31
0.0
  0
LINE
  5
25E
102
{ACAD_XDICTIONARY
360
25C
102
}
330
1F
100
AcDbEntity
  8
Main lines
100
AcDbLine
 10
21.31687311686181
 20
195.9379726368158
 30
0.0
 11
21.31687311686181
 21
185.0656913135468
 31
0.0
  0
LINE
  5
261
102
{ACAD_XDICTIONARY
360
25F
102
}
330
1F
100
AcDbEntity
  8
Main lines
100
AcDbLine
 10
26.11687311686188
 20
185.0656913135468
 30
0.0
 11
26.11687311686183
 21
195.9379726368158
 31
0.0
  0
LINE
  5
264
102
{ACAD_XDICTIONARY
360
262
102
}
330
1F
100
AcDbEntity
  8
Main lines
100
AcDbLine
 10
26.11687311686183
 20
195.9379726368158
 30
0.0
 11
21.31687311686181
 21
195.9379726368158
 31
0.0
  0
LINE
  5
267
102
{ACAD_XDICTIONARY
360
265
102
}
330
1F
100
AcDbEntity
  8
Main lines
100
AcDbLine
 10
26.21687311686185
 20
171.2713059701492
 30
0.0
 11
26.21687311686179
 21
176.1381152896899
 31
0.0
  0
LINE
  5
26A
102
{ACAD_XDICTIONARY
360
268
102
}
330
1F
100
AcDbEntity
  8
Main lines
 48
5.0
100
AcDbLine
 10
21.31687311686181
 20
185.0656913135468
 30
0.0
 11
16.11687311686183
 21
185.0656913135468
 31
0.0
  0
LINE
  5
26D
102
{ACAD_XDICTIONARY
360
26B
102
}
330
1F
100
AcDbEntity
  8
Main lines
 48
5.0
100
AcDbLine
 10
26.21687311686179
 20
176.1381152896899
 30
0.0
 11
26.21687311686179
 21
185.0656913135468
 31
0.0
  0
LINE
  5
270
102
{ACAD_XDICTIONARY
360
26E
102
}
330
1F
100
AcDbEntity
  8
Main lines
 48
5.0
100
AcDbLine
 10
16.31687311686181
 20
140.8102539600849
 30
0.0
 11
11.11687311686183
 21
140.8102539600849
 31
0.0
  0
LINE
  5
273
102
{ACAD_XDICTIONARY
360
271
102
}
330
1F
100
AcDbEntity
  8
Main lines
 48
5.0
100
AcDbLine
 10
-23.68312688313819
 20
140.8102539600849
 30
0.0
 11
-28.88312688313817
 21
140.8102539600849
 31
0.0
  0
LINE
  5
276
102
{ACAD_XDICTIONARY
360
274
102
}
330
1F
100
AcDbEntity
  8
Main lines
100
AcDbLine
 10
-28.88312688313817
 20
129.9379726368158
 30
0.0
 11
-28.88312688313812
 21
140.8102539600849
 31
0.0
  0
LINE
  5
279
102
{ACAD_XDICTIONARY
360
277
102
}
330
1F
100
AcDbEntity
  8
Main lines
100
AcDbLine
 10
-33.68312688313819
 20
140.8102539600849
 30
0.0
 11
-33.68312688313819
 21
129.9379726368158
 31
0.0
  0
LINE
  5
27C
102
{ACAD_XDICTIONARY
360
27A
102
}
330
1F
100
AcDbEntity
  8
Main lines
100
AcDbLine
 10
-38.88312688313817
 20
129.9379726368158
 30
0.0
 11
-38.88312688313812
 21
140.8102539600849
 31
0.0
  0
LINE
  5
27F
102
{ACAD_XDICTIONARY
360
27D
102
}
330
1F
100
AcDbEntity
  8
Main lines
100
AcDbLine
 10
-43.68312688313819
 20
140.8102539600849
 30
0.0
 11
-43.68312688313819
 21
129.9379726368158
 31
0.0
  0
LINE
  5
282
102
{ACAD_XDICTIONARY
360
280
102
}
330
1F
100
AcDbEntity
  8
Main lines
100
AcDbLine
 10
-48.88312688313817
 20
129.9379726368158
 30
0.0
 11
-48.88312688313812
 21
140.8102539600849
 31
0.0
  0
LINE
  5
285
102
{ACAD_XDICTIONARY
360
283
102
}
330
1F
100
AcDbEntity
  8
Main lines
100
AcDbLine
 10
-53.68312688313819
 20
140.8102539600849
 30
0.0
 11
-53.68312688313819
 21
129.9379726368158
 31
0.0
  0
LINE
  5
288
102
{ACAD_XDICTIONARY
360
286
102
}
330
1F
100
AcDbEntity
  8
Main lines
100
AcDbLine
 10
-58.88312688313817
 20
129.9379726368158
 30
0.0
 11
-58.88312688313815
 21
140.8102539600849
 31
0.0
  0
LINE
  5
28B
102
{ACAD_XDICTIONARY
360
289
102
}
330
1F
100
AcDbEntity
  8
Main lines
 48
5.0
100
AcDbLine
 10
-43.68312688313819
 20
140.8102539600849
 30
0.0
 11
-48.88312688313812
 21
140.8102539600849
 31
0.0
  0
LINE
  5
28E
102
{ACAD_XDICTIONARY
360
28C
102
}
330
1F
100
AcDbEntity
  8
Main lines
 48
5.0
100
AcDbLine
 10
-53.68312688313819
 20
140.8102539600849
 30
0.0
 11
-58.88312688313815
 21
140.8102539600849
 31
0.0
  0
LINE
  5
291
102
{ACAD_XDICTIONARY
360
28F
102
}
330
1F
100
AcDbEntity
  8
Main lines
 48
5.0
100
AcDbLine
 10
-33.68312688313819
 20
140.8102539600849
 30
0.0
 11
-38.88312688313817
 21
140.8102539600849
 31
0.0
  0
LINE
  5
294
102
{ACAD_XDICTIONARY
360
292
102
}
330
1F
100
AcDbEntity
  8
Main lines
100
AcDbLine
 10
-48.88312688313817
 20
129.9379726368158
 30
0.0
 11
-53.68312688313819
 21
129.9379726368158
 31
0.0
  0
LINE
  5
297
102
{ACAD_XDICTIONARY
360
295
102
}
330
1F
100
AcDbEntity
  8
Main lines
100
AcDbLine
 10
-38.88312688313817
 20
129.9379726368158
 30
0.0
 11
-43.68312688313819
 21
129.9379726368158
 31
0.0
  0
LINE
  5
29A
102
{ACAD_XDICTIONARY
360
298
102
}
330
1F
100
AcDbEntity
  8
Main lines
100
AcDbLine
 10
-28.88312688313817
 20
129.9379726368158
 30
0.0
 11
-33.68312688313819
 21
129.9379726368158
 31
0.0
  0
LINE
  5
29D
102
{ACAD_XDICTIONARY
360
29B
102
}
330
1F
100
AcDbEntity
  8
Main lines
100
AcDbLine
 10
-23.68312688313819
 20
140.8102539600849
 30
0.0
 11
-23.68312688313819
 21
129.9379726368158
 31
0.0
  0
LINE
  5
2A0
102
{ACAD_XDICTIONARY
360
29E
102
}
330
1F
100
AcDbEntity
  8
Main lines
100
AcDbLine
 10
-18.88312688313817
 20
129.9379726368158
 30
0.0
 11
-18.88312688313817
 21
140.8102539600849
 31
0.0
  0
LINE
  5
2A3
102
{ACAD_XDICTIONARY
360
2A1
102
}
330
1F
100
AcDbEntity
  8
Main lines
100
AcDbLine
 10
-13.68312688313819
 20
140.8102539600849
 30
0.0
 11
-13.68312688313819
 21
129.9379726368158
 31
0.0
  0
LINE
  5
2A6
102
{ACAD_XDICTIONARY
360
2A4
102
}
330
1F
100
AcDbEntity
  8
Main lines
100
AcDbLine
 10
-8.883126883138175
 20
129.9379726368158
 30
0.0
 11
-8.883126883138118
 21
140.8102539600849
 31
0.0
  0
LINE
  5
2A9
102
{ACAD_XDICTIONARY
360
2A7
102
}
330
1F
100
AcDbEntity
  8
Main lines
100
AcDbLine
 10
-3.683126883138186
 20
140.8102539600849
 30
0.0
 11
-3.683126883138186
 21
129.9379726368158
 31
0.0
  0
LINE
  5
2AC
102
{ACAD_XDICTIONARY
360
2AA
102
}
330
1F
100
AcDbEntity
  8
Main lines
100
AcDbLine
 10
1.116873116861854
 20
129.9379726368158
 30
0.0
 11
1.116873116861854
 21
140.8102539600849
 31
0.0
  0
LINE
  5
2AF
102
{ACAD_XDICTIONARY
360
2AD
102
}
330
1F
100
AcDbEntity
  8
Main lines
100
AcDbLine
 10
6.316873116861785
 20
140.8102539600849
 30
0.0
 11
6.316873116861814
 21
129.9379726368158
 31
0.0
  0
LINE
  5
2B2
102
{ACAD_XDICTIONARY
360
2B0
102
}
330
1F
100
AcDbEntity
  8
Main lines
100
AcDbLine
 10
11.11687311686185
 20
129.9379726368158
 30
0.0
 11
11.11687311686185
 21
140.8102539600849
 31
0.0
  0
LINE
  5
2B5
102
{ACAD_XDICTIONARY
360
2B3
102
}
330
1F
100
AcDbEntity
  8
Main lines
 48
5.0
100
AcDbLine
 10
-3.683126883138186
 20
140.8102539600849
 30
0.0
 11
-8.883126883138118
 21
140.8102539600849
 31
0.0
  0
LINE
  5
2B8
102
{ACAD_XDICTIONARY
360
2B6
102
}
330
1F
100
AcDbEntity
  8
Main lines
 48
5.0
100
AcDbLine
 10
-13.68312688313819
 20
140.8102539600849
 30
0.0
 11
-18.88312688313817
 21
140.8102539600849
 31
0.0
  0
LINE
  5
2BB
102
{ACAD_XDICTIONARY
360
2B9
102
}
330
1F
100
AcDbEntity
  8
Main lines
 48
5.0
100
AcDbLine
 10
6.316873116861785
 20
140.8102539600849
 30
0.0
 11
1.116873116861825
 21
140.8102539600849
 31
0.0
  0
LINE
  5
2BE
102
{ACAD_XDICTIONARY
360
2BC
102
}
330
1F
100
AcDbEntity
  8
Main lines
100
AcDbLine
 10
-18.88312688313817
 20
129.9379726368158
 30
0.0
 11
-23.68312688313819
 21
129.9379726368158
 31
0.0
  0
LINE
  5
2C1
102
{ACAD_XDICTIONARY
360
2BF
102
}
330
1F
100
AcDbEntity
  8
Main lines
100
AcDbLine
 10
-8.883126883138175
 20
129.9379726368158
 30
0.0
 11
-13.68312688313819
 21
129.9379726368158
 31
0.0
  0
LINE
  5
2C4
102
{ACAD_XDICTIONARY
360
2C2
102
}
330
1F
100
AcDbEntity
  8
Main lines
100
AcDbLine
 10
1.116873116861854
 20
129.9379726368158
 30
0.0
 11
-3.683126883138186
 21
129.9379726368158
 31
0.0
  0
LINE
  5
2C7
102
{ACAD_XDICTIONARY
360
2C5
102
}
330
1F
100
AcDbEntity
  8
Main lines
100
AcDbLine
 10
11.11687311686185
 20
129.9379726368158
 30
0.0
 11
6.316873116861842
 21
129.9379726368158
 31
0.0
  0
LINE
  5
2CA
102
{ACAD_XDICTIONARY
360
2C8
102
}
330
1F
100
AcDbEntity
  8
Main lines
100
AcDbLine
 10
16.31687311686181
 20
140.8102539600849
 30
0.0
 11
16.31687311686181
 21
129.9379726368158
 31
0.0
  0
LINE
  5
2CD
102
{ACAD_XDICTIONARY
360
2CB
102
}
330
1F
100
AcDbEntity
  8
Main lines
100
AcDbLine
 10
26.21687311686179
 20
154.6046393034825
 30
0.0
 11
26.21687311686179
 21
149.7378299839417
 31
0.0
  0
LINE
  5
2D0
102
{ACAD_XDICTIONARY
360
2CE
102
}
330
1F
100
AcDbEntity
  8
Main lines
100
AcDbLine
 10
26.21687311686179
 20
154.6046393034825
 30
0.0
 11
26.21687311686179
 21
161.7988161947638
 31
0.0
  0
LINE
  5
2D3
102
{ACAD_XDICTIONARY
360
2D1
102
}
330
1F
100
AcDbEntity
  8
Main lines
 48
5.0
100
AcDbLine
 10
26.21687311686179
 20
140.8102539600849
 30
0.0
 11
21.11687311686188
 21
140.8102539600849
 31
0.0
  0
LINE
  5
2D6
102
{ACAD_XDICTIONARY
360
2D4
102
}
330
1F
100
AcDbEntity
  8
Main lines
 48
5.0
100
AcDbLine
 10
26.21687311686179
 20
149.7378299839417
 30
0.0
 11
26.21687311686179
 21
140.8102539600849
 31
0.0
  0
LINE
  5
2D9
102
{ACAD_XDICTIONARY
360
2D7
102
}
330
1F
100
AcDbEntity
  8
Main lines
100
AcDbLine
 10
21.11687311686188
 20
129.9379726368158
 30
0.0
 11
16.31687311686181
 21
129.9379726368158
 31
0.0
  0
LINE
  5
2DC
102
{ACAD_XDICTIONARY
360
2DA
102
}
330
1F
100
AcDbEntity
  8
Main lines
 48
5.0
100
AcDbLine
 10
21.11687311686188
 20
129.9379726368158
 30
0.0
 11
21.11687311686188
 21
140.8102539600849
 31
0.0
  0
LINE
  5
2DF
102
{ACAD_XDICTIONARY
360
2DD
102
}
330
1F
100
AcDbEntity
  8
Main lines
  6
HIDDEN
 48
5.0
100
AcDbLine
 10
21.11687311686188
 20
134.9379726368158
 30
0.0
 11
16.31687311686181
 21
134.9379726368158
 31
0.0
  0
LINE
  5
2E2
102
{ACAD_XDICTIONARY
360
2E0
102
}
330
1F
100
AcDbEntity
  8
Main lines
  6
HIDDEN
 48
5.0
100
AcDbLine
 10
11.11687311686188
 20
134.9379726368158
 30
0.0
 11
6.316873116861814
 21
134.9379726368158
 31
0.0
  0
LINE
  5
2E5
102
{ACAD_XDICTIONARY
360
2E3
102
}
330
1F
100
AcDbEntity
  8
Main lines
  6
HIDDEN
 48
5.0
100
AcDbLine
 10
1.116873116861882
 20
134.9379726368158
 30
0.0
 11
-3.683126883138186
 21
134.9379726368158
 31
0.0
  0
LINE
  5
2E8
102
{ACAD_XDICTIONARY
360
2E6
102
}
330
1F
100
AcDbEntity
  8
Main lines
  6
HIDDEN
 48
5.0
100
AcDbLine
 10
-8.883126883138175
 20
134.9379726368158
 30
0.0
 11
-13.68312688313819
 21
134.9379726368158
 31
0.0
  0
LINE
  5
2EB
102
{ACAD_XDICTIONARY
360
2E9
102
}
330
1F
100
AcDbEntity
  8
Main lines
  6
HIDDEN
 48
5.0
100
AcDbLine
 10
-18.88312688313817
 20
134.9379726368158
 30
0.0
 11
-23.68312688313824
 21
134.9379726368158
 31
0.0
  0
LINE
  5
2EE
102
{ACAD_XDICTIONARY
360
2EC
102
}
330
1F
100
AcDbEntity
  8
Main lines
  6
HIDDEN
 48
5.0
100
AcDbLine
 10
-28.88312688313812
 20
134.9379726368158
 30
0.0
 11
-33.68312688313819
 21
134.9379726368158
 31
0.0
  0
LINE
  5
2F1
102
{ACAD_XDICTIONARY
360
2EF
102
}
330
1F
100
AcDbEntity
  8
Main lines
  6
HIDDEN
 48
5.0
100
AcDbLine
 10
-38.88312688313815
 20
134.9379726368158
 30
0.0
 11
-43.68312688313821
 21
134.9379726368158
 31
0.0
  0
LINE
  5
2F4
102
{ACAD_XDICTIONARY
360
2F2
102
}
330
1F
100
AcDbEntity
  8
Main lines
  6
HIDDEN
 48
5.0
100
AcDbLine
 10
-48.88312688313812
 20
134.9379726368158
 30
0.0
 11
-53.68312688313819
 21
134.9379726368158
 31
0.0
  0
LINE
  5
2F7
102
{ACAD_XDICTIONARY
360
2F5
102
}
330
1F
100
AcDbEntity
  8
Main lines
  6
HIDDEN
 48
5.0
100
AcDbLine
 10
-58.88312688313815
 20
134.9379726368158
 30
0.0
 11
-63.68312688313819
 21
134.9379726368158
 31
0.0
  0
LINE
  5
2FA
102
{ACAD_XDICTIONARY
360
2F8
102
}
330
1F
100
AcDbEntity
  8
Main lines
  6
HIDDEN
 48
5.0
100
AcDbLine
 10
-68.88312688313815
 20
134.9379726368158
 30
0.0
 11
-73.68312688313819
 21
134.9379726368158
 31
0.0
  0
LINE
  5
2FD
102
{ACAD_XDICTIONARY
360
2FB
102
}
330
1F
100
AcDbEntity
  8
Main lines
  6
HIDDEN
 48
5.0
100
AcDbLine
 10
-78.88312688313815
 20
134.9379726368158
 30
0.0
 11
-83.68312688313819
 21
134.9379726368158
 31
0.0
  0
LINE
  5
300
102
{ACAD_XDICTIONARY
360
2FE
102
}
330
1F
100
AcDbEntity
  8
Main lines
  6
HIDDEN
 48
5.0
100
AcDbLine
 10
-88.88312688313815
 20
134.9379726368158
 30
0.0
 11
-93.68312688313819
 21
134.9379726368158
 31
0.0
  0
LINE
  5
303
102
{ACAD_XDICTIONARY
360
301
102
}
330
1F
100
AcDbEntity
  8
Main lines
  6
HIDDEN
 48
5.0
100
AcDbLine
 10
-98.88312688313812
 20
134.9379726368158
 30
0.0
 11
-103.6831268831382
 21
134.9379726368158
 31
0.0
  0
LINE
  5
306
102
{ACAD_XDICTIONARY
360
304
102
}
330
1F
100
AcDbEntity
  8
Main lines
  6
HIDDEN
 48
5.0
100
AcDbLine
 10
-108.8831268831381
 20
134.9379726368158
 30
0.0
 11
-113.6831268831382
 21
134.9379726368158
 31
0.0
  0
LINE
  5
309
102
{ACAD_XDICTIONARY
360
307
102
}
330
1F
100
AcDbEntity
  8
Main lines
  6
HIDDEN
 48
5.0
100
AcDbLine
 10
-118.8831268831381
 20
134.9379726368158
 30
0.0
 11
-123.6831268831382
 21
134.9379726368158
 31
0.0
  0
LINE
  5
30C
102
{ACAD_XDICTIONARY
360
30A
102
}
330
1F
100
AcDbEntity
  8
Main lines
  6
HIDDEN
 48
5.0
100
AcDbLine
 10
-128.8831268831382
 20
134.9379726368158
 30
0.0
 11
-133.6831268831382
 21
134.9379726368158
 31
0.0
  0
LINE
  5
30F
102
{ACAD_XDICTIONARY
360
30D
102
}
330
1F
100
AcDbEntity
  8
Main lines
  6
HIDDEN
 48
5.0
100
AcDbLine
 10
-138.8831268831382
 20
134.9379726368158
 30
0.0
 11
-143.6831268831382
 21
134.9379726368158
 31
0.0
  0
LINE
  5
312
102
{ACAD_XDICTIONARY
360
310
102
}
330
1F
100
AcDbEntity
  8
Main lines
  6
HIDDEN
 48
5.0
100
AcDbLine
 10
-148.8831268831381
 20
134.9379726368158
 30
0.0
 11
-153.6831268831382
 21
134.9379726368158
 31
0.0
  0
LINE
  5
315
102
{ACAD_XDICTIONARY
360
313
102
}
330
1F
100
AcDbEntity
  8
Main lines
  6
HIDDEN
 48
5.0
100
AcDbLine
 10
-158.8831268831381
 20
134.9379726368158
 30
0.0
 11
-163.6831268831382
 21
134.9379726368158
 31
0.0
  0
LINE
  5
318
102
{ACAD_XDICTIONARY
360
316
102
}
330
1F
100
AcDbEntity
  8
Main lines
  6
HIDDEN
 48
5.0
100
AcDbLine
 10
-168.8831268831382
 20
134.9379726368158
 30
0.0
 11
-173.6831268831382
 21
134.9379726368158
 31
0.0
  0
LINE
  5
31B
102
{ACAD_XDICTIONARY
360
319
102
}
330
1F
100
AcDbEntity
  8
Main lines
  6
HIDDEN
 48
5.0
100
AcDbLine
 10
-168.6831268831381
 20
190.9379726368158
 30
0.0
 11
-163.8831268831381
 21
190.9379726368158
 31
0.0
  0
LINE
  5
31E
102
{ACAD_XDICTIONARY
360
31C
102
}
330
1F
100
AcDbEntity
  8
Main lines
  6
HIDDEN
 48
5.0
100
AcDbLine
 10
-158.6831268831381
 20
190.9379726368158
 30
0.0
 11
-153.8831268831381
 21
190.9379726368158
 31
0.0
  0
LINE
  5
321
102
{ACAD_XDICTIONARY
360
31F
102
}
330
1F
100
AcDbEntity
  8
Main lines
  6
HIDDEN
 48
5.0
100
AcDbLine
 10
-148.6831268831381
 20
190.9379726368158
 30
0.0
 11
-143.8831268831381
 21
190.9379726368158
 31
0.0
  0
LINE
  5
324
102
{ACAD_XDICTIONARY
360
322
102
}
330
1F
100
AcDbEntity
  8
Main lines
  6
HIDDEN
 48
5.0
100
AcDbLine
 10
-138.6831268831381
 20
190.9379726368158
 30
0.0
 11
-133.8831268831381
 21
190.9379726368158
 31
0.0
  0
LINE
  5
327
102
{ACAD_XDICTIONARY
360
325
102
}
330
1F
100
AcDbEntity
  8
Main lines
  6
HIDDEN
 48
5.0
100
AcDbLine
 10
-128.6831268831381
 20
190.9379726368158
 30
0.0
 11
-123.8831268831381
 21
190.9379726368158
 31
0.0
  0
LINE
  5
32A
102
{ACAD_XDICTIONARY
360
328
102
}
330
1F
100
AcDbEntity
  8
Main lines
  6
HIDDEN
 48
5.0
100
AcDbLine
 10
-118.6831268831381
 20
190.9379726368158
 30
0.0
 11
-113.8831268831381
 21
190.9379726368158
 31
0.0
  0
LINE
  5
32D
102
{ACAD_XDICTIONARY
360
32B
102
}
330
1F
100
AcDbEntity
  8
Main lines
  6
HIDDEN
 48
5.0
100
AcDbLine
 10
-108.6831268831382
 20
190.9379726368158
 30
0.0
 11
-103.8831268831381
 21
190.9379726368158
 31
0.0
  0
LINE
  5
330
102
{ACAD_XDICTIONARY
360
32E
102
}
330
1F
100
AcDbEntity
  8
Main lines
  6
HIDDEN
 48
5.0
100
AcDbLine
 10
-98.68312688313813
 20
190.9379726368158
 30
0.0
 11
-93.88312688313806
 21
190.9379726368158
 31
0.0
  0
LINE
  5
333
102
{ACAD_XDICTIONARY
360
331
102
}
330
1F
100
AcDbEntity
  8
Main lines
  6
HIDDEN
 48
5.0
100
AcDbLine
 10
-88.68312688313813
 20
190.9379726368158
 30
0.0
 11
-83.88312688313809
 21
190.9379726368158
 31
0.0
  0
LINE
  5
336
102
{ACAD_XDICTIONARY
360
334
102
}
330
1F
100
AcDbEntity
  8
Main lines
  6
HIDDEN
 48
5.0
100
AcDbLine
 10
-78.68312688313813
 20
190.9379726368158
 30
0.0
 11
-73.88312688313806
 21
190.9379726368158
 31
0.0
  0
LINE
  5
339
102
{ACAD_XDICTIONARY
360
337
102
}
330
1F
100
AcDbEntity
  8
Main lines
  6
HIDDEN
 48
5.0
100
AcDbLine
 10
-68.68312688313813
 20
190.9379726368158
 30
0.0
 11
-63.88312688313806
 21
190.9379726368158
 31
0.0
  0
LINE
  5
33C
102
{ACAD_XDICTIONARY
360
33A
102
}
330
1F
100
AcDbEntity
  8
Main lines
  6
HIDDEN
 48
5.0
100
AcDbLine
 10
-58.68312688313813
 20
190.9379726368158
 30
0.0
 11
-53.88312688313806
 21
190.9379726368158
 31
0.0
  0
LINE
  5
33F
102
{ACAD_XDICTIONARY
360
33D
102
}
330
1F
100
AcDbEntity
  8
Main lines
  6
HIDDEN
 48
5.0
100
AcDbLine
 10
-48.68312688313813
 20
190.9379726368158
 30
0.0
 11
-43.88312688313806
 21
190.9379726368158
 31
0.0
  0
LINE
  5
342
102
{ACAD_XDICTIONARY
360
340
102
}
330
1F
100
AcDbEntity
  8
Main lines
  6
HIDDEN
 48
5.0
100
AcDbLine
 10
-38.68312688313813
 20
190.9379726368158
 30
0.0
 11
-33.88312688313806
 21
190.9379726368158
 31
0.0
  0
LINE
  5
345
102
{ACAD_XDICTIONARY
360
343
102
}
330
1F
100
AcDbEntity
  8
Main lines
  6
HIDDEN
 48
5.0
100
AcDbLine
 10
-28.68312688313813
 20
190.9379726368158
 30
0.0
 11
-23.88312688313806
 21
190.9379726368158
 31
0.0
  0
LINE
  5
348
102
{ACAD_XDICTIONARY
360
346
102
}
330
1F
100
AcDbEntity
  8
Main lines
  6
HIDDEN
 48
5.0
100
AcDbLine
 10
-18.68312688313813
 20
190.9379726368158
 30
0.0
 11
-13.88312688313806
 21
190.9379726368158
 31
0.0
  0
LINE
  5
34B
102
{ACAD_XDICTIONARY
360
349
102
}
330
1F
100
AcDbEntity
  8
Main lines
  6
HIDDEN
 48
5.0
100
AcDbLine
 10
-8.68312688313813
 20
190.9379726368158
 30
0.0
 11
-3.883126883138061
 21
190.9379726368158
 31
0.0
  0
LINE
  5
34E
102
{ACAD_XDICTIONARY
360
34C
102
}
330
1F
100
AcDbEntity
  8
Main lines
  6
HIDDEN
 48
5.0
100
AcDbLine
 10
1.316873116861871
 20
190.9379726368158
 30
0.0
 11
6.11687311686191
 21
190.9379726368158
 31
0.0
  0
LINE
  5
351
102
{ACAD_XDICTIONARY
360
34F
102
}
330
1F
100
AcDbEntity
  8
Main lines
  6
HIDDEN
 48
5.0
100
AcDbLine
 10
11.31687311686187
 20
190.9379726368158
 30
0.0
 11
16.11687311686188
 21
190.9379726368158
 31
0.0
  0
LINE
  5
354
102
{ACAD_XDICTIONARY
360
352
102
}
330
1F
100
AcDbEntity
  8
Main lines
  6
HIDDEN
 48
5.0
100
AcDbLine
 10
21.31687311686187
 20
190.9379726368158
 30
0.0
 11
26.11687311686188
 21
190.9379726368158
 31
0.0
  0
LINE
  5
357
102
{ACAD_XDICTIONARY
360
355
102
}
330
1F
100
AcDbEntity
  8
Main lines
  6
HIDDEN
 48
5.0
100
AcDbLine
 10
26.11687311686177
 20
184.9379726368158
 30
0.0
 11
21.31687311686176
 21
184.9379726368158
 31
0.0
  0
LINE
  5
35A
102
{ACAD_XDICTIONARY
360
358
102
}
330
1F
100
AcDbEntity
  8
Main lines
  6
HIDDEN
 48
5.0
100
AcDbLine
 10
16.11687311686177
 20
184.9379726368158
 30
0.0
 11
11.31687311686179
 21
184.9379726368158
 31
0.0
  0
LINE
  5
35D
102
{ACAD_XDICTIONARY
360
35B
102
}
330
1F
100
AcDbEntity
  8
Main lines
  6
HIDDEN
 48
5.0
100
AcDbLine
 10
1.316873116861842
 20
184.9379726368158
 30
0.0
 11
6.116873116861854
 21
184.9379726368158
 31
0.0
  0
LINE
  5
360
102
{ACAD_XDICTIONARY
360
35E
102
}
330
1F
100
AcDbEntity
  8
Main lines
  6
HIDDEN
 48
5.0
100
AcDbLine
 10
-8.68312688313813
 20
184.9379726368158
 30
0.0
 11
-3.883126883138118
 21
184.9379726368158
 31
0.0
  0
LINE
  5
363
102
{ACAD_XDICTIONARY
360
361
102
}
330
1F
100
AcDbEntity
  8
Main lines
  6
HIDDEN
 48
5.0
100
AcDbLine
 10
-18.68312688313813
 20
184.9379726368158
 30
0.0
 11
-13.88312688313812
 21
184.9379726368158
 31
0.0
  0
LINE
  5
366
102
{ACAD_XDICTIONARY
360
364
102
}
330
1F
100
AcDbEntity
  8
Main lines
  6
HIDDEN
 48
5.0
100
AcDbLine
 10
-23.88312688313812
 20
184.9379726368158
 30
0.0
 11
-28.68312688313813
 21
184.9379726368158
 31
0.0
  0
LINE
  5
369
102
{ACAD_XDICTIONARY
360
367
102
}
330
1F
100
AcDbEntity
  8
Main lines
  6
HIDDEN
 48
5.0
100
AcDbLine
 10
21.11687311686177
 20
140.9379726368158
 30
0.0
 11
16.31687311686176
 21
140.9379726368157
 31
0.0
  0
LINE
  5
36C
102
{ACAD_XDICTIONARY
360
36A
102
}
330
1F
100
AcDbEntity
  8
Main lines
  6
HIDDEN
 48
5.0
100
AcDbLine
 10
11.11687311686174
 20
140.9379726368157
 30
0.0
 11
6.316873116861757
 21
140.9379726368157
 31
0.0
  0
LINE
  5
36F
102
{ACAD_XDICTIONARY
360
36D
102
}
330
1F
100
AcDbEntity
  8
Main lines
  6
HIDDEN
 48
5.0
100
AcDbLine
 10
-3.683126883138073
 20
140.9379726368157
 30
0.0
 11
1.116873116861882
 21
140.9379726368157
 31
0.0
  0
LINE
  5
372
102
{ACAD_XDICTIONARY
360
370
102
}
330
1F
100
AcDbEntity
  8
Main lines
  6
HIDDEN
 48
5.0
100
AcDbLine
 10
-13.68312688313807
 20
140.9379726368158
 30
0.0
 11
-8.883126883138118
 21
140.9379726368157
 31
0.0
  0
LINE
  5
375
102
{ACAD_XDICTIONARY
360
373
102
}
330
1F
100
AcDbEntity
  8
Main lines
  6
HIDDEN
 48
5.0
100
AcDbLine
 10
-23.68312688313807
 20
140.9379726368158
 30
0.0
 11
-18.88312688313812
 21
140.9379726368158
 31
0.0
  0
LINE
  5
378
102
{ACAD_XDICTIONARY
360
376
102
}
330
1F
100
AcDbEntity
  8
Main lines
  6
HIDDEN
 48
5.0
100
AcDbLine
 10
-28.88312688313817
 20
140.9379726368158
 30
0.0
 11
-33.68312688313813
 21
140.9379726368158
 31
0.0
  0
LINE
  5
37B
102
{ACAD_XDICTIONARY
360
379
102
}
330
1F
100
AcDbEntity
  8
Main lines
  6
HIDDEN
 48
5.0
100
AcDbLine
 10
-33.88312688313812
 20
184.9379726368158
 30
0.0
 11
-38.68312688313813
 21
184.9379726368158
 31
0.0
  0
LINE
  5
37E
102
{ACAD_XDICTIONARY
360
37C
102
}
330
1F
100
AcDbEntity
  8
Main lines
  6
HIDDEN
 48
5.0
100
AcDbLine
 10
-43.88312688313812
 20
184.9379726368158
 30
0.0
 11
-48.68312688313813
 21
184.9379726368158
 31
0.0
  0
LINE
  5
381
102
{ACAD_XDICTIONARY
360
37F
102
}
330
1F
100
AcDbEntity
  8
Main lines
  6
HIDDEN
 48
5.0
100
AcDbLine
 10
-58.68312688313821
 20
184.9379726368158
 30
0.0
 11
-53.8831268831382
 21
184.9379726368158
 31
0.0
  0
LINE
  5
384
102
{ACAD_XDICTIONARY
360
382
102
}
330
1F
100
AcDbEntity
  8
Main lines
  6
HIDDEN
 48
5.0
100
AcDbLine
 10
-68.68312688313819
 20
184.9379726368158
 30
0.0
 11
-63.88312688313817
 21
184.9379726368158
 31
0.0
  0
LINE
  5
387
102
{ACAD_XDICTIONARY
360
385
102
}
330
1F
100
AcDbEntity
  8
Main lines
  6
HIDDEN
 48
5.0
100
AcDbLine
 10
-78.68312688313824
 20
184.9379726368158
 30
0.0
 11
-73.88312688313823
 21
184.9379726368158
 31
0.0
  0
LINE
  5
38A
102
{ACAD_XDICTIONARY
360
388
102
}
330
1F
100
AcDbEntity
  8
Main lines
  6
HIDDEN
 48
5.0
100
AcDbLine
 10
-83.88312688313817
 20
184.9379726368158
 30
0.0
 11
-88.68312688313819
 21
184.9379726368158
 31
0.0
  0
LINE
  5
38D
102
{ACAD_XDICTIONARY
360
38B
102
}
330
1F
100
AcDbEntity
  8
Main lines
  6
HIDDEN
 48
5.0
100
AcDbLine
 10
-93.88312688313823
 20
184.9379726368158
 30
0.0
 11
-98.68312688313824
 21
184.9379726368158
 31
0.0
  0
LINE
  5
390
102
{ACAD_XDICTIONARY
360
38E
102
}
330
1F
100
AcDbEntity
  8
Main lines
  6
HIDDEN
 48
5.0
100
AcDbLine
 10
-88.88312688313823
 20
140.9379726368158
 30
0.0
 11
-93.68312688313824
 21
140.9379726368158
 31
0.0
  0
LINE
  5
393
102
{ACAD_XDICTIONARY
360
391
102
}
330
1F
100
AcDbEntity
  8
Main lines
  6
HIDDEN
 48
5.0
100
AcDbLine
 10
-83.68312688313819
 20
140.9379726368158
 30
0.0
 11
-78.88312688313817
 21
140.9379726368158
 31
0.0
  0
LINE
  5
396
102
{ACAD_XDICTIONARY
360
394
102
}
330
1F
100
AcDbEntity
  8
Main lines
  6
HIDDEN
 48
5.0
100
AcDbLine
 10
-73.68312688313819
 20
140.9379726368158
 30
0.0
 11
-68.88312688313817
 21
140.9379726368157
 31
0.0
  0
LINE
  5
399
102
{ACAD_XDICTIONARY
360
397
102
}
330
1F
100
AcDbEntity
  8
Main lines
  6
HIDDEN
 48
5.0
100
AcDbLine
 10
-63.68312688313819
 20
140.9379726368157
 30
0.0
 11
-58.88312688313817
 21
140.9379726368157
 31
0.0
  0
LINE
  5
39C
102
{ACAD_XDICTIONARY
360
39A
102
}
330
1F
100
AcDbEntity
  8
Main lines
  6
HIDDEN
 48
5.0
100
AcDbLine
 10
-48.88312688313817
 20
140.9379726368157
 30
0.0
 11
-53.68312688313813
 21
140.9379726368157
 31
0.0
  0
LINE
  5
39F
102
{ACAD_XDICTIONARY
360
39D
102
}
330
1F
100
AcDbEntity
  8
Main lines
  6
HIDDEN
 48
5.0
100
AcDbLine
 10
-38.88312688313815
 20
140.9379726368158
 30
0.0
 11
-43.68312688313813
 21
140.9379726368157
 31
0.0
  0
LINE
  5
3A2
102
{ACAD_XDICTIONARY
360
3A0
102
}
330
1F
100
AcDbEntity
  8
Main lines
  6
HIDDEN
 48
5.0
100
AcDbLine
 10
-103.8831268831382
 20
184.9379726368158
 30
0.0
 11
-108.6831268831382
 21
184.9379726368158
 31
0.0
  0
LINE
  5
3A5
102
{ACAD_XDICTIONARY
360
3A3
102
}
330
1F
100
AcDbEntity
  8
Main lines
  6
HIDDEN
 48
5.0
100
AcDbLine
 10
-118.6831268831381
 20
184.9379726368158
 30
0.0
 11
-113.8831268831381
 21
184.9379726368158
 31
0.0
  0
LINE
  5
3A8
102
{ACAD_XDICTIONARY
360
3A6
102
}
330
1F
100
AcDbEntity
  8
Main lines
  6
HIDDEN
 48
5.0
100
AcDbLine
 10
-128.6831268831381
 20
184.9379726368158
 30
0.0
 11
-123.8831268831381
 21
184.9379726368158
 31
0.0
  0
LINE
  5
3AB
102
{ACAD_XDICTIONARY
360
3A9
102
}
330
1F
100
AcDbEntity
  8
Main lines
  6
HIDDEN
 48
5.0
100
AcDbLine
 10
-138.6831268831381
 20
184.9379726368158
 30
0.0
 11
-133.8831268831381
 21
184.9379726368158
 31
0.0
  0
LINE
  5
3AE
102
{ACAD_XDICTIONARY
360
3AC
102
}
330
1F
100
AcDbEntity
  8
Main lines
  6
HIDDEN
 48
5.0
100
AcDbLine
 10
-143.8831268831381
 20
184.9379726368158
 30
0.0
 11
-148.6831268831381
 21
184.9379726368158
 31
0.0
  0
LINE
  5
3B1
102
{ACAD_XDICTIONARY
360
3AF
102
}
330
1F
100
AcDbEntity
  8
Main lines
  6
HIDDEN
 48
5.0
100
AcDbLine
 10
-98.88312688313823
 20
140.9379726368158
 30
0.0
 11
-103.6831268831382
 21
140.9379726368157
 31
0.0
  0
LINE
  5
3B4
102
{ACAD_XDICTIONARY
360
3B2
102
}
330
1F
100
AcDbEntity
  8
Main lines
  6
HIDDEN
 48
5.0
100
AcDbLine
 10
-108.8831268831382
 20
140.9379726368157
 30
0.0
 11
-113.6831268831382
 21
140.9379726368157
 31
0.0
  0
LINE
  5
3B7
102
{ACAD_XDICTIONARY
360
3B5
102
}
330
1F
100
AcDbEntity
  8
Main lines
  6
HIDDEN
 48
5.0
100
AcDbLine
 10
-123.6831268831381
 20
140.9379726368157
 30
0.0
 11
-118.8831268831381
 21
140.9379726368157
 31
0.0
  0
LINE
  5
3BA
102
{ACAD_XDICTIONARY
360
3B8
102
}
330
1F
100
AcDbEntity
  8
Main lines
  6
HIDDEN
 48
5.0
100
AcDbLine
 10
-133.6831268831381
 20
140.9379726368158
 30
0.0
 11
-128.8831268831381
 21
140.9379726368157
 31
0.0
  0
LINE
  5
3BD
102
{ACAD_XDICTIONARY
360
3BB
102
}
330
1F
100
AcDbEntity
  8
Main lines
  6
HIDDEN
 48
5.0
100
AcDbLine
 10
-143.6831268831381
 20
140.9379726368158
 30
0.0
 11
-138.8831268831381
 21
140.9379726368158
 31
0.0
  0
LINE
  5
3C0
102
{ACAD_XDICTIONARY
360
3BE
102
}
330
1F
100
AcDbEntity
  8
Main lines
  6
HIDDEN
 48
5.0
100
AcDbLine
 10
-148.8831268831382
 20
140.9379726368158
 30
0.0
 11
-153.6831268831381
 21
140.9379726368158
 31
0.0
  0
LINE
  5
3C3
102
{ACAD_XDICTIONARY
360
3C1
102
}
330
1F
100
AcDbEntity
  8
Main lines
  6
HIDDEN
 48
5.0
100
AcDbLine
 10
-153.8831268831381
 20
184.9379726368158
 30
0.0
 11
-158.6831268831381
 21
184.9379726368158
 31
0.0
  0
LINE
  5
3C6
102
{ACAD_XDICTIONARY
360
3C4
102
}
330
1F
100
AcDbEntity
  8
Main lines
  6
HIDDEN
 48
5.0
100
AcDbLine
 10
-158.8831268831382
 20
140.9379726368158
 30
0.0
 11
-163.6831268831381
 21
140.9379726368157
 31
0.0
  0
LINE
  5
3C9
102
{ACAD_XDICTIONARY
360
3C7
102
}
330
1F
100
AcDbEntity
  8
Main lines
  6
HIDDEN
 48
5.0
100
AcDbLine
 10
-163.8831268831381
 20
184.9379726368158
 30
0.0
 11
-168.6831268831381
 21
184.9379726368158
 31
0.0
  0
LINE
  5
3CC
102
{ACAD_XDICTIONARY
360
3CA
102
}
330
1F
100
AcDbEntity
  8
Main lines
  6
HIDDEN
 48
5.0
100
AcDbLine
 10
-168.8831268831382
 20
140.9379726368157
 30
0.0
 11
-173.6831268831381
 21
140.9379726368157
 31
0.0
  0
ARC
  5
3CF
102
{ACAD_XDICTIONARY
360
3CD
102
}
330
1F
100
AcDbEntity
  8
Main lines
 48
5.0
100
AcDbCircle
 10
18.71687311686185
 20
164.9379726368158
 30
0.0
 40
0.5
100
AcDbArc
 50
0.0
 51
180.0
  0
LINE
  5
3D2
102
{ACAD_XDICTIONARY
360
3D0
102
}
330
1F
100
AcDbEntity
  8
Main lines
 48
5.0
100
AcDbLine
 10
26.0168731168618
 20
164.9379726368158
 30
0.0
 11
-13.03692909827225
 21
164.9379726368158
 31
0.0
  0
LINE
  5
3D5
102
{ACAD_XDICTIONARY
360
3D3
102
}
330
1F
100
AcDbEntity
  8
Main lines
 48
5.0
100
AcDbLine
 10
26.0168731168618
 20
160.9379726368158
 30
0.0
 11
-14.75082602472082
 21
160.9379726368158
 31
0.0
  0
LINE
  5
3D8
102
{ACAD_XDICTIONARY
360
3D6
102
}
330
1F
100
AcDbEntity
  8
Main lines
 48
5.0
100
AcDbLine
 10
-14.75082602472082
 20
160.9379726368158
 30
0.0
 11
-173.5831268831381
 21
160.9379726368158
 31
0.0
  0
LINE
  5
3DB
102
{ACAD_XDICTIONARY
360
3D9
102
}
330
1F
100
AcDbEntity
  8
Main lines
 48
5.0
100
AcDbLine
 10
-13.03692909827225
 20
164.9379726368158
 30
0.0
 11
-173.5831268831381
 21
164.9379726368158
 31
0.0
  0
LINE
  5
3DE
102
{ACAD_XDICTIONARY
360
3DC
102
}
330
1F
100
AcDbEntity
  8
Main lines
 48
5.0
100
AcDbLine
 10
-173.6831268831381
 20
164.9379726368158
 30
0.0
 11
-173.6831268831381
 21
160.9379726368158
 31
0.0
  0
LINE
  5
3E1
102
{ACAD_XDICTIONARY
360
3DF
102
}
330
1F
100
AcDbEntity
  8
Main lines
 48
5.0
100
AcDbLine
 10
26.11687311686177
 20
164.9379726368158
 30
0.0
 11
26.11687311686177
 21
160.9379726368158
 31
0.0
  0
LINE
  5
3E4
102
{ACAD_XDICTIONARY
360
3E2
102
}
330
1F
100
AcDbEntity
  8
Main lines
 48
5.0
100
AcDbLine
 10
26.0168731168618
 20
160.9379726368158
 30
0.0
 11
26.11687311686177
 21
160.9379726368158
 31
0.0
  0
LINE
  5
3E7
102
{ACAD_XDICTIONARY
360
3E5
102
}
330
1F
100
AcDbEntity
  8
Main lines
 48
5.0
100
AcDbLine
 10
26.0168731168618
 20
164.9379726368158
 30
0.0
 11
26.11687311686177
 21
164.9379726368158
 31
0.0
  0
LINE
  5
3EA
102
{ACAD_XDICTIONARY
360
3E8
102
}
330
1F
100
AcDbEntity
  8
Main lines
 48
5.0
100
AcDbLine
 10
-173.6831268831381
 20
164.9379726368158
 30
0.0
 11
-173.5831268831381
 21
164.9379726368158
 31
0.0
  0
ARC
  5
3ED
102
{ACAD_XDICTIONARY
360
3EB
102
}
330
1F
100
AcDbEntity
  8
Main lines
 48
5.0
100
AcDbCircle
 10
8.716873116861848
 20
164.9379726368158
 30
0.0
 40
0.5
100
AcDbArc
 50
0.0
 51
180.0
  0
ARC
  5
3F0
102
{ACAD_XDICTIONARY
360
3EE
102
}
330
1F
100
AcDbEntity
  8
Main lines
 48
5.0
100
AcDbCircle
 10
-1.283126883138152
 20
164.9379726368158
 30
0.0
 40
0.5
100
AcDbArc
 50
0.0
 51
180.0
  0
ARC
  5
3F3
102
{ACAD_XDICTIONARY
360
3F1
102
}
330
1F
100
AcDbEntity
  8
Main lines
 48
5.0
100
AcDbCircle
 10
-11.28312688313815
 20
164.9379726368158
 30
0.0
 40
0.5
100
AcDbArc
 50
0.0
 51
180.0
  0
ARC
  5
3F6
102
{ACAD_XDICTIONARY
360
3F4
102
}
330
1F
100
AcDbEntity
  8
Main lines
 48
5.0
100
AcDbCircle
 10
-21.28312688313815
 20
164.9379726368158
 30
0.0
 40
0.5
100
AcDbArc
 50
0.0
 51
180.0
  0
ARC
  5
3F9
102
{ACAD_XDICTIONARY
360
3F7
102
}
330
1F
100
AcDbEntity
  8
Main lines
 48
5.0
100
AcDbCircle
 10
-31.28312688313815
 20
164.9379726368158
 30
0.0
 40
0.5
100
AcDbArc
 50
0.0
 51
180.0
  0
ARC
  5
3FC
102
{ACAD_XDICTIONARY
360
3FA
102
}
330
1F
100
AcDbEntity
  8
Main lines
 48
5.0
100
AcDbCircle
 10
-41.28312688313815
 20
164.9379726368158
 30
0.0
 40
0.5
100
AcDbArc
 50
0.0
 51
180.0
  0
ARC
  5
3FF
102
{ACAD_XDICTIONARY
360
3FD
102
}
330
1F
100
AcDbEntity
  8
Main lines
 48
5.0
100
AcDbCircle
 10
-51.28312688313815
 20
164.9379726368158
 30
0.0
 40
0.5
100
AcDbArc
 50
0.0
 51
180.0
  0
ARC
  5
402
102
{ACAD_XDICTIONARY
360
400
102
}
330
1F
100
AcDbEntity
  8
Main lines
 48
5.0
100
AcDbCircle
 10
-61.28312688313815
 20
164.9379726368158
 30
0.0
 40
0.5
100
AcDbArc
 50
0.0
 51
180.0
  0
ARC
  5
405
102
{ACAD_XDICTIONARY
360
403
102
}
330
1F
100
AcDbEntity
  8
Main lines
 48
5.0
100
AcDbCircle
 10
-71.28312688313815
 20
164.9379726368158
 30
0.0
 40
0.5
100
AcDbArc
 50
0.0
 51
180.0
  0
ARC
  5
408
102
{ACAD_XDICTIONARY
360
406
102
}
330
1F
100
AcDbEntity
  8
Main lines
 48
5.0
100
AcDbCircle
 10
-81.28312688313815
 20
164.9379726368158
 30
0.0
 40
0.5
100
AcDbArc
 50
0.0
 51
180.0
  0
ARC
  5
40B
102
{ACAD_XDICTIONARY
360
409
102
}
330
1F
100
AcDbEntity
  8
Main lines
 48
5.0
100
AcDbCircle
 10
-91.28312688313815
 20
164.9379726368158
 30
0.0
 40
0.5
100
AcDbArc
 50
0.0
 51
180.0
  0
ARC
  5
40E
102
{ACAD_XDICTIONARY
360
40C
102
}
330
1F
100
AcDbEntity
  8
Main lines
 48
5.0
100
AcDbCircle
 10
-101.2831268831382
 20
164.9379726368158
 30
0.0
 40
0.5
100
AcDbArc
 50
0.0
 51
180.0
  0
ARC
  5
411
102
{ACAD_XDICTIONARY
360
40F
102
}
330
1F
100
AcDbEntity
  8
Main lines
 48
5.0
100
AcDbCircle
 10
-111.2831268831382
 20
164.9379726368158
 30
0.0
 40
0.5
100
AcDbArc
 50
0.0
 51
180.0
  0
ARC
  5
414
102
{ACAD_XDICTIONARY
360
412
102
}
330
1F
100
AcDbEntity
  8
Main lines
 48
5.0
100
AcDbCircle
 10
-121.2831268831381
 20
164.9379726368158
 30
0.0
 40
0.5
100
AcDbArc
 50
0.0
 51
180.0
  0
ARC
  5
417
102
{ACAD_XDICTIONARY
360
415
102
}
330
1F
100
AcDbEntity
  8
Main lines
 48
5.0
100
AcDbCircle
 10
-131.2831268831382
 20
164.9379726368158
 30
0.0
 40
0.5
100
AcDbArc
 50
0.0
 51
180.0
  0
ARC
  5
41A
102
{ACAD_XDICTIONARY
360
418
102
}
330
1F
100
AcDbEntity
  8
Main lines
 48
5.0
100
AcDbCircle
 10
-141.2831268831382
 20
164.9379726368158
 30
0.0
 40
0.5
100
AcDbArc
 50
0.0
 51
180.0
  0
ARC
  5
41D
102
{ACAD_XDICTIONARY
360
41B
102
}
330
1F
100
AcDbEntity
  8
Main lines
 48
5.0
100
AcDbCircle
 10
-151.2831268831382
 20
164.9379726368158
 30
0.0
 40
0.5
100
AcDbArc
 50
0.0
 51
180.0
  0
ARC
  5
420
102
{ACAD_XDICTIONARY
360
41E
102
}
330
1F
100
AcDbEntity
  8
Main lines
 48
5.0
100
AcDbCircle
 10
-161.2831268831382
 20
164.9379726368158
 30
0.0
 40
0.5
100
AcDbArc
 50
0.0
 51
180.0
  0
ARC
  5
423
102
{ACAD_XDICTIONARY
360
421
102
}
330
1F
100
AcDbEntity
  8
Main lines
 48
5.0
100
AcDbCircle
 10
-171.2831268831382
 20
164.9379726368158
 30
0.0
 40
0.5
100
AcDbArc
 50
0.0
 51
180.0
  0
VIEWPORT
  5
424
330
1B
100
AcDbEntity
 67
     1
  8
0
100
AcDbViewport
 10
140.0218848823794
 20
101.9028953504165
 30
0.0
 40
280.2283957583874
 41
201.3931063490108
 68
     1
 69
     1
 12
140.0218848823794
 22
101.9028953504165
 13
0.0
 23
0.0
 14
10.0
 24
10.0
 15
10.0
 25
10.0
 16
0.0
 26
0.0
 36
1.0
 17
0.0
 27
0.0
 37
0.0
 42
50.0
 43
0.0
 44
0.0
 45
201.3931063490108
 50
0.0
 51
0.0
 72
  1000
 90
    32800
  1

281
     0
 71
     1
 74
     0
110
0.0
120
0.0
130
0.0
111
1.0
121
0.0
131
0.0
112
0.0
122
1.0
132
0.0
 79
     0
146
0.0
170
     0
  0
VIEWPORT
  5
425
330
1B
100
AcDbEntity
 67
     1
  8
0
  6
$INVISIBLE
100
AcDbViewport
 10
140.0218848823794
 20
101.9028953504165
 30
0.0
 40
280.2283957583874
 41
201.3931063490108
 68
     2
 69
     2
 12
717.1860259187298
 22
392.4295065236427
 13
0.0
 23
0.0
 14
0.5
 24
0.5
 15
0.0
 25
0.0
 16
0.0
 26
0.0
 36
1.0
 17
0.0
 27
0.0
 37
0.0
 42
50.0
 43
0.0
 44
0.0
 45
201.393107068014
 50
0.0
 51
0.0
 72
   100
 90
   557152
  1

281
     0
 71
     1
 74
     0
110
0.0
120
0.0
130
0.0
111
1.0
121
0.0
131
0.0
112
0.0
122
1.0
132
0.0
 79
     0
146
0.0
170
     0
  0
ENDSEC
  0
SECTION
  2
OBJECTS
  0
DICTIONARY
  5
C
330
0
100
AcDbDictionary
281
     1
  3
ACAD_GROUP
350
D
  3
ACAD_LAYOUT
350
1A
  3
ACAD_MLINESTYLE
350
17
  3
ACAD_PLOTSETTINGS
350
19
  3
ACAD_PLOTSTYLENAME
350
E
  3
ACAD_TABLESTYLE
350
427
  3
ACAD_VISUALSTYLE
350
2A
  0
DICTIONARY
  5
59
330
5B
100
AcDbDictionary
280
     1
281
     1
  3
TC_OPTIONAL_DATA
360
5A
  0
DICTIONARY
  5
5C
330
5E
100
AcDbDictionary
280
     1
281
     1
  3
TC_OPTIONAL_DATA
360
5D
  0
DICTIONARY
  5
60
330
62
100
AcDbDictionary
280
     1
281
     1
  3
TC_OPTIONAL_DATA
360
61
  0
DICTIONARY
  5
63
330
65
100
AcDbDictionary
280
     1
281
     1
  3
TC_OPTIONAL_DATA
360
64
  0
DICTIONARY
  5
66
330
68
100
AcDbDictionary
280
     1
281
     1
  3
TC_OPTIONAL_DATA
360
67
  0
DICTIONARY
  5
69
330
6B
100
AcDbDictionary
280
     1
281
     1
  3
TC_OPTIONAL_DATA
360
6A
  0
DICTIONARY
  5
6C
330
6E
100
AcDbDictionary
280
     1
281
     1
  3
TC_OPTIONAL_DATA
360
6D
  0
DICTIONARY
  5
6F
330
71
100
AcDbDictionary
280
     1
281
     1
  3
TC_OPTIONAL_DATA
360
70
  0
DICTIONARY
  5
72
330
74
100
AcDbDictionary
280
     1
281
     1
  3
TC_OPTIONAL_DATA
360
73
  0
DICTIONARY
  5
75
330
77
100
AcDbDictionary
280
     1
281
     1
  3
TC_OPTIONAL_DATA
360
76
  0
DICTIONARY
  5
78
330
7A
100
AcDbDictionary
280
     1
281
     1
  3
TC_OPTIONAL_DATA
360
79
  0
DICTIONARY
  5
7B
330
7D
100
AcDbDictionary
280
     1
281
     1
  3
TC_OPTIONAL_DATA
360
7C
  0
DICTIONARY
  5
80
330
82
100
AcDbDictionary
280
     1
281
     1
  3
TC_OPTIONAL_DATA
360
81
  0
DICTIONARY
  5
84
330
86
100
AcDbDictionary
280
     1
281
     1
  3
TC_OPTIONAL_DATA
360
85
  0
DICTIONARY
  5
87
330
89
100
AcDbDictionary
280
     1
281
     1
  3
TC_OPTIONAL_DATA
360
88
  0
DICTIONARY
  5
8B
330
8D
100
AcDbDictionary
280
     1
281
     1
  3
TC_OPTIONAL_DATA
360
8C
  0
DICTIONARY
  5
8E
330
90
100
AcDbDictionary
280
     1
281
     1
  3
TC_OPTIONAL_DATA
360
8F
  0
DICTIONARY
  5
94
330
96
100
AcDbDictionary
280
     1
281
     1
  3
TC_OPTIONAL_DATA
360
95
  0
DICTIONARY
  5
97
330
99
100
AcDbDictionary
280
     1
281
     1
  3
TC_OPTIONAL_DATA
360
98
  0
DICTIONARY
  5
9A
330
9C
100
AcDbDictionary
280
     1
281
     1
  3
TC_OPTIONAL_DATA
360
9B
  0
DICTIONARY
  5
9D
330
9F
100
AcDbDictionary
280
     1
281
     1
  3
TC_OPTIONAL_DATA
360
9E
  0
DICTIONARY
  5
A0
330
A2
100
AcDbDictionary
280
     1
281
     1
  3
TC_OPTIONAL_DATA
360
A1
  0
DICTIONARY
  5
A3
330
A5
100
AcDbDictionary
280
     1
281
     1
  3
TC_OPTIONAL_DATA
360
A4
  0
DICTIONARY
  5
A6
330
A8
100
AcDbDictionary
280
     1
281
     1
  3
TC_OPTIONAL_DATA
360
A7
  0
DICTIONARY
  5
A9
330
AB
100
AcDbDictionary
280
     1
281
     1
  3
TC_OPTIONAL_DATA
360
AA
  0
DICTIONARY
  5
AF
330
B1
100
AcDbDictionary
280
     1
281
     1
  3
TC_OPTIONAL_DATA
360
B0
  0
DICTIONARY
  5
B2
330
B4
100
AcDbDictionary
280
     1
281
     1
  3
TC_OPTIONAL_DATA
360
B3
  0
DICTIONARY
  5
B5
330
B7
100
AcDbDictionary
280
     1
281
     1
  3
TC_OPTIONAL_DATA
360
B6
  0
DICTIONARY
  5
B8
330
BA
100
AcDbDictionary
280
     1
281
     1
  3
TC_OPTIONAL_DATA
360
B9
  0
DICTIONARY
  5
BB
330
BD
100
AcDbDictionary
280
     1
281
     1
  3
TC_OPTIONAL_DATA
360
BC
  0
DICTIONARY
  5
BE
330
C0
100
AcDbDictionary
280
     1
281
     1
  3
TC_OPTIONAL_DATA
360
BF
  0
DICTIONARY
  5
C1
330
C3
100
AcDbDictionary
280
     1
281
     1
  3
TC_OPTIONAL_DATA
360
C2
  0
DICTIONARY
  5
C4
330
C6
100
AcDbDictionary
280
     1
281
     1
  3
TC_OPTIONAL_DATA
360
C5
  0
DICTIONARY
  5
C7
330
C9
100
AcDbDictionary
280
     1
281
     1
  3
TC_OPTIONAL_DATA
360
C8
  0
DICTIONARY
  5
CA
330
CC
100
AcDbDictionary
280
     1
281
     1
  3
TC_OPTIONAL_DATA
360
CB
  0
DICTIONARY
  5
CD
330
CF
100
AcDbDictionary
280
     1
281
     1
  3
TC_OPTIONAL_DATA
360
CE
  0
DICTIONARY
  5
D0
330
D2
100
AcDbDictionary
280
     1
281
     1
  3
TC_OPTIONAL_DATA
360
D1
  0
DICTIONARY
  5
D3
330
D5
100
AcDbDictionary
280
     1
281
     1
  3
TC_OPTIONAL_DATA
360
D4
  0
DICTIONARY
  5
D6
330
D8
100
AcDbDictionary
280
     1
281
     1
  3
TC_OPTIONAL_DATA
360
D7
  0
DICTIONARY
  5
D9
330
DB
100
AcDbDictionary
280
     1
281
     1
  3
TC_OPTIONAL_DATA
360
DA
  0
DICTIONARY
  5
DC
330
DE
100
AcDbDictionary
280
     1
281
     1
  3
TC_OPTIONAL_DATA
360
DD
  0
DICTIONARY
  5
DF
330
E1
100
AcDbDictionary
280
     1
281
     1
  3
TC_OPTIONAL_DATA
360
E0
  0
DICTIONARY
  5
E2
330
E4
100
AcDbDictionary
280
     1
281
     1
  3
TC_OPTIONAL_DATA
360
E3
  0
DICTIONARY
  5
E5
330
E7
100
AcDbDictionary
280
     1
281
     1
  3
TC_OPTIONAL_DATA
360
E6
  0
DICTIONARY
  5
E8
330
EA
100
AcDbDictionary
280
     1
281
     1
  3
TC_OPTIONAL_DATA
360
E9
  0
DICTIONARY
  5
EB
330
ED
100
AcDbDictionary
280
     1
281
     1
  3
TC_OPTIONAL_DATA
360
EC
  0
DICTIONARY
  5
EE
330
F0
100
AcDbDictionary
280
     1
281
     1
  3
TC_OPTIONAL_DATA
360
EF
  0
DICTIONARY
  5
F1
330
F3
100
AcDbDictionary
280
     1
281
     1
  3
TC_OPTIONAL_DATA
360
F2
  0
DICTIONARY
  5
F4
330
F6
100
AcDbDictionary
280
     1
281
     1
  3
TC_OPTIONAL_DATA
360
F5
  0
DICTIONARY
  5
F7
330
F9
100
AcDbDictionary
280
     1
281
     1
  3
TC_OPTIONAL_DATA
360
F8
  0
DICTIONARY
  5
FA
330
FC
100
AcDbDictionary
280
     1
281
     1
  3
TC_OPTIONAL_DATA
360
FB
  0
DICTIONARY
  5
FD
330
FF
100
AcDbDictionary
280
     1
281
     1
  3
TC_OPTIONAL_DATA
360
FE
  0
DICTIONARY
  5
100
330
102
100
AcDbDictionary
280
     1
281
     1
  3
TC_OPTIONAL_DATA
360
101
  0
DICTIONARY
  5
103
330
105
100
AcDbDictionary
280
     1
281
     1
  3
TC_OPTIONAL_DATA
360
104
  0
DICTIONARY
  5
106
330
108
100
AcDbDictionary
280
     1
281
     1
  3
TC_OPTIONAL_DATA
360
107
  0
DICTIONARY
  5
109
330
10B
100
AcDbDictionary
280
     1
281
     1
  3
TC_OPTIONAL_DATA
360
10A
  0
DICTIONARY
  5
10C
330
10E
100
AcDbDictionary
280
     1
281
     1
  3
TC_OPTIONAL_DATA
360
10D
  0
DICTIONARY
  5
10F
330
111
100
AcDbDictionary
280
     1
281
     1
  3
TC_OPTIONAL_DATA
360
110
  0
DICTIONARY
  5
112
330
114
100
AcDbDictionary
280
     1
281
     1
  3
TC_OPTIONAL_DATA
360
113
  0
DICTIONARY
  5
115
330
117
100
AcDbDictionary
280
     1
281
     1
  3
TC_OPTIONAL_DATA
360
116
  0
DICTIONARY
  5
118
330
11A
100
AcDbDictionary
280
     1
281
     1
  3
TC_OPTIONAL_DATA
360
119
  0
DICTIONARY
  5
11B
330
11D
100
AcDbDictionary
280
     1
281
     1
  3
TC_OPTIONAL_DATA
360
11C
  0
DICTIONARY
  5
11E
330
120
100
AcDbDictionary
280
     1
281
     1
  3
TC_OPTIONAL_DATA
360
11F
  0
DICTIONARY
  5
121
330
123
100
AcDbDictionary
280
     1
281
     1
  3
TC_OPTIONAL_DATA
360
122
  0
DICTIONARY
  5
124
330
126
100
AcDbDictionary
280
     1
281
     1
  3
TC_OPTIONAL_DATA
360
125
  0
DICTIONARY
  5
127
330
129
100
AcDbDictionary
280
     1
281
     1
  3
TC_OPTIONAL_DATA
360
128
  0
DICTIONARY
  5
12A
330
12C
100
AcDbDictionary
280
     1
281
     1
  3
TC_OPTIONAL_DATA
360
12B
  0
DICTIONARY
  5
12D
330
12F
100
AcDbDictionary
280
     1
281
     1
  3
TC_OPTIONAL_DATA
360
12E
  0
DICTIONARY
  5
130
330
132
100
AcDbDictionary
280
     1
281
     1
  3
TC_OPTIONAL_DATA
360
131
  0
DICTIONARY
  5
133
330
135
100
AcDbDictionary
280
     1
281
     1
  3
TC_OPTIONAL_DATA
360
134
  0
DICTIONARY
  5
136
330
138
100
AcDbDictionary
280
     1
281
     1
  3
TC_OPTIONAL_DATA
360
137
  0
DICTIONARY
  5
139
330
13B
100
AcDbDictionary
280
     1
281
     1
  3
TC_OPTIONAL_DATA
360
13A
  0
DICTIONARY
  5
13C
330
13E
100
AcDbDictionary
280
     1
281
     1
  3
TC_OPTIONAL_DATA
360
13D
  0
DICTIONARY
  5
13F
330
141
100
AcDbDictionary
280
     1
281
     1
  3
TC_OPTIONAL_DATA
360
140
  0
DICTIONARY
  5
142
330
144
100
AcDbDictionary
280
     1
281
     1
  3
TC_OPTIONAL_DATA
360
143
  0
DICTIONARY
  5
145
330
147
100
AcDbDictionary
280
     1
281
     1
  3
TC_OPTIONAL_DATA
360
146
  0
DICTIONARY
  5
148
330
14A
100
AcDbDictionary
280
     1
281
     1
  3
TC_OPTIONAL_DATA
360
149
  0
DICTIONARY
  5
14B
330
14D
100
AcDbDictionary
280
     1
281
     1
  3
TC_OPTIONAL_DATA
360
14C
  0
DICTIONARY
  5
14E
330
150
100
AcDbDictionary
280
     1
281
     1
  3
TC_OPTIONAL_DATA
360
14F
  0
DICTIONARY
  5
151
330
153
100
AcDbDictionary
280
     1
281
     1
  3
TC_OPTIONAL_DATA
360
152
  0
DICTIONARY
  5
154
330
156
100
AcDbDictionary
280
     1
281
     1
  3
TC_OPTIONAL_DATA
360
155
  0
DICTIONARY
  5
157
330
159
100
AcDbDictionary
280
     1
281
     1
  3
TC_OPTIONAL_DATA
360
158
  0
DICTIONARY
  5
15A
330
15C
100
AcDbDictionary
280
     1
281
     1
  3
TC_OPTIONAL_DATA
360
15B
  0
DICTIONARY
  5
15D
330
15F
100
AcDbDictionary
280
     1
281
     1
  3
TC_OPTIONAL_DATA
360
15E
  0
DICTIONARY
  5
160
330
162
100
AcDbDictionary
280
     1
281
     1
  3
TC_OPTIONAL_DATA
360
161
  0
DICTIONARY
  5
163
330
165
100
AcDbDictionary
280
     1
281
     1
  3
TC_OPTIONAL_DATA
360
164
  0
DICTIONARY
  5
166
330
168
100
AcDbDictionary
280
     1
281
     1
  3
TC_OPTIONAL_DATA
360
167
  0
DICTIONARY
  5
169
330
16B
100
AcDbDictionary
280
     1
281
     1
  3
TC_OPTIONAL_DATA
360
16A
  0
DICTIONARY
  5
16C
330
16E
100
AcDbDictionary
280
     1
281
     1
  3
TC_OPTIONAL_DATA
360
16D
  0
DICTIONARY
  5
16F
330
171
100
AcDbDictionary
280
     1
281
     1
  3
TC_OPTIONAL_DATA
360
170
  0
DICTIONARY
  5
172
330
174
100
AcDbDictionary
280
     1
281
     1
  3
TC_OPTIONAL_DATA
360
173
  0
DICTIONARY
  5
175
330
177
100
AcDbDictionary
280
     1
281
     1
  3
TC_OPTIONAL_DATA
360
176
  0
DICTIONARY
  5
178
330
17A
100
AcDbDictionary
280
     1
281
     1
  3
TC_OPTIONAL_DATA
360
179
  0
DICTIONARY
  5
17B
330
17D
100
AcDbDictionary
280
     1
281
     1
  3
TC_OPTIONAL_DATA
360
17C
  0
DICTIONARY
  5
17E
330
180
100
AcDbDictionary
280
     1
281
     1
  3
TC_OPTIONAL_DATA
360
17F
  0
DICTIONARY
  5
181
330
183
100
AcDbDictionary
280
     1
281
     1
  3
TC_OPTIONAL_DATA
360
182
  0
DICTIONARY
  5
184
330
186
100
AcDbDictionary
280
     1
281
     1
  3
TC_OPTIONAL_DATA
360
185
  0
DICTIONARY
  5
187
330
189
100
AcDbDictionary
280
     1
281
     1
  3
TC_OPTIONAL_DATA
360
188
  0
DICTIONARY
  5
18A
330
18C
100
AcDbDictionary
280
     1
281
     1
  3
TC_OPTIONAL_DATA
360
18B
  0
DICTIONARY
  5
18D
330
18F
100
AcDbDictionary
280
     1
281
     1
  3
TC_OPTIONAL_DATA
360
18E
  0
DICTIONARY
  5
190
330
192
100
AcDbDictionary
280
     1
281
     1
  3
TC_OPTIONAL_DATA
360
191
  0
DICTIONARY
  5
193
330
195
100
AcDbDictionary
280
     1
281
     1
  3
TC_OPTIONAL_DATA
360
194
  0
DICTIONARY
  5
196
330
198
100
AcDbDictionary
280
     1
281
     1
  3
TC_OPTIONAL_DATA
360
197
  0
DICTIONARY
  5
199
330
19B
100
AcDbDictionary
280
     1
281
     1
  3
TC_OPTIONAL_DATA
360
19A
  0
DICTIONARY
  5
19C
330
19E
100
AcDbDictionary
280
     1
281
     1
  3
TC_OPTIONAL_DATA
360
19D
  0
DICTIONARY
  5
19F
330
1A1
100
AcDbDictionary
280
     1
281
     1
  3
TC_OPTIONAL_DATA
360
1A0
  0
DICTIONARY
  5
1A2
330
1A4
100
AcDbDictionary
280
     1
281
     1
  3
TC_OPTIONAL_DATA
360
1A3
  0
DICTIONARY
  5
1A5
330
1A7
100
AcDbDictionary
280
     1
281
     1
  3
TC_OPTIONAL_DATA
360
1A6
  0
DICTIONARY
  5
1A8
330
1AA
100
AcDbDictionary
280
     1
281
     1
  3
TC_OPTIONAL_DATA
360
1A9
  0
DICTIONARY
  5
1AB
330
1AD
100
AcDbDictionary
280
     1
281
     1
  3
TC_OPTIONAL_DATA
360
1AC
  0
DICTIONARY
  5
1AE
330
1B0
100
AcDbDictionary
280
     1
281
     1
  3
TC_OPTIONAL_DATA
360
1AF
  0
DICTIONARY
  5
1B1
330
1B3
100
AcDbDictionary
280
     1
281
     1
  3
TC_OPTIONAL_DATA
360
1B2
  0
DICTIONARY
  5
1B4
330
1B6
100
AcDbDictionary
280
     1
281
     1
  3
TC_OPTIONAL_DATA
360
1B5
  0
DICTIONARY
  5
1B7
330
1B9
100
AcDbDictionary
280
     1
281
     1
  3
TC_OPTIONAL_DATA
360
1B8
  0
DICTIONARY
  5
1BA
330
1BC
100
AcDbDictionary
280
     1
281
     1
  3
TC_OPTIONAL_DATA
360
1BB
  0
DICTIONARY
  5
1BD
330
1BF
100
AcDbDictionary
280
     1
281
     1
  3
TC_OPTIONAL_DATA
360
1BE
  0
DICTIONARY
  5
1C0
330
1C2
100
AcDbDictionary
280
     1
281
     1
  3
TC_OPTIONAL_DATA
360
1C1
  0
DICTIONARY
  5
1C3
330
1C5
100
AcDbDictionary
280
     1
281
     1
  3
TC_OPTIONAL_DATA
360
1C4
  0
DICTIONARY
  5
1C6
330
1C8
100
AcDbDictionary
280
     1
281
     1
  3
TC_OPTIONAL_DATA
360
1C7
  0
DICTIONARY
  5
1C9
330
1CB
100
AcDbDictionary
280
     1
281
     1
  3
TC_OPTIONAL_DATA
360
1CA
  0
DICTIONARY
  5
1CC
330
1CE
100
AcDbDictionary
280
     1
281
     1
  3
TC_OPTIONAL_DATA
360
1CD
  0
DICTIONARY
  5
1CF
330
1D1
100
AcDbDictionary
280
     1
281
     1
  3
TC_OPTIONAL_DATA
360
1D0
  0
DICTIONARY
  5
1D2
330
1D4
100
AcDbDictionary
280
     1
281
     1
  3
TC_OPTIONAL_DATA
360
1D3
  0
DICTIONARY
  5
1D5
330
1D7
100
AcDbDictionary
280
     1
281
     1
  3
TC_OPTIONAL_DATA
360
1D6
  0
DICTIONARY
  5
1D8
330
1DA
100
AcDbDictionary
280
     1
281
     1
  3
TC_OPTIONAL_DATA
360
1D9
  0
DICTIONARY
  5
1DB
330
1DD
100
AcDbDictionary
280
     1
281
     1
  3
TC_OPTIONAL_DATA
360
1DC
  0
DICTIONARY
  5
1DE
330
1E0
100
AcDbDictionary
280
     1
281
     1
  3
TC_OPTIONAL_DATA
360
1DF
  0
DICTIONARY
  5
1E1
330
1E3
100
AcDbDictionary
280
     1
281
     1
  3
TC_OPTIONAL_DATA
360
1E2
  0
DICTIONARY
  5
1E4
330
1E6
100
AcDbDictionary
280
     1
281
     1
  3
TC_OPTIONAL_DATA
360
1E5
  0
DICTIONARY
  5
1E7
330
1E9
100
AcDbDictionary
280
     1
281
     1
  3
TC_OPTIONAL_DATA
360
1E8
  0
DICTIONARY
  5
1EA
330
1EC
100
AcDbDictionary
280
     1
281
     1
  3
TC_OPTIONAL_DATA
360
1EB
  0
DICTIONARY
  5
1ED
330
1EF
100
AcDbDictionary
280
     1
281
     1
  3
TC_OPTIONAL_DATA
360
1EE
  0
DICTIONARY
  5
1F0
330
1F2
100
AcDbDictionary
280
     1
281
     1
  3
TC_OPTIONAL_DATA
360
1F1
  0
DICTIONARY
  5
1F3
330
1F5
100
AcDbDictionary
280
     1
281
     1
  3
TC_OPTIONAL_DATA
360
1F4
  0
DICTIONARY
  5
1F6
330
1F8
100
AcDbDictionary
280
     1
281
     1
  3
TC_OPTIONAL_DATA
360
1F7
  0
DICTIONARY
  5
1F9
330
1FB
100
AcDbDictionary
280
     1
281
     1
  3
TC_OPTIONAL_DATA
360
1FA
  0
DICTIONARY
  5
1FC
330
1FE
100
AcDbDictionary
280
     1
281
     1
  3
TC_OPTIONAL_DATA
360
1FD
  0
DICTIONARY
  5
1FF
330
201
100
AcDbDictionary
280
     1
281
     1
  3
TC_OPTIONAL_DATA
360
200
  0
DICTIONARY
  5
202
330
204
100
AcDbDictionary
280
     1
281
     1
  3
TC_OPTIONAL_DATA
360
203
  0
DICTIONARY
  5
205
330
207
100
AcDbDictionary
280
     1
281
     1
  3
TC_OPTIONAL_DATA
360
206
  0
DICTIONARY
  5
208
330
20A
100
AcDbDictionary
280
     1
281
     1
  3
TC_OPTIONAL_DATA
360
209
  0
DICTIONARY
  5
20B
330
20D
100
AcDbDictionary
280
     1
281
     1
  3
TC_OPTIONAL_DATA
360
20C
  0
DICTIONARY
  5
20E
330
210
100
AcDbDictionary
280
     1
281
     1
  3
TC_OPTIONAL_DATA
360
20F
  0
DICTIONARY
  5
211
330
213
100
AcDbDictionary
280
     1
281
     1
  3
TC_OPTIONAL_DATA
360
212
  0
DICTIONARY
  5
214
330
216
100
AcDbDictionary
280
     1
281
     1
  3
TC_OPTIONAL_DATA
360
215
  0
DICTIONARY
  5
217
330
219
100
AcDbDictionary
280
     1
281
     1
  3
TC_OPTIONAL_DATA
360
218
  0
DICTIONARY
  5
21A
330
21C
100
AcDbDictionary
280
     1
281
     1
  3
TC_OPTIONAL_DATA
360
21B
  0
DICTIONARY
  5
21D
330
21F
100
AcDbDictionary
280
     1
281
     1
  3
TC_OPTIONAL_DATA
360
21E
  0
DICTIONARY
  5
220
330
222
100
AcDbDictionary
280
     1
281
     1
  3
TC_OPTIONAL_DATA
360
221
  0
DICTIONARY
  5
223
330
225
100
AcDbDictionary
280
     1
281
     1
  3
TC_OPTIONAL_DATA
360
224
  0
DICTIONARY
  5
226
330
228
100
AcDbDictionary
280
     1
281
     1
  3
TC_OPTIONAL_DATA
360
227
  0
DICTIONARY
  5
229
330
22B
100
AcDbDictionary
280
     1
281
     1
  3
TC_OPTIONAL_DATA
360
22A
  0
DICTIONARY
  5
22C
330
22E
100
AcDbDictionary
280
     1
281
     1
  3
TC_OPTIONAL_DATA
360
22D
  0
DICTIONARY
  5
22F
330
231
100
AcDbDictionary
280
     1
281
     1
  3
TC_OPTIONAL_DATA
360
230
  0
DICTIONARY
  5
232
330
234
100
AcDbDictionary
280
     1
281
     1
  3
TC_OPTIONAL_DATA
360
233
  0
DICTIONARY
  5
235
330
237
100
AcDbDictionary
280
     1
281
     1
  3
TC_OPTIONAL_DATA
360
236
  0
DICTIONARY
  5
238
330
23A
100
AcDbDictionary
280
     1
281
     1
  3
TC_OPTIONAL_DATA
360
239
  0
DICTIONARY
  5
23B
330
23D
100
AcDbDictionary
280
     1
281
     1
  3
TC_OPTIONAL_DATA
360
23C
  0
DICTIONARY
  5
23E
330
240
100
AcDbDictionary
280
     1
281
     1
  3
TC_OPTIONAL_DATA
360
23F
  0
DICTIONARY
  5
241
330
243
100
AcDbDictionary
280
     1
281
     1
  3
TC_OPTIONAL_DATA
360
242
  0
DICTIONARY
  5
244
330
246
100
AcDbDictionary
280
     1
281
     1
  3
TC_OPTIONAL_DATA
360
245
  0
DICTIONARY
  5
247
330
249
100
AcDbDictionary
280
     1
281
     1
  3
TC_OPTIONAL_DATA
360
248
  0
DICTIONARY
  5
24A
330
24C
100
AcDbDictionary
280
     1
281
     1
  3
TC_OPTIONAL_DATA
360
24B
  0
DICTIONARY
  5
24D
330
24F
100
AcDbDictionary
280
     1
281
     1
  3
TC_OPTIONAL_DATA
360
24E
  0
DICTIONARY
  5
250
330
252
100
AcDbDictionary
280
     1
281
     1
  3
TC_OPTIONAL_DATA
360
251
  0
DICTIONARY
  5
253
330
255
100
AcDbDictionary
280
     1
281
     1
  3
TC_OPTIONAL_DATA
360
254
  0
DICTIONARY
  5
256
330
258
100
AcDbDictionary
280
     1
281
     1
  3
TC_OPTIONAL_DATA
360
257
  0
DICTIONARY
  5
259
330
25B
100
AcDbDictionary
280
     1
281
     1
  3
TC_OPTIONAL_DATA
360
25A
  0
DICTIONARY
  5
25C
330
25E
100
AcDbDictionary
280
     1
281
     1
  3
TC_OPTIONAL_DATA
360
25D
  0
DICTIONARY
  5
25F
330
261
100
AcDbDictionary
280
     1
281
     1
  3
TC_OPTIONAL_DATA
360
260
  0
DICTIONARY
  5
262
330
264
100
AcDbDictionary
280
     1
281
     1
  3
TC_OPTIONAL_DATA
360
263
  0
DICTIONARY
  5
265
330
267
100
AcDbDictionary
280
     1
281
     1
  3
TC_OPTIONAL_DATA
360
266
  0
DICTIONARY
  5
268
330
26A
100
AcDbDictionary
280
     1
281
     1
  3
TC_OPTIONAL_DATA
360
269
  0
DICTIONARY
  5
26B
330
26D
100
AcDbDictionary
280
     1
281
     1
  3
TC_OPTIONAL_DATA
360
26C
  0
DICTIONARY
  5
26E
330
270
100
AcDbDictionary
280
     1
281
     1
  3
TC_OPTIONAL_DATA
360
26F
  0
DICTIONARY
  5
271
330
273
100
AcDbDictionary
280
     1
281
     1
  3
TC_OPTIONAL_DATA
360
272
  0
DICTIONARY
  5
274
330
276
100
AcDbDictionary
280
     1
281
     1
  3
TC_OPTIONAL_DATA
360
275
  0
DICTIONARY
  5
277
330
279
100
AcDbDictionary
280
     1
281
     1
  3
TC_OPTIONAL_DATA
360
278
  0
DICTIONARY
  5
27A
330
27C
100
AcDbDictionary
280
     1
281
     1
  3
TC_OPTIONAL_DATA
360
27B
  0
DICTIONARY
  5
27D
330
27F
100
AcDbDictionary
280
     1
281
     1
  3
TC_OPTIONAL_DATA
360
27E
  0
DICTIONARY
  5
280
330
282
100
AcDbDictionary
280
     1
281
     1
  3
TC_OPTIONAL_DATA
360
281
  0
DICTIONARY
  5
283
330
285
100
AcDbDictionary
280
     1
281
     1
  3
TC_OPTIONAL_DATA
360
284
  0
DICTIONARY
  5
286
330
288
100
AcDbDictionary
280
     1
281
     1
  3
TC_OPTIONAL_DATA
360
287
  0
DICTIONARY
  5
289
330
28B
100
AcDbDictionary
280
     1
281
     1
  3
TC_OPTIONAL_DATA
360
28A
  0
DICTIONARY
  5
28C
330
28E
100
AcDbDictionary
280
     1
281
     1
  3
TC_OPTIONAL_DATA
360
28D
  0
DICTIONARY
  5
28F
330
291
100
AcDbDictionary
280
     1
281
     1
  3
TC_OPTIONAL_DATA
360
290
  0
DICTIONARY
  5
292
330
294
100
AcDbDictionary
280
     1
281
     1
  3
TC_OPTIONAL_DATA
360
293
  0
DICTIONARY
  5
295
330
297
100
AcDbDictionary
280
     1
281
     1
  3
TC_OPTIONAL_DATA
360
296
  0
DICTIONARY
  5
298
330
29A
100
AcDbDictionary
280
     1
281
     1
  3
TC_OPTIONAL_DATA
360
299
  0
DICTIONARY
  5
29B
330
29D
100
AcDbDictionary
280
     1
281
     1
  3
TC_OPTIONAL_DATA
360
29C
  0
DICTIONARY
  5
29E
330
2A0
100
AcDbDictionary
280
     1
281
     1
  3
TC_OPTIONAL_DATA
360
29F
  0
DICTIONARY
  5
2A1
330
2A3
100
AcDbDictionary
280
     1
281
     1
  3
TC_OPTIONAL_DATA
360
2A2
  0
DICTIONARY
  5
2A4
330
2A6
100
AcDbDictionary
280
     1
281
     1
  3
TC_OPTIONAL_DATA
360
2A5
  0
DICTIONARY
  5
2A7
330
2A9
100
AcDbDictionary
280
     1
281
     1
  3
TC_OPTIONAL_DATA
360
2A8
  0
DICTIONARY
  5
2AA
330
2AC
100
AcDbDictionary
280
     1
281
     1
  3
TC_OPTIONAL_DATA
360
2AB
  0
DICTIONARY
  5
2AD
330
2AF
100
AcDbDictionary
280
     1
281
     1
  3
TC_OPTIONAL_DATA
360
2AE
  0
DICTIONARY
  5
2B0
330
2B2
100
AcDbDictionary
280
     1
281
     1
  3
TC_OPTIONAL_DATA
360
2B1
  0
DICTIONARY
  5
2B3
330
2B5
100
AcDbDictionary
280
     1
281
     1
  3
TC_OPTIONAL_DATA
360
2B4
  0
DICTIONARY
  5
2B6
330
2B8
100
AcDbDictionary
280
     1
281
     1
  3
TC_OPTIONAL_DATA
360
2B7
  0
DICTIONARY
  5
2B9
330
2BB
100
AcDbDictionary
280
     1
281
     1
  3
TC_OPTIONAL_DATA
360
2BA
  0
DICTIONARY
  5
2BC
330
2BE
100
AcDbDictionary
280
     1
281
     1
  3
TC_OPTIONAL_DATA
360
2BD
  0
DICTIONARY
  5
2BF
330
2C1
100
AcDbDictionary
280
     1
281
     1
  3
TC_OPTIONAL_DATA
360
2C0
  0
DICTIONARY
  5
2C2
330
2C4
100
AcDbDictionary
280
     1
281
     1
  3
TC_OPTIONAL_DATA
360
2C3
  0
DICTIONARY
  5
2C5
330
2C7
100
AcDbDictionary
280
     1
281
     1
  3
TC_OPTIONAL_DATA
360
2C6
  0
DICTIONARY
  5
2C8
330
2CA
100
AcDbDictionary
280
     1
281
     1
  3
TC_OPTIONAL_DATA
360
2C9
  0
DICTIONARY
  5
2CB
330
2CD
100
AcDbDictionary
280
     1
281
     1
  3
TC_OPTIONAL_DATA
360
2CC
  0
DICTIONARY
  5
2CE
330
2D0
100
AcDbDictionary
280
     1
281
     1
  3
TC_OPTIONAL_DATA
360
2CF
  0
DICTIONARY
  5
2D1
330
2D3
100
AcDbDictionary
280
     1
281
     1
  3
TC_OPTIONAL_DATA
360
2D2
  0
DICTIONARY
  5
2D4
330
2D6
100
AcDbDictionary
280
     1
281
     1
  3
TC_OPTIONAL_DATA
360
2D5
  0
DICTIONARY
  5
2D7
330
2D9
100
AcDbDictionary
280
     1
281
     1
  3
TC_OPTIONAL_DATA
360
2D8
  0
DICTIONARY
  5
2DA
330
2DC
100
AcDbDictionary
280
     1
281
     1
  3
TC_OPTIONAL_DATA
360
2DB
  0
DICTIONARY
  5
2DD
330
2DF
100
AcDbDictionary
280
     1
281
     1
  3
TC_OPTIONAL_DATA
360
2DE
  0
DICTIONARY
  5
2E0
330
2E2
100
AcDbDictionary
280
     1
281
     1
  3
TC_OPTIONAL_DATA
360
2E1
  0
DICTIONARY
  5
2E3
330
2E5
100
AcDbDictionary
280
     1
281
     1
  3
TC_OPTIONAL_DATA
360
2E4
  0
DICTIONARY
  5
2E6
330
2E8
100
AcDbDictionary
280
     1
281
     1
  3
TC_OPTIONAL_DATA
360
2E7
  0
DICTIONARY
  5
2E9
330
2EB
100
AcDbDictionary
280
     1
281
     1
  3
TC_OPTIONAL_DATA
360
2EA
  0
DICTIONARY
  5
2EC
330
2EE
100
AcDbDictionary
280
     1
281
     1
  3
TC_OPTIONAL_DATA
360
2ED
  0
DICTIONARY
  5
2EF
330
2F1
100
AcDbDictionary
280
     1
281
     1
  3
TC_OPTIONAL_DATA
360
2F0
  0
DICTIONARY
  5
2F2
330
2F4
100
AcDbDictionary
280
     1
281
     1
  3
TC_OPTIONAL_DATA
360
2F3
  0
DICTIONARY
  5
2F5
330
2F7
100
AcDbDictionary
280
     1
281
     1
  3
TC_OPTIONAL_DATA
360
2F6
  0
DICTIONARY
  5
2F8
330
2FA
100
AcDbDictionary
280
     1
281
     1
  3
TC_OPTIONAL_DATA
360
2F9
  0
DICTIONARY
  5
2FB
330
2FD
100
AcDbDictionary
280
     1
281
     1
  3
TC_OPTIONAL_DATA
360
2FC
  0
DICTIONARY
  5
2FE
330
300
100
AcDbDictionary
280
     1
281
     1
  3
TC_OPTIONAL_DATA
360
2FF
  0
DICTIONARY
  5
301
330
303
100
AcDbDictionary
280
     1
281
     1
  3
TC_OPTIONAL_DATA
360
302
  0
DICTIONARY
  5
304
330
306
100
AcDbDictionary
280
     1
281
     1
  3
TC_OPTIONAL_DATA
360
305
  0
DICTIONARY
  5
307
330
309
100
AcDbDictionary
280
     1
281
     1
  3
TC_OPTIONAL_DATA
360
308
  0
DICTIONARY
  5
30A
330
30C
100
AcDbDictionary
280
     1
281
     1
  3
TC_OPTIONAL_DATA
360
30B
  0
DICTIONARY
  5
30D
330
30F
100
AcDbDictionary
280
     1
281
     1
  3
TC_OPTIONAL_DATA
360
30E
  0
DICTIONARY
  5
310
330
312
100
AcDbDictionary
280
     1
281
     1
  3
TC_OPTIONAL_DATA
360
311
  0
DICTIONARY
  5
313
330
315
100
AcDbDictionary
280
     1
281
     1
  3
TC_OPTIONAL_DATA
360
314
  0
DICTIONARY
  5
316
330
318
100
AcDbDictionary
280
     1
281
     1
  3
TC_OPTIONAL_DATA
360
317
  0
DICTIONARY
  5
319
330
31B
100
AcDbDictionary
280
     1
281
     1
  3
TC_OPTIONAL_DATA
360
31A
  0
DICTIONARY
  5
31C
330
31E
100
AcDbDictionary
280
     1
281
     1
  3
TC_OPTIONAL_DATA
360
31D
  0
DICTIONARY
  5
31F
330
321
100
AcDbDictionary
280
     1
281
     1
  3
TC_OPTIONAL_DATA
360
320
  0
DICTIONARY
  5
322
330
324
100
AcDbDictionary
280
     1
281
     1
  3
TC_OPTIONAL_DATA
360
323
  0
DICTIONARY
  5
325
330
327
100
AcDbDictionary
280
     1
281
     1
  3
TC_OPTIONAL_DATA
360
326
  0
DICTIONARY
  5
328
330
32A
100
AcDbDictionary
280
     1
281
     1
  3
TC_OPTIONAL_DATA
360
329
  0
DICTIONARY
  5
32B
330
32D
100
AcDbDictionary
280
     1
281
     1
  3
TC_OPTIONAL_DATA
360
32C
  0
DICTIONARY
  5
32E
330
330
100
AcDbDictionary
280
     1
281
     1
  3
TC_OPTIONAL_DATA
360
32F
  0
DICTIONARY
  5
331
330
333
100
AcDbDictionary
280
     1
281
     1
  3
TC_OPTIONAL_DATA
360
332
  0
DICTIONARY
  5
334
330
336
100
AcDbDictionary
280
     1
281
     1
  3
TC_OPTIONAL_DATA
360
335
  0
DICTIONARY
  5
337
330
339
100
AcDbDictionary
280
     1
281
     1
  3
TC_OPTIONAL_DATA
360
338
  0
DICTIONARY
  5
33A
330
33C
100
AcDbDictionary
280
     1
281
     1
  3
TC_OPTIONAL_DATA
360
33B
  0
DICTIONARY
  5
33D
330
33F
100
AcDbDictionary
280
     1
281
     1
  3
TC_OPTIONAL_DATA
360
33E
  0
DICTIONARY
  5
340
330
342
100
AcDbDictionary
280
     1
281
     1
  3
TC_OPTIONAL_DATA
360
341
  0
DICTIONARY
  5
343
330
345
100
AcDbDictionary
280
     1
281
     1
  3
TC_OPTIONAL_DATA
360
344
  0
DICTIONARY
  5
346
330
348
100
AcDbDictionary
280
     1
281
     1
  3
TC_OPTIONAL_DATA
360
347
  0
DICTIONARY
  5
349
330
34B
100
AcDbDictionary
280
     1
281
     1
  3
TC_OPTIONAL_DATA
360
34A
  0
DICTIONARY
  5
34C
330
34E
100
AcDbDictionary
280
     1
281
     1
  3
TC_OPTIONAL_DATA
360
34D
  0
DICTIONARY
  5
34F
330
351
100
AcDbDictionary
280
     1
281
     1
  3
TC_OPTIONAL_DATA
360
350
  0
DICTIONARY
  5
352
330
354
100
AcDbDictionary
280
     1
281
     1
  3
TC_OPTIONAL_DATA
360
353
  0
DICTIONARY
  5
355
330
357
100
AcDbDictionary
280
     1
281
     1
  3
TC_OPTIONAL_DATA
360
356
  0
DICTIONARY
  5
358
330
35A
100
AcDbDictionary
280
     1
281
     1
  3
TC_OPTIONAL_DATA
360
359
  0
DICTIONARY
  5
35B
330
35D
100
AcDbDictionary
280
     1
281
     1
  3
TC_OPTIONAL_DATA
360
35C
  0
DICTIONARY
  5
35E
330
360
100
AcDbDictionary
280
     1
281
     1
  3
TC_OPTIONAL_DATA
360
35F
  0
DICTIONARY
  5
361
330
363
100
AcDbDictionary
280
     1
281
     1
  3
TC_OPTIONAL_DATA
360
362
  0
DICTIONARY
  5
364
330
366
100
AcDbDictionary
280
     1
281
     1
  3
TC_OPTIONAL_DATA
360
365
  0
DICTIONARY
  5
367
330
369
100
AcDbDictionary
280
     1
281
     1
  3
TC_OPTIONAL_DATA
360
368
  0
DICTIONARY
  5
36A
330
36C
100
AcDbDictionary
280
     1
281
     1
  3
TC_OPTIONAL_DATA
360
36B
  0
DICTIONARY
  5
36D
330
36F
100
AcDbDictionary
280
     1
281
     1
  3
TC_OPTIONAL_DATA
360
36E
  0
DICTIONARY
  5
370
330
372
100
AcDbDictionary
280
     1
281
     1
  3
TC_OPTIONAL_DATA
360
371
  0
DICTIONARY
  5
373
330
375
100
AcDbDictionary
280
     1
281
     1
  3
TC_OPTIONAL_DATA
360
374
  0
DICTIONARY
  5
376
330
378
100
AcDbDictionary
280
     1
281
     1
  3
TC_OPTIONAL_DATA
360
377
  0
DICTIONARY
  5
379
330
37B
100
AcDbDictionary
280
     1
281
     1
  3
TC_OPTIONAL_DATA
360
37A
  0
DICTIONARY
  5
37C
330
37E
100
AcDbDictionary
280
     1
281
     1
  3
TC_OPTIONAL_DATA
360
37D
  0
DICTIONARY
  5
37F
330
381
100
AcDbDictionary
280
     1
281
     1
  3
TC_OPTIONAL_DATA
360
380
  0
DICTIONARY
  5
382
330
384
100
AcDbDictionary
280
     1
281
     1
  3
TC_OPTIONAL_DATA
360
383
  0
DICTIONARY
  5
385
330
387
100
AcDbDictionary
280
     1
281
     1
  3
TC_OPTIONAL_DATA
360
386
  0
DICTIONARY
  5
388
330
38A
100
AcDbDictionary
280
     1
281
     1
  3
TC_OPTIONAL_DATA
360
389
  0
DICTIONARY
  5
38B
330
38D
100
AcDbDictionary
280
     1
281
     1
  3
TC_OPTIONAL_DATA
360
38C
  0
DICTIONARY
  5
38E
330
390
100
AcDbDictionary
280
     1
281
     1
  3
TC_OPTIONAL_DATA
360
38F
  0
DICTIONARY
  5
391
330
393
100
AcDbDictionary
280
     1
281
     1
  3
TC_OPTIONAL_DATA
360
392
  0
DICTIONARY
  5
394
330
396
100
AcDbDictionary
280
     1
281
     1
  3
TC_OPTIONAL_DATA
360
395
  0
DICTIONARY
  5
397
330
399
100
AcDbDictionary
280
     1
281
     1
  3
TC_OPTIONAL_DATA
360
398
  0
DICTIONARY
  5
39A
330
39C
100
AcDbDictionary
280
     1
281
     1
  3
TC_OPTIONAL_DATA
360
39B
  0
DICTIONARY
  5
39D
330
39F
100
AcDbDictionary
280
     1
281
     1
  3
TC_OPTIONAL_DATA
360
39E
  0
DICTIONARY
  5
3A0
330
3A2
100
AcDbDictionary
280
     1
281
     1
  3
TC_OPTIONAL_DATA
360
3A1
  0
DICTIONARY
  5
3A3
330
3A5
100
AcDbDictionary
280
     1
281
     1
  3
TC_OPTIONAL_DATA
360
3A4
  0
DICTIONARY
  5
3A6
330
3A8
100
AcDbDictionary
280
     1
281
     1
  3
TC_OPTIONAL_DATA
360
3A7
  0
DICTIONARY
  5
3A9
330
3AB
100
AcDbDictionary
280
     1
281
     1
  3
TC_OPTIONAL_DATA
360
3AA
  0
DICTIONARY
  5
3AC
330
3AE
100
AcDbDictionary
280
     1
281
     1
  3
TC_OPTIONAL_DATA
360
3AD
  0
DICTIONARY
  5
3AF
330
3B1
100
AcDbDictionary
280
     1
281
     1
  3
TC_OPTIONAL_DATA
360
3B0
  0
DICTIONARY
  5
3B2
330
3B4
100
AcDbDictionary
280
     1
281
     1
  3
TC_OPTIONAL_DATA
360
3B3
  0
DICTIONARY
  5
3B5
330
3B7
100
AcDbDictionary
280
     1
281
     1
  3
TC_OPTIONAL_DATA
360
3B6
  0
DICTIONARY
  5
3B8
330
3BA
100
AcDbDictionary
280
     1
281
     1
  3
TC_OPTIONAL_DATA
360
3B9
  0
DICTIONARY
  5
3BB
330
3BD
100
AcDbDictionary
280
     1
281
     1
  3
TC_OPTIONAL_DATA
360
3BC
  0
DICTIONARY
  5
3BE
330
3C0
100
AcDbDictionary
280
     1
281
     1
  3
TC_OPTIONAL_DATA
360
3BF
  0
DICTIONARY
  5
3C1
330
3C3
100
AcDbDictionary
280
     1
281
     1
  3
TC_OPTIONAL_DATA
360
3C2
  0
DICTIONARY
  5
3C4
330
3C6
100
AcDbDictionary
280
     1
281
     1
  3
TC_OPTIONAL_DATA
360
3C5
  0
DICTIONARY
  5
3C7
330
3C9
100
AcDbDictionary
280
     1
281
     1
  3
TC_OPTIONAL_DATA
360
3C8
  0
DICTIONARY
  5
3CA
330
3CC
100
AcDbDictionary
280
     1
281
     1
  3
TC_OPTIONAL_DATA
360
3CB
  0
DICTIONARY
  5
3CD
330
3CF
100
AcDbDictionary
280
     1
281
     1
  3
TC_OPTIONAL_DATA
360
3CE
  0
DICTIONARY
  5
3D0
330
3D2
100
AcDbDictionary
280
     1
281
     1
  3
TC_OPTIONAL_DATA
360
3D1
  0
DICTIONARY
  5
3D3
330
3D5
100
AcDbDictionary
280
     1
281
     1
  3
TC_OPTIONAL_DATA
360
3D4
  0
DICTIONARY
  5
3D6
330
3D8
100
AcDbDictionary
280
     1
281
     1
  3
TC_OPTIONAL_DATA
360
3D7
  0
DICTIONARY
  5
3D9
330
3DB
100
AcDbDictionary
280
     1
281
     1
  3
TC_OPTIONAL_DATA
360
3DA
  0
DICTIONARY
  5
3DC
330
3DE
100
AcDbDictionary
280
     1
281
     1
  3
TC_OPTIONAL_DATA
360
3DD
  0
DICTIONARY
  5
3DF
330
3E1
100
AcDbDictionary
280
     1
281
     1
  3
TC_OPTIONAL_DATA
360
3E0
  0
DICTIONARY
  5
3E2
330
3E4
100
AcDbDictionary
280
     1
281
     1
  3
TC_OPTIONAL_DATA
360
3E3
  0
DICTIONARY
  5
3E5
330
3E7
100
AcDbDictionary
280
     1
281
     1
  3
TC_OPTIONAL_DATA
360
3E6
  0
DICTIONARY
  5
3E8
330
3EA
100
AcDbDictionary
280
     1
281
     1
  3
TC_OPTIONAL_DATA
360
3E9
  0
DICTIONARY
  5
3EB
330
3ED
100
AcDbDictionary
280
     1
281
     1
  3
TC_OPTIONAL_DATA
360
3EC
  0
DICTIONARY
  5
3EE
330
3F0
100
AcDbDictionary
280
     1
281
     1
  3
TC_OPTIONAL_DATA
360
3EF
  0
DICTIONARY
  5
3F1
330
3F3
100
AcDbDictionary
280
     1
281
     1
  3
TC_OPTIONAL_DATA
360
3F2
  0
DICTIONARY
  5
3F4
330
3F6
100
AcDbDictionary
280
     1
281
     1
  3
TC_OPTIONAL_DATA
360
3F5
  0
DICTIONARY
  5
3F7
330
3F9
100
AcDbDictionary
280
     1
281
     1
  3
TC_OPTIONAL_DATA
360
3F8
  0
DICTIONARY
  5
3FA
330
3FC
100
AcDbDictionary
280
     1
281
     1
  3
TC_OPTIONAL_DATA
360
3FB
  0
DICTIONARY
  5
3FD
330
3FF
100
AcDbDictionary
280
     1
281
     1
  3
TC_OPTIONAL_DATA
360
3FE
  0
DICTIONARY
  5
400
330
402
100
AcDbDictionary
280
     1
281
     1
  3
TC_OPTIONAL_DATA
360
401
  0
DICTIONARY
  5
403
330
405
100
AcDbDictionary
280
     1
281
     1
  3
TC_OPTIONAL_DATA
360
404
  0
DICTIONARY
  5
406
330
408
100
AcDbDictionary
280
     1
281
     1
  3
TC_OPTIONAL_DATA
360
407
  0
DICTIONARY
  5
409
330
40B
100
AcDbDictionary
280
     1
281
     1
  3
TC_OPTIONAL_DATA
360
40A
  0
DICTIONARY
  5
40C
330
40E
100
AcDbDictionary
280
     1
281
     1
  3
TC_OPTIONAL_DATA
360
40D
  0
DICTIONARY
  5
40F
330
411
100
AcDbDictionary
280
     1
281
     1
  3
TC_OPTIONAL_DATA
360
410
  0
DICTIONARY
  5
412
330
414
100
AcDbDictionary
280
     1
281
     1
  3
TC_OPTIONAL_DATA
360
413
  0
DICTIONARY
  5
415
330
417
100
AcDbDictionary
280
     1
281
     1
  3
TC_OPTIONAL_DATA
360
416
  0
DICTIONARY
  5
418
330
41A
100
AcDbDictionary
280
     1
281
     1
  3
TC_OPTIONAL_DATA
360
419
  0
DICTIONARY
  5
41B
330
41D
100
AcDbDictionary
280
     1
281
     1
  3
TC_OPTIONAL_DATA
360
41C
  0
DICTIONARY
  5
41E
330
420
100
AcDbDictionary
280
     1
281
     1
  3
TC_OPTIONAL_DATA
360
41F
  0
DICTIONARY
  5
421
330
423
100
AcDbDictionary
280
     1
281
     1
  3
TC_OPTIONAL_DATA
360
422
  0
DICTIONARY
  5
D
102
{ACAD_REACTORS
330
C
102
}
330
C
100
AcDbDictionary
281
     1
  0
DICTIONARY
  5
1A
102
{ACAD_REACTORS
330
C
102
}
330
C
100
AcDbDictionary
281
     1
  3
Layout1
350
1E
  3
Layout2
350
3C
  3
Model
350
22
  0
DICTIONARY
  5
17
102
{ACAD_REACTORS
330
C
102
}
330
C
100
AcDbDictionary
281
     1
  3
Standard
350
18
  0
DICTIONARY
  5
19
102
{ACAD_REACTORS
330
C
102
}
330
C
100
AcDbDictionary
281
     1
  0
ACDBDICTIONARYWDFLT
  5
E
102
{ACAD_REACTORS
330
C
102
}
330
C
100
AcDbDictionary
281
     1
  3
Normal
350
F
100
AcDbDictionaryWithDefault
340
F
  0
DICTIONARY
  5
427
102
{ACAD_REACTORS
330
C
102
}
330
C
100
AcDbDictionary
281
     1
  0
DICTIONARY
  5
2A
102
{ACAD_REACTORS
330
C
102
}
330
C
100
AcDbDictionary
281
     1
  3
2dWireframe
350
2F
  3
3D Hidden
350
31
  3
3dWireframe
350
30
  3
Basic
350
32
  3
Brighten
350
36
  3
ColorChange
350
3A
  3
Conceptual
350
34
  3
Dim
350
35
  3
Facepattern
350
39
  3
Flat
350
2B
  3
FlatWithEdges
350
2C
  3
Gouraud
350
2D
  3
GouraudWithEdges
350
2E
  3
Linepattern
350
38
  3
Realistic
350
33
  3
Thicken
350
37
  0
TCOPTIONALDATA
  5
5A
102
{ACAD_REACTORS
330
59
102
}
330
59
100
TcOptionalData
 70
     1
 70
    32
 40
-3.0
  0
TCOPTIONALDATA
  5
5D
102
{ACAD_REACTORS
330
5C
102
}
330
5C
100
TcOptionalData
 70
     1
 70
    32
 40
-3.0
  0
TCOPTIONALDATA
  5
61
102
{ACAD_REACTORS
330
60
102
}
330
60
100
TcOptionalData
 70
     1
 70
    32
 40
-3.0
  0
TCOPTIONALDATA
  5
64
102
{ACAD_REACTORS
330
63
102
}
330
63
100
TcOptionalData
 70
     1
 70
    32
 40
-3.0
  0
TCOPTIONALDATA
  5
67
102
{ACAD_REACTORS
330
66
102
}
330
66
100
TcOptionalData
 70
     1
 70
    32
 40
-3.0
  0
TCOPTIONALDATA
  5
6A
102
{ACAD_REACTORS
330
69
102
}
330
69
100
TcOptionalData
 70
     1
 70
    32
 40
-3.0
  0
TCOPTIONALDATA
  5
6D
102
{ACAD_REACTORS
330
6C
102
}
330
6C
100
TcOptionalData
 70
     1
 70
    32
 40
-3.0
  0
TCOPTIONALDATA
  5
70
102
{ACAD_REACTORS
330
6F
102
}
330
6F
100
TcOptionalData
 70
     1
 70
    32
 40
-3.0
  0
TCOPTIONALDATA
  5
73
102
{ACAD_REACTORS
330
72
102
}
330
72
100
TcOptionalData
 70
     1
 70
    32
 40
-3.0
  0
TCOPTIONALDATA
  5
76
102
{ACAD_REACTORS
330
75
102
}
330
75
100
TcOptionalData
 70
     1
 70
    32
 40
-3.0
  0
TCOPTIONALDATA
  5
79
102
{ACAD_REACTORS
330
78
102
}
330
78
100
TcOptionalData
 70
     1
 70
    32
 40
-3.0
  0
TCOPTIONALDATA
  5
7C
102
{ACAD_REACTORS
330
7B
102
}
330
7B
100
TcOptionalData
 70
     1
 70
    32
 40
-3.0
  0
TCOPTIONALDATA
  5
81
102
{ACAD_REACTORS
330
80
102
}
330
80
100
TcOptionalData
 70
     1
 70
    32
 40
-3.0
  0
TCOPTIONALDATA
  5
85
102
{ACAD_REACTORS
330
84
102
}
330
84
100
TcOptionalData
 70
     1
 70
    32
 40
-3.0
  0
TCOPTIONALDATA
  5
88
102
{ACAD_REACTORS
330
87
102
}
330
87
100
TcOptionalData
 70
     1
 70
    32
 40
-3.0
  0
TCOPTIONALDATA
  5
8C
102
{ACAD_REACTORS
330
8B
102
}
330
8B
100
TcOptionalData
 70
     1
 70
    32
 40
-3.0
  0
TCOPTIONALDATA
  5
8F
102
{ACAD_REACTORS
330
8E
102
}
330
8E
100
TcOptionalData
 70
     1
 70
    32
 40
-3.0
  0
TCOPTIONALDATA
  5
95
102
{ACAD_REACTORS
330
94
102
}
330
94
100
TcOptionalData
 70
     1
 70
    32
 40
-3.0
  0
TCOPTIONALDATA
  5
98
102
{ACAD_REACTORS
330
97
102
}
330
97
100
TcOptionalData
 70
     1
 70
    32
 40
-3.0
  0
TCOPTIONALDATA
  5
9B
102
{ACAD_REACTORS
330
9A
102
}
330
9A
100
TcOptionalData
 70
     1
 70
    32
 40
-3.0
  0
TCOPTIONALDATA
  5
9E
102
{ACAD_REACTORS
330
9D
102
}
330
9D
100
TcOptionalData
 70
     1
 70
    32
 40
-3.0
  0
TCOPTIONALDATA
  5
A1
102
{ACAD_REACTORS
330
A0
102
}
330
A0
100
TcOptionalData
 70
     1
 70
    32
 40
-3.0
  0
TCOPTIONALDATA
  5
A4
102
{ACAD_REACTORS
330
A3
102
}
330
A3
100
TcOptionalData
 70
     1
 70
    32
 40
-3.0
  0
TCOPTIONALDATA
  5
A7
102
{ACAD_REACTORS
330
A6
102
}
330
A6
100
TcOptionalData
 70
     1
 70
    32
 40
-3.0
  0
TCOPTIONALDATA
  5
AA
102
{ACAD_REACTORS
330
A9
102
}
330
A9
100
TcOptionalData
 70
     1
 70
    32
 40
-3.0
  0
TCOPTIONALDATA
  5
B0
102
{ACAD_REACTORS
330
AF
102
}
330
AF
100
TcOptionalData
 70
     1
 70
    32
 40
-3.0
  0
TCOPTIONALDATA
  5
B3
102
{ACAD_REACTORS
330
B2
102
}
330
B2
100
TcOptionalData
 70
     1
 70
    32
 40
-3.0
  0
TCOPTIONALDATA
  5
B6
102
{ACAD_REACTORS
330
B5
102
}
330
B5
100
TcOptionalData
 70
     1
 70
    32
 40
-3.0
  0
TCOPTIONALDATA
  5
B9
102
{ACAD_REACTORS
330
B8
102
}
330
B8
100
TcOptionalData
 70
     1
 70
    32
 40
-3.0
  0
TCOPTIONALDATA
  5
BC
102
{ACAD_REACTORS
330
BB
102
}
330
BB
100
TcOptionalData
 70
     1
 70
    32
 40
-3.0
  0
TCOPTIONALDATA
  5
BF
102
{ACAD_REACTORS
330
BE
102
}
330
BE
100
TcOptionalData
 70
     1
 70
    32
 40
-3.0
  0
TCOPTIONALDATA
  5
C2
102
{ACAD_REACTORS
330
C1
102
}
330
C1
100
TcOptionalData
 70
     1
 70
    32
 40
-3.0
  0
TCOPTIONALDATA
  5
C5
102
{ACAD_REACTORS
330
C4
102
}
330
C4
100
TcOptionalData
 70
     1
 70
    32
 40
-3.0
  0
TCOPTIONALDATA
  5
C8
102
{ACAD_REACTORS
330
C7
102
}
330
C7
100
TcOptionalData
 70
     1
 70
    32
 40
-3.0
  0
TCOPTIONALDATA
  5
CB
102
{ACAD_REACTORS
330
CA
102
}
330
CA
100
TcOptionalData
 70
     1
 70
    32
 40
-3.0
  0
TCOPTIONALDATA
  5
CE
102
{ACAD_REACTORS
330
CD
102
}
330
CD
100
TcOptionalData
 70
     1
 70
    32
 40
-3.0
  0
TCOPTIONALDATA
  5
D1
102
{ACAD_REACTORS
330
D0
102
}
330
D0
100
TcOptionalData
 70
     1
 70
    32
 40
-3.0
  0
TCOPTIONALDATA
  5
D4
102
{ACAD_REACTORS
330
D3
102
}
330
D3
100
TcOptionalData
 70
     1
 70
    32
 40
-3.0
  0
TCOPTIONALDATA
  5
D7
102
{ACAD_REACTORS
330
D6
102
}
330
D6
100
TcOptionalData
 70
     1
 70
    32
 40
-3.0
  0
TCOPTIONALDATA
  5
DA
102
{ACAD_REACTORS
330
D9
102
}
330
D9
100
TcOptionalData
 70
     1
 70
    32
 40
-3.0
  0
TCOPTIONALDATA
  5
DD
102
{ACAD_REACTORS
330
DC
102
}
330
DC
100
TcOptionalData
 70
     1
 70
    32
 40
-3.0
  0
TCOPTIONALDATA
  5
E0
102
{ACAD_REACTORS
330
DF
102
}
330
DF
100
TcOptionalData
 70
     1
 70
    32
 40
-3.0
  0
TCOPTIONALDATA
  5
E3
102
{ACAD_REACTORS
330
E2
102
}
330
E2
100
TcOptionalData
 70
     1
 70
    32
 40
-3.0
  0
TCOPTIONALDATA
  5
E6
102
{ACAD_REACTORS
330
E5
102
}
330
E5
100
TcOptionalData
 70
     1
 70
    32
 40
-3.0
  0
TCOPTIONALDATA
  5
E9
102
{ACAD_REACTORS
330
E8
102
}
330
E8
100
TcOptionalData
 70
     1
 70
    32
 40
-3.0
  0
TCOPTIONALDATA
  5
EC
102
{ACAD_REACTORS
330
EB
102
}
330
EB
100
TcOptionalData
 70
     1
 70
    32
 40
-3.0
  0
TCOPTIONALDATA
  5
EF
102
{ACAD_REACTORS
330
EE
102
}
330
EE
100
TcOptionalData
 70
     1
 70
    32
 40
-3.0
  0
TCOPTIONALDATA
  5
F2
102
{ACAD_REACTORS
330
F1
102
}
330
F1
100
TcOptionalData
 70
     1
 70
    32
 40
-3.0
  0
TCOPTIONALDATA
  5
F5
102
{ACAD_REACTORS
330
F4
102
}
330
F4
100
TcOptionalData
 70
     1
 70
    32
 40
-3.0
  0
TCOPTIONALDATA
  5
F8
102
{ACAD_REACTORS
330
F7
102
}
330
F7
100
TcOptionalData
 70
     1
 70
    32
 40
-3.0
  0
TCOPTIONALDATA
  5
FB
102
{ACAD_REACTORS
330
FA
102
}
330
FA
100
TcOptionalData
 70
     1
 70
    32
 40
-3.0
  0
TCOPTIONALDATA
  5
FE
102
{ACAD_REACTORS
330
FD
102
}
330
FD
100
TcOptionalData
 70
     1
 70
    32
 40
-3.0
  0
TCOPTIONALDATA
  5
101
102
{ACAD_REACTORS
330
100
102
}
330
100
100
TcOptionalData
 70
     1
 70
    32
 40
-3.0
  0
TCOPTIONALDATA
  5
104
102
{ACAD_REACTORS
330
103
102
}
330
103
100
TcOptionalData
 70
     1
 70
    32
 40
-3.0
  0
TCOPTIONALDATA
  5
107
102
{ACAD_REACTORS
330
106
102
}
330
106
100
TcOptionalData
 70
     1
 70
    32
 40
-3.0
  0
TCOPTIONALDATA
  5
10A
102
{ACAD_REACTORS
330
109
102
}
330
109
100
TcOptionalData
 70
     1
 70
    32
 40
-3.0
  0
TCOPTIONALDATA
  5
10D
102
{ACAD_REACTORS
330
10C
102
}
330
10C
100
TcOptionalData
 70
     1
 70
    32
 40
-3.0
  0
TCOPTIONALDATA
  5
110
102
{ACAD_REACTORS
330
10F
102
}
330
10F
100
TcOptionalData
 70
     1
 70
    32
 40
-3.0
  0
TCOPTIONALDATA
  5
113
102
{ACAD_REACTORS
330
112
102
}
330
112
100
TcOptionalData
 70
     1
 70
    32
 40
-3.0
  0
TCOPTIONALDATA
  5
116
102
{ACAD_REACTORS
330
115
102
}
330
115
100
TcOptionalData
 70
     1
 70
    32
 40
-3.0
  0
TCOPTIONALDATA
  5
119
102
{ACAD_REACTORS
330
118
102
}
330
118
100
TcOptionalData
 70
     1
 70
    32
 40
-3.0
  0
TCOPTIONALDATA
  5
11C
102
{ACAD_REACTORS
330
11B
102
}
330
11B
100
TcOptionalData
 70
     1
 70
    32
 40
-3.0
  0
TCOPTIONALDATA
  5
11F
102
{ACAD_REACTORS
330
11E
102
}
330
11E
100
TcOptionalData
 70
     1
 70
    32
 40
-3.0
  0
TCOPTIONALDATA
  5
122
102
{ACAD_REACTORS
330
121
102
}
330
121
100
TcOptionalData
 70
     1
 70
    32
 40
-3.0
  0
TCOPTIONALDATA
  5
125
102
{ACAD_REACTORS
330
124
102
}
330
124
100
TcOptionalData
 70
     1
 70
    32
 40
-3.0
  0
TCOPTIONALDATA
  5
128
102
{ACAD_REACTORS
330
127
102
}
330
127
100
TcOptionalData
 70
     1
 70
    32
 40
-3.0
  0
TCOPTIONALDATA
  5
12B
102
{ACAD_REACTORS
330
12A
102
}
330
12A
100
TcOptionalData
 70
     1
 70
    32
 40
-3.0
  0
TCOPTIONALDATA
  5
12E
102
{ACAD_REACTORS
330
12D
102
}
330
12D
100
TcOptionalData
 70
     1
 70
    32
 40
-3.0
  0
TCOPTIONALDATA
  5
131
102
{ACAD_REACTORS
330
130
102
}
330
130
100
TcOptionalData
 70
     1
 70
    32
 40
-3.0
  0
TCOPTIONALDATA
  5
134
102
{ACAD_REACTORS
330
133
102
}
330
133
100
TcOptionalData
 70
     1
 70
    32
 40
-3.0
  0
TCOPTIONALDATA
  5
137
102
{ACAD_REACTORS
330
136
102
}
330
136
100
TcOptionalData
 70
     1
 70
    32
 40
-3.0
  0
TCOPTIONALDATA
  5
13A
102
{ACAD_REACTORS
330
139
102
}
330
139
100
TcOptionalData
 70
     1
 70
    32
 40
-3.0
  0
TCOPTIONALDATA
  5
13D
102
{ACAD_REACTORS
330
13C
102
}
330
13C
100
TcOptionalData
 70
     1
 70
    32
 40
-3.0
  0
TCOPTIONALDATA
  5
140
102
{ACAD_REACTORS
330
13F
102
}
330
13F
100
TcOptionalData
 70
     1
 70
    32
 40
-3.0
  0
TCOPTIONALDATA
  5
143
102
{ACAD_REACTORS
330
142
102
}
330
142
100
TcOptionalData
 70
     1
 70
    32
 40
-3.0
  0
TCOPTIONALDATA
  5
146
102
{ACAD_REACTORS
330
145
102
}
330
145
100
TcOptionalData
 70
     1
 70
    32
 40
-3.0
  0
TCOPTIONALDATA
  5
149
102
{ACAD_REACTORS
330
148
102
}
330
148
100
TcOptionalData
 70
     1
 70
    32
 40
-3.0
  0
TCOPTIONALDATA
  5
14C
102
{ACAD_REACTORS
330
14B
102
}
330
14B
100
TcOptionalData
 70
     1
 70
    32
 40
-3.0
  0
TCOPTIONALDATA
  5
14F
102
{ACAD_REACTORS
330
14E
102
}
330
14E
100
TcOptionalData
 70
     1
 70
    32
 40
-3.0
  0
TCOPTIONALDATA
  5
152
102
{ACAD_REACTORS
330
151
102
}
330
151
100
TcOptionalData
 70
     1
 70
    32
 40
-3.0
  0
TCOPTIONALDATA
  5
155
102
{ACAD_REACTORS
330
154
102
}
330
154
100
TcOptionalData
 70
     1
 70
    32
 40
-3.0
  0
TCOPTIONALDATA
  5
158
102
{ACAD_REACTORS
330
157
102
}
330
157
100
TcOptionalData
 70
     1
 70
    32
 40
-3.0
  0
TCOPTIONALDATA
  5
15B
102
{ACAD_REACTORS
330
15A
102
}
330
15A
100
TcOptionalData
 70
     1
 70
    32
 40
-3.0
  0
TCOPTIONALDATA
  5
15E
102
{ACAD_REACTORS
330
15D
102
}
330
15D
100
TcOptionalData
 70
     1
 70
    32
 40
-3.0
  0
TCOPTIONALDATA
  5
161
102
{ACAD_REACTORS
330
160
102
}
330
160
100
TcOptionalData
 70
     1
 70
    32
 40
-3.0
  0
TCOPTIONALDATA
  5
164
102
{ACAD_REACTORS
330
163
102
}
330
163
100
TcOptionalData
 70
     1
 70
    32
 40
-3.0
  0
TCOPTIONALDATA
  5
167
102
{ACAD_REACTORS
330
166
102
}
330
166
100
TcOptionalData
 70
     1
 70
    32
 40
-3.0
  0
TCOPTIONALDATA
  5
16A
102
{ACAD_REACTORS
330
169
102
}
330
169
100
TcOptionalData
 70
     1
 70
    32
 40
-3.0
  0
TCOPTIONALDATA
  5
16D
102
{ACAD_REACTORS
330
16C
102
}
330
16C
100
TcOptionalData
 70
     1
 70
    32
 40
-3.0
  0
TCOPTIONALDATA
  5
170
102
{ACAD_REACTORS
330
16F
102
}
330
16F
100
TcOptionalData
 70
     1
 70
    32
 40
-3.0
  0
TCOPTIONALDATA
  5
173
102
{ACAD_REACTORS
330
172
102
}
330
172
100
TcOptionalData
 70
     1
 70
    32
 40
-3.0
  0
TCOPTIONALDATA
  5
176
102
{ACAD_REACTORS
330
175
102
}
330
175
100
TcOptionalData
 70
     1
 70
    32
 40
-3.0
  0
TCOPTIONALDATA
  5
179
102
{ACAD_REACTORS
330
178
102
}
330
178
100
TcOptionalData
 70
     1
 70
    32
 40
-3.0
  0
TCOPTIONALDATA
  5
17C
102
{ACAD_REACTORS
330
17B
102
}
330
17B
100
TcOptionalData
 70
     1
 70
    32
 40
-3.0
  0
TCOPTIONALDATA
  5
17F
102
{ACAD_REACTORS
330
17E
102
}
330
17E
100
TcOptionalData
 70
     1
 70
    32
 40
-3.0
  0
TCOPTIONALDATA
  5
182
102
{ACAD_REACTORS
330
181
102
}
330
181
100
TcOptionalData
 70
     1
 70
    32
 40
-3.0
  0
TCOPTIONALDATA
  5
185
102
{ACAD_REACTORS
330
184
102
}
330
184
100
TcOptionalData
 70
     1
 70
    32
 40
-3.0
  0
TCOPTIONALDATA
  5
188
102
{ACAD_REACTORS
330
187
102
}
330
187
100
TcOptionalData
 70
     1
 70
    32
 40
-3.0
  0
TCOPTIONALDATA
  5
18B
102
{ACAD_REACTORS
330
18A
102
}
330
18A
100
TcOptionalData
 70
     1
 70
    32
 40
-3.0
  0
TCOPTIONALDATA
  5
18E
102
{ACAD_REACTORS
330
18D
102
}
330
18D
100
TcOptionalData
 70
     1
 70
    32
 40
-3.0
  0
TCOPTIONALDATA
  5
191
102
{ACAD_REACTORS
330
190
102
}
330
190
100
TcOptionalData
 70
     1
 70
    32
 40
-3.0
  0
TCOPTIONALDATA
  5
194
102
{ACAD_REACTORS
330
193
102
}
330
193
100
TcOptionalData
 70
     1
 70
    32
 40
-3.0
  0
TCOPTIONALDATA
  5
197
102
{ACAD_REACTORS
330
196
102
}
330
196
100
TcOptionalData
 70
     1
 70
    32
 40
-3.0
  0
TCOPTIONALDATA
  5
19A
102
{ACAD_REACTORS
330
199
102
}
330
199
100
TcOptionalData
 70
     1
 70
    32
 40
-3.0
  0
TCOPTIONALDATA
  5
19D
102
{ACAD_REACTORS
330
19C
102
}
330
19C
100
TcOptionalData
 70
     1
 70
    32
 40
-3.0
  0
TCOPTIONALDATA
  5
1A0
102
{ACAD_REACTORS
330
19F
102
}
330
19F
100
TcOptionalData
 70
     1
 70
    32
 40
-3.0
  0
TCOPTIONALDATA
  5
1A3
102
{ACAD_REACTORS
330
1A2
102
}
330
1A2
100
TcOptionalData
 70
     1
 70
    32
 40
-3.0
  0
TCOPTIONALDATA
  5
1A6
102
{ACAD_REACTORS
330
1A5
102
}
330
1A5
100
TcOptionalData
 70
     1
 70
    32
 40
-3.0
  0
TCOPTIONALDATA
  5
1A9
102
{ACAD_REACTORS
330
1A8
102
}
330
1A8
100
TcOptionalData
 70
     1
 70
    32
 40
-3.0
  0
TCOPTIONALDATA
  5
1AC
102
{ACAD_REACTORS
330
1AB
102
}
330
1AB
100
TcOptionalData
 70
     1
 70
    32
 40
-3.0
  0
TCOPTIONALDATA
  5
1AF
102
{ACAD_REACTORS
330
1AE
102
}
330
1AE
100
TcOptionalData
 70
     1
 70
    32
 40
-3.0
  0
TCOPTIONALDATA
  5
1B2
102
{ACAD_REACTORS
330
1B1
102
}
330
1B1
100
TcOptionalData
 70
     1
 70
    32
 40
-3.0
  0
TCOPTIONALDATA
  5
1B5
102
{ACAD_REACTORS
330
1B4
102
}
330
1B4
100
TcOptionalData
 70
     1
 70
    32
 40
-3.0
  0
TCOPTIONALDATA
  5
1B8
102
{ACAD_REACTORS
330
1B7
102
}
330
1B7
100
TcOptionalData
 70
     1
 70
    32
 40
-3.0
  0
TCOPTIONALDATA
  5
1BB
102
{ACAD_REACTORS
330
1BA
102
}
330
1BA
100
TcOptionalData
 70
     1
 70
    32
 40
-3.0
  0
TCOPTIONALDATA
  5
1BE
102
{ACAD_REACTORS
330
1BD
102
}
330
1BD
100
TcOptionalData
 70
     1
 70
    32
 40
-3.0
  0
TCOPTIONALDATA
  5
1C1
102
{ACAD_REACTORS
330
1C0
102
}
330
1C0
100
TcOptionalData
 70
     1
 70
    32
 40
-3.0
  0
TCOPTIONALDATA
  5
1C4
102
{ACAD_REACTORS
330
1C3
102
}
330
1C3
100
TcOptionalData
 70
     1
 70
    32
 40
-3.0
  0
TCOPTIONALDATA
  5
1C7
102
{ACAD_REACTORS
330
1C6
102
}
330
1C6
100
TcOptionalData
 70
     1
 70
    32
 40
-3.0
  0
TCOPTIONALDATA
  5
1CA
102
{ACAD_REACTORS
330
1C9
102
}
330
1C9
100
TcOptionalData
 70
     1
 70
    32
 40
-3.0
  0
TCOPTIONALDATA
  5
1CD
102
{ACAD_REACTORS
330
1CC
102
}
330
1CC
100
TcOptionalData
 70
     1
 70
    32
 40
-3.0
  0
TCOPTIONALDATA
  5
1D0
102
{ACAD_REACTORS
330
1CF
102
}
330
1CF
100
TcOptionalData
 70
     1
 70
    32
 40
-3.0
  0
TCOPTIONALDATA
  5
1D3
102
{ACAD_REACTORS
330
1D2
102
}
330
1D2
100
TcOptionalData
 70
     1
 70
    32
 40
-3.0
  0
TCOPTIONALDATA
  5
1D6
102
{ACAD_REACTORS
330
1D5
102
}
330
1D5
100
TcOptionalData
 70
     1
 70
    32
 40
-3.0
  0
TCOPTIONALDATA
  5
1D9
102
{ACAD_REACTORS
330
1D8
102
}
330
1D8
100
TcOptionalData
 70
     1
 70
    32
 40
-3.0
  0
TCOPTIONALDATA
  5
1DC
102
{ACAD_REACTORS
330
1DB
102
}
330
1DB
100
TcOptionalData
 70
     1
 70
    32
 40
-3.0
  0
TCOPTIONALDATA
  5
1DF
102
{ACAD_REACTORS
330
1DE
102
}
330
1DE
100
TcOptionalData
 70
     1
 70
    32
 40
-3.0
  0
TCOPTIONALDATA
  5
1E2
102
{ACAD_REACTORS
330
1E1
102
}
330
1E1
100
TcOptionalData
 70
     1
 70
    32
 40
-3.0
  0
TCOPTIONALDATA
  5
1E5
102
{ACAD_REACTORS
330
1E4
102
}
330
1E4
100
TcOptionalData
 70
     1
 70
    32
 40
-3.0
  0
TCOPTIONALDATA
  5
1E8
102
{ACAD_REACTORS
330
1E7
102
}
330
1E7
100
TcOptionalData
 70
     1
 70
    32
 40
-3.0
  0
TCOPTIONALDATA
  5
1EB
102
{ACAD_REACTORS
330
1EA
102
}
330
1EA
100
TcOptionalData
 70
     1
 70
    32
 40
-3.0
  0
TCOPTIONALDATA
  5
1EE
102
{ACAD_REACTORS
330
1ED
102
}
330
1ED
100
TcOptionalData
 70
     1
 70
    32
 40
-3.0
  0
TCOPTIONALDATA
  5
1F1
102
{ACAD_REACTORS
330
1F0
102
}
330
1F0
100
TcOptionalData
 70
     1
 70
    32
 40
-3.0
  0
TCOPTIONALDATA
  5
1F4
102
{ACAD_REACTORS
330
1F3
102
}
330
1F3
100
TcOptionalData
 70
     1
 70
    32
 40
-3.0
  0
TCOPTIONALDATA
  5
1F7
102
{ACAD_REACTORS
330
1F6
102
}
330
1F6
100
TcOptionalData
 70
     1
 70
    32
 40
-3.0
  0
TCOPTIONALDATA
  5
1FA
102
{ACAD_REACTORS
330
1F9
102
}
330
1F9
100
TcOptionalData
 70
     1
 70
    32
 40
-3.0
  0
TCOPTIONALDATA
  5
1FD
102
{ACAD_REACTORS
330
1FC
102
}
330
1FC
100
TcOptionalData
 70
     1
 70
    32
 40
-3.0
  0
TCOPTIONALDATA
  5
200
102
{ACAD_REACTORS
330
1FF
102
}
330
1FF
100
TcOptionalData
 70
     1
 70
    32
 40
-3.0
  0
TCOPTIONALDATA
  5
203
102
{ACAD_REACTORS
330
202
102
}
330
202
100
TcOptionalData
 70
     1
 70
    32
 40
-3.0
  0
TCOPTIONALDATA
  5
206
102
{ACAD_REACTORS
330
205
102
}
330
205
100
TcOptionalData
 70
     1
 70
    32
 40
-3.0
  0
TCOPTIONALDATA
  5
209
102
{ACAD_REACTORS
330
208
102
}
330
208
100
TcOptionalData
 70
     1
 70
    32
 40
-3.0
  0
TCOPTIONALDATA
  5
20C
102
{ACAD_REACTORS
330
20B
102
}
330
20B
100
TcOptionalData
 70
     1
 70
    32
 40
-3.0
  0
TCOPTIONALDATA
  5
20F
102
{ACAD_REACTORS
330
20E
102
}
330
20E
100
TcOptionalData
 70
     1
 70
    32
 40
-3.0
  0
TCOPTIONALDATA
  5
212
102
{ACAD_REACTORS
330
211
102
}
330
211
100
TcOptionalData
 70
     1
 70
    32
 40
-3.0
  0
TCOPTIONALDATA
  5
215
102
{ACAD_REACTORS
330
214
102
}
330
214
100
TcOptionalData
 70
     1
 70
    32
 40
-3.0
  0
TCOPTIONALDATA
  5
218
102
{ACAD_REACTORS
330
217
102
}
330
217
100
TcOptionalData
 70
     1
 70
    32
 40
-3.0
  0
TCOPTIONALDATA
  5
21B
102
{ACAD_REACTORS
330
21A
102
}
330
21A
100
TcOptionalData
 70
     1
 70
    32
 40
-3.0
  0
TCOPTIONALDATA
  5
21E
102
{ACAD_REACTORS
330
21D
102
}
330
21D
100
TcOptionalData
 70
     1
 70
    32
 40
-3.0
  0
TCOPTIONALDATA
  5
221
102
{ACAD_REACTORS
330
220
102
}
330
220
100
TcOptionalData
 70
     1
 70
    32
 40
-3.0
  0
TCOPTIONALDATA
  5
224
102
{ACAD_REACTORS
330
223
102
}
330
223
100
TcOptionalData
 70
     1
 70
    32
 40
-3.0
  0
TCOPTIONALDATA
  5
227
102
{ACAD_REACTORS
330
226
102
}
330
226
100
TcOptionalData
 70
     1
 70
    32
 40
-3.0
  0
TCOPTIONALDATA
  5
22A
102
{ACAD_REACTORS
330
229
102
}
330
229
100
TcOptionalData
 70
     1
 70
    32
 40
-3.0
  0
TCOPTIONALDATA
  5
22D
102
{ACAD_REACTORS
330
22C
102
}
330
22C
100
TcOptionalData
 70
     1
 70
    32
 40
-3.0
  0
TCOPTIONALDATA
  5
230
102
{ACAD_REACTORS
330
22F
102
}
330
22F
100
TcOptionalData
 70
     1
 70
    32
 40
-3.0
  0
TCOPTIONALDATA
  5
233
102
{ACAD_REACTORS
330
232
102
}
330
232
100
TcOptionalData
 70
     1
 70
    32
 40
-3.0
  0
TCOPTIONALDATA
  5
236
102
{ACAD_REACTORS
330
235
102
}
330
235
100
TcOptionalData
 70
     1
 70
    32
 40
-3.0
  0
TCOPTIONALDATA
  5
239
102
{ACAD_REACTORS
330
238
102
}
330
238
100
TcOptionalData
 70
     1
 70
    32
 40
-3.0
  0
TCOPTIONALDATA
  5
23C
102
{ACAD_REACTORS
330
23B
102
}
330
23B
100
TcOptionalData
 70
     1
 70
    32
 40
-3.0
  0
TCOPTIONALDATA
  5
23F
102
{ACAD_REACTORS
330
23E
102
}
330
23E
100
TcOptionalData
 70
     1
 70
    32
 40
-3.0
  0
TCOPTIONALDATA
  5
242
102
{ACAD_REACTORS
330
241
102
}
330
241
100
TcOptionalData
 70
     1
 70
    32
 40
-3.0
  0
TCOPTIONALDATA
  5
245
102
{ACAD_REACTORS
330
244
102
}
330
244
100
TcOptionalData
 70
     1
 70
    32
 40
-3.0
  0
TCOPTIONALDATA
  5
248
102
{ACAD_REACTORS
330
247
102
}
330
247
100
TcOptionalData
 70
     1
 70
    32
 40
-3.0
  0
TCOPTIONALDATA
  5
24B
102
{ACAD_REACTORS
330
24A
102
}
330
24A
100
TcOptionalData
 70
     1
 70
    32
 40
-3.0
  0
TCOPTIONALDATA
  5
24E
102
{ACAD_REACTORS
330
24D
102
}
330
24D
100
TcOptionalData
 70
     1
 70
    32
 40
-3.0
  0
TCOPTIONALDATA
  5
251
102
{ACAD_REACTORS
330
250
102
}
330
250
100
TcOptionalData
 70
     1
 70
    32
 40
-3.0
  0
TCOPTIONALDATA
  5
254
102
{ACAD_REACTORS
330
253
102
}
330
253
100
TcOptionalData
 70
     1
 70
    32
 40
-3.0
  0
TCOPTIONALDATA
  5
257
102
{ACAD_REACTORS
330
256
102
}
330
256
100
TcOptionalData
 70
     1
 70
    32
 40
-3.0
  0
TCOPTIONALDATA
  5
25A
102
{ACAD_REACTORS
330
259
102
}
330
259
100
TcOptionalData
 70
     1
 70
    32
 40
-3.0
  0
TCOPTIONALDATA
  5
25D
102
{ACAD_REACTORS
330
25C
102
}
330
25C
100
TcOptionalData
 70
     1
 70
    32
 40
-3.0
  0
TCOPTIONALDATA
  5
260
102
{ACAD_REACTORS
330
25F
102
}
330
25F
100
TcOptionalData
 70
     1
 70
    32
 40
-3.0
  0
TCOPTIONALDATA
  5
263
102
{ACAD_REACTORS
330
262
102
}
330
262
100
TcOptionalData
 70
     1
 70
    32
 40
-3.0
  0
TCOPTIONALDATA
  5
266
102
{ACAD_REACTORS
330
265
102
}
330
265
100
TcOptionalData
 70
     1
 70
    32
 40
-3.0
  0
TCOPTIONALDATA
  5
269
102
{ACAD_REACTORS
330
268
102
}
330
268
100
TcOptionalData
 70
     1
 70
    32
 40
-3.0
  0
TCOPTIONALDATA
  5
26C
102
{ACAD_REACTORS
330
26B
102
}
330
26B
100
TcOptionalData
 70
     1
 70
    32
 40
-3.0
  0
TCOPTIONALDATA
  5
26F
102
{ACAD_REACTORS
330
26E
102
}
330
26E
100
TcOptionalData
 70
     1
 70
    32
 40
-3.0
  0
TCOPTIONALDATA
  5
272
102
{ACAD_REACTORS
330
271
102
}
330
271
100
TcOptionalData
 70
     1
 70
    32
 40
-3.0
  0
TCOPTIONALDATA
  5
275
102
{ACAD_REACTORS
330
274
102
}
330
274
100
TcOptionalData
 70
     1
 70
    32
 40
-3.0
  0
TCOPTIONALDATA
  5
278
102
{ACAD_REACTORS
330
277
102
}
330
277
100
TcOptionalData
 70
     1
 70
    32
 40
-3.0
  0
TCOPTIONALDATA
  5
27B
102
{ACAD_REACTORS
330
27A
102
}
330
27A
100
TcOptionalData
 70
     1
 70
    32
 40
-3.0
  0
TCOPTIONALDATA
  5
27E
102
{ACAD_REACTORS
330
27D
102
}
330
27D
100
TcOptionalData
 70
     1
 70
    32
 40
-3.0
  0
TCOPTIONALDATA
  5
281
102
{ACAD_REACTORS
330
280
102
}
330
280
100
TcOptionalData
 70
     1
 70
    32
 40
-3.0
  0
TCOPTIONALDATA
  5
284
102
{ACAD_REACTORS
330
283
102
}
330
283
100
TcOptionalData
 70
     1
 70
    32
 40
-3.0
  0
TCOPTIONALDATA
  5
287
102
{ACAD_REACTORS
330
286
102
}
330
286
100
TcOptionalData
 70
     1
 70
    32
 40
-3.0
  0
TCOPTIONALDATA
  5
28A
102
{ACAD_REACTORS
330
289
102
}
330
289
100
TcOptionalData
 70
     1
 70
    32
 40
-3.0
  0
TCOPTIONALDATA
  5
28D
102
{ACAD_REACTORS
330
28C
102
}
330
28C
100
TcOptionalData
 70
     1
 70
    32
 40
-3.0
  0
TCOPTIONALDATA
  5
290
102
{ACAD_REACTORS
330
28F
102
}
330
28F
100
TcOptionalData
 70
     1
 70
    32
 40
-3.0
  0
TCOPTIONALDATA
  5
293
102
{ACAD_REACTORS
330
292
102
}
330
292
100
TcOptionalData
 70
     1
 70
    32
 40
-3.0
  0
TCOPTIONALDATA
  5
296
102
{ACAD_REACTORS
330
295
102
}
330
295
100
TcOptionalData
 70
     1
 70
    32
 40
-3.0
  0
TCOPTIONALDATA
  5
299
102
{ACAD_REACTORS
330
298
102
}
330
298
100
TcOptionalData
 70
     1
 70
    32
 40
-3.0
  0
TCOPTIONALDATA
  5
29C
102
{ACAD_REACTORS
330
29B
102
}
330
29B
100
TcOptionalData
 70
     1
 70
    32
 40
-3.0
  0
TCOPTIONALDATA
  5
29F
102
{ACAD_REACTORS
330
29E
102
}
330
29E
100
TcOptionalData
 70
     1
 70
    32
 40
-3.0
  0
TCOPTIONALDATA
  5
2A2
102
{ACAD_REACTORS
330
2A1
102
}
330
2A1
100
TcOptionalData
 70
     1
 70
    32
 40
-3.0
  0
TCOPTIONALDATA
  5
2A5
102
{ACAD_REACTORS
330
2A4
102
}
330
2A4
100
TcOptionalData
 70
     1
 70
    32
 40
-3.0
  0
TCOPTIONALDATA
  5
2A8
102
{ACAD_REACTORS
330
2A7
102
}
330
2A7
100
TcOptionalData
 70
     1
 70
    32
 40
-3.0
  0
TCOPTIONALDATA
  5
2AB
102
{ACAD_REACTORS
330
2AA
102
}
330
2AA
100
TcOptionalData
 70
     1
 70
    32
 40
-3.0
  0
TCOPTIONALDATA
  5
2AE
102
{ACAD_REACTORS
330
2AD
102
}
330
2AD
100
TcOptionalData
 70
     1
 70
    32
 40
-3.0
  0
TCOPTIONALDATA
  5
2B1
102
{ACAD_REACTORS
330
2B0
102
}
330
2B0
100
TcOptionalData
 70
     1
 70
    32
 40
-3.0
  0
TCOPTIONALDATA
  5
2B4
102
{ACAD_REACTORS
330
2B3
102
}
330
2B3
100
TcOptionalData
 70
     1
 70
    32
 40
-3.0
  0
TCOPTIONALDATA
  5
2B7
102
{ACAD_REACTORS
330
2B6
102
}
330
2B6
100
TcOptionalData
 70
     1
 70
    32
 40
-3.0
  0
TCOPTIONALDATA
  5
2BA
102
{ACAD_REACTORS
330
2B9
102
}
330
2B9
100
TcOptionalData
 70
     1
 70
    32
 40
-3.0
  0
TCOPTIONALDATA
  5
2BD
102
{ACAD_REACTORS
330
2BC
102
}
330
2BC
100
TcOptionalData
 70
     1
 70
    32
 40
-3.0
  0
TCOPTIONALDATA
  5
2C0
102
{ACAD_REACTORS
330
2BF
102
}
330
2BF
100
TcOptionalData
 70
     1
 70
    32
 40
-3.0
  0
TCOPTIONALDATA
  5
2C3
102
{ACAD_REACTORS
330
2C2
102
}
330
2C2
100
TcOptionalData
 70
     1
 70
    32
 40
-3.0
  0
TCOPTIONALDATA
  5
2C6
102
{ACAD_REACTORS
330
2C5
102
}
330
2C5
100
TcOptionalData
 70
     1
 70
    32
 40
-3.0
  0
TCOPTIONALDATA
  5
2C9
102
{ACAD_REACTORS
330
2C8
102
}
330
2C8
100
TcOptionalData
 70
     1
 70
    32
 40
-3.0
  0
TCOPTIONALDATA
  5
2CC
102
{ACAD_REACTORS
330
2CB
102
}
330
2CB
100
TcOptionalData
 70
     1
 70
    32
 40
-3.0
  0
TCOPTIONALDATA
  5
2CF
102
{ACAD_REACTORS
330
2CE
102
}
330
2CE
100
TcOptionalData
 70
     1
 70
    32
 40
-3.0
  0
TCOPTIONALDATA
  5
2D2
102
{ACAD_REACTORS
330
2D1
102
}
330
2D1
100
TcOptionalData
 70
     1
 70
    32
 40
-3.0
  0
TCOPTIONALDATA
  5
2D5
102
{ACAD_REACTORS
330
2D4
102
}
330
2D4
100
TcOptionalData
 70
     1
 70
    32
 40
-3.0
  0
TCOPTIONALDATA
  5
2D8
102
{ACAD_REACTORS
330
2D7
102
}
330
2D7
100
TcOptionalData
 70
     1
 70
    32
 40
-3.0
  0
TCOPTIONALDATA
  5
2DB
102
{ACAD_REACTORS
330
2DA
102
}
330
2DA
100
TcOptionalData
 70
     1
 70
    32
 40
-3.0
  0
TCOPTIONALDATA
  5
2DE
102
{ACAD_REACTORS
330
2DD
102
}
330
2DD
100
TcOptionalData
 70
     1
 70
    32
 40
-3.0
  0
TCOPTIONALDATA
  5
2E1
102
{ACAD_REACTORS
330
2E0
102
}
330
2E0
100
TcOptionalData
 70
     1
 70
    32
 40
-3.0
  0
TCOPTIONALDATA
  5
2E4
102
{ACAD_REACTORS
330
2E3
102
}
330
2E3
100
TcOptionalData
 70
     1
 70
    32
 40
-3.0
  0
TCOPTIONALDATA
  5
2E7
102
{ACAD_REACTORS
330
2E6
102
}
330
2E6
100
TcOptionalData
 70
     1
 70
    32
 40
-3.0
  0
TCOPTIONALDATA
  5
2EA
102
{ACAD_REACTORS
330
2E9
102
}
330
2E9
100
TcOptionalData
 70
     1
 70
    32
 40
-3.0
  0
TCOPTIONALDATA
  5
2ED
102
{ACAD_REACTORS
330
2EC
102
}
330
2EC
100
TcOptionalData
 70
     1
 70
    32
 40
-3.0
  0
TCOPTIONALDATA
  5
2F0
102
{ACAD_REACTORS
330
2EF
102
}
330
2EF
100
TcOptionalData
 70
     1
 70
    32
 40
-3.0
  0
TCOPTIONALDATA
  5
2F3
102
{ACAD_REACTORS
330
2F2
102
}
330
2F2
100
TcOptionalData
 70
     1
 70
    32
 40
-3.0
  0
TCOPTIONALDATA
  5
2F6
102
{ACAD_REACTORS
330
2F5
102
}
330
2F5
100
TcOptionalData
 70
     1
 70
    32
 40
-3.0
  0
TCOPTIONALDATA
  5
2F9
102
{ACAD_REACTORS
330
2F8
102
}
330
2F8
100
TcOptionalData
 70
     1
 70
    32
 40
-3.0
  0
TCOPTIONALDATA
  5
2FC
102
{ACAD_REACTORS
330
2FB
102
}
330
2FB
100
TcOptionalData
 70
     1
 70
    32
 40
-3.0
  0
TCOPTIONALDATA
  5
2FF
102
{ACAD_REACTORS
330
2FE
102
}
330
2FE
100
TcOptionalData
 70
     1
 70
    32
 40
-3.0
  0
TCOPTIONALDATA
  5
302
102
{ACAD_REACTORS
330
301
102
}
330
301
100
TcOptionalData
 70
     1
 70
    32
 40
-3.0
  0
TCOPTIONALDATA
  5
305
102
{ACAD_REACTORS
330
304
102
}
330
304
100
TcOptionalData
 70
     1
 70
    32
 40
-3.0
  0
TCOPTIONALDATA
  5
308
102
{ACAD_REACTORS
330
307
102
}
330
307
100
TcOptionalData
 70
     1
 70
    32
 40
-3.0
  0
TCOPTIONALDATA
  5
30B
102
{ACAD_REACTORS
330
30A
102
}
330
30A
100
TcOptionalData
 70
     1
 70
    32
 40
-3.0
  0
TCOPTIONALDATA
  5
30E
102
{ACAD_REACTORS
330
30D
102
}
330
30D
100
TcOptionalData
 70
     1
 70
    32
 40
-3.0
  0
TCOPTIONALDATA
  5
311
102
{ACAD_REACTORS
330
310
102
}
330
310
100
TcOptionalData
 70
     1
 70
    32
 40
-3.0
  0
TCOPTIONALDATA
  5
314
102
{ACAD_REACTORS
330
313
102
}
330
313
100
TcOptionalData
 70
     1
 70
    32
 40
-3.0
  0
TCOPTIONALDATA
  5
317
102
{ACAD_REACTORS
330
316
102
}
330
316
100
TcOptionalData
 70
     1
 70
    32
 40
-3.0
  0
TCOPTIONALDATA
  5
31A
102
{ACAD_REACTORS
330
319
102
}
330
319
100
TcOptionalData
 70
     1
 70
    32
 40
-3.0
  0
TCOPTIONALDATA
  5
31D
102
{ACAD_REACTORS
330
31C
102
}
330
31C
100
TcOptionalData
 70
     1
 70
    32
 40
-3.0
  0
TCOPTIONALDATA
  5
320
102
{ACAD_REACTORS
330
31F
102
}
330
31F
100
TcOptionalData
 70
     1
 70
    32
 40
-3.0
  0
TCOPTIONALDATA
  5
323
102
{ACAD_REACTORS
330
322
102
}
330
322
100
TcOptionalData
 70
     1
 70
    32
 40
-3.0
  0
TCOPTIONALDATA
  5
326
102
{ACAD_REACTORS
330
325
102
}
330
325
100
TcOptionalData
 70
     1
 70
    32
 40
-3.0
  0
TCOPTIONALDATA
  5
329
102
{ACAD_REACTORS
330
328
102
}
330
328
100
TcOptionalData
 70
     1
 70
    32
 40
-3.0
  0
TCOPTIONALDATA
  5
32C
102
{ACAD_REACTORS
330
32B
102
}
330
32B
100
TcOptionalData
 70
     1
 70
    32
 40
-3.0
  0
TCOPTIONALDATA
  5
32F
102
{ACAD_REACTORS
330
32E
102
}
330
32E
100
TcOptionalData
 70
     1
 70
    32
 40
-3.0
  0
TCOPTIONALDATA
  5
332
102
{ACAD_REACTORS
330
331
102
}
330
331
100
TcOptionalData
 70
     1
 70
    32
 40
-3.0
  0
TCOPTIONALDATA
  5
335
102
{ACAD_REACTORS
330
334
102
}
330
334
100
TcOptionalData
 70
     1
 70
    32
 40
-3.0
  0
TCOPTIONALDATA
  5
338
102
{ACAD_REACTORS
330
337
102
}
330
337
100
TcOptionalData
 70
     1
 70
    32
 40
-3.0
  0
TCOPTIONALDATA
  5
33B
102
{ACAD_REACTORS
330
33A
102
}
330
33A
100
TcOptionalData
 70
     1
 70
    32
 40
-3.0
  0
TCOPTIONALDATA
  5
33E
102
{ACAD_REACTORS
330
33D
102
}
330
33D
100
TcOptionalData
 70
     1
 70
    32
 40
-3.0
  0
TCOPTIONALDATA
  5
341
102
{ACAD_REACTORS
330
340
102
}
330
340
100
TcOptionalData
 70
     1
 70
    32
 40
-3.0
  0
TCOPTIONALDATA
  5
344
102
{ACAD_REACTORS
330
343
102
}
330
343
100
TcOptionalData
 70
     1
 70
    32
 40
-3.0
  0
TCOPTIONALDATA
  5
347
102
{ACAD_REACTORS
330
346
102
}
330
346
100
TcOptionalData
 70
     1
 70
    32
 40
-3.0
  0
TCOPTIONALDATA
  5
34A
102
{ACAD_REACTORS
330
349
102
}
330
349
100
TcOptionalData
 70
     1
 70
    32
 40
-3.0
  0
TCOPTIONALDATA
  5
34D
102
{ACAD_REACTORS
330
34C
102
}
330
34C
100
TcOptionalData
 70
     1
 70
    32
 40
-3.0
  0
TCOPTIONALDATA
  5
350
102
{ACAD_REACTORS
330
34F
102
}
330
34F
100
TcOptionalData
 70
     1
 70
    32
 40
-3.0
  0
TCOPTIONALDATA
  5
353
102
{ACAD_REACTORS
330
352
102
}
330
352
100
TcOptionalData
 70
     1
 70
    32
 40
-3.0
  0
TCOPTIONALDATA
  5
356
102
{ACAD_REACTORS
330
355
102
}
330
355
100
TcOptionalData
 70
     1
 70
    32
 40
-3.0
  0
TCOPTIONALDATA
  5
359
102
{ACAD_REACTORS
330
358
102
}
330
358
100
TcOptionalData
 70
     1
 70
    32
 40
-3.0
  0
TCOPTIONALDATA
  5
35C
102
{ACAD_REACTORS
330
35B
102
}
330
35B
100
TcOptionalData
 70
     1
 70
    32
 40
-3.0
  0
TCOPTIONALDATA
  5
35F
102
{ACAD_REACTORS
330
35E
102
}
330
35E
100
TcOptionalData
 70
     1
 70
    32
 40
-3.0
  0
TCOPTIONALDATA
  5
362
102
{ACAD_REACTORS
330
361
102
}
330
361
100
TcOptionalData
 70
     1
 70
    32
 40
-3.0
  0
TCOPTIONALDATA
  5
365
102
{ACAD_REACTORS
330
364
102
}
330
364
100
TcOptionalData
 70
     1
 70
    32
 40
-3.0
  0
TCOPTIONALDATA
  5
368
102
{ACAD_REACTORS
330
367
102
}
330
367
100
TcOptionalData
 70
     1
 70
    32
 40
-3.0
  0
TCOPTIONALDATA
  5
36B
102
{ACAD_REACTORS
330
36A
102
}
330
36A
100
TcOptionalData
 70
     1
 70
    32
 40
-3.0
  0
TCOPTIONALDATA
  5
36E
102
{ACAD_REACTORS
330
36D
102
}
330
36D
100
TcOptionalData
 70
     1
 70
    32
 40
-3.0
  0
TCOPTIONALDATA
  5
371
102
{ACAD_REACTORS
330
370
102
}
330
370
100
TcOptionalData
 70
     1
 70
    32
 40
-3.0
  0
TCOPTIONALDATA
  5
374
102
{ACAD_REACTORS
330
373
102
}
330
373
100
TcOptionalData
 70
     1
 70
    32
 40
-3.0
  0
TCOPTIONALDATA
  5
377
102
{ACAD_REACTORS
330
376
102
}
330
376
100
TcOptionalData
 70
     1
 70
    32
 40
-3.0
  0
TCOPTIONALDATA
  5
37A
102
{ACAD_REACTORS
330
379
102
}
330
379
100
TcOptionalData
 70
     1
 70
    32
 40
-3.0
  0
TCOPTIONALDATA
  5
37D
102
{ACAD_REACTORS
330
37C
102
}
330
37C
100
TcOptionalData
 70
     1
 70
    32
 40
-3.0
  0
TCOPTIONALDATA
  5
380
102
{ACAD_REACTORS
330
37F
102
}
330
37F
100
TcOptionalData
 70
     1
 70
    32
 40
-3.0
  0
TCOPTIONALDATA
  5
383
102
{ACAD_REACTORS
330
382
102
}
330
382
100
TcOptionalData
 70
     1
 70
    32
 40
-3.0
  0
TCOPTIONALDATA
  5
386
102
{ACAD_REACTORS
330
385
102
}
330
385
100
TcOptionalData
 70
     1
 70
    32
 40
-3.0
  0
TCOPTIONALDATA
  5
389
102
{ACAD_REACTORS
330
388
102
}
330
388
100
TcOptionalData
 70
     1
 70
    32
 40
-3.0
  0
TCOPTIONALDATA
  5
38C
102
{ACAD_REACTORS
330
38B
102
}
330
38B
100
TcOptionalData
 70
     1
 70
    32
 40
-3.0
  0
TCOPTIONALDATA
  5
38F
102
{ACAD_REACTORS
330
38E
102
}
330
38E
100
TcOptionalData
 70
     1
 70
    32
 40
-3.0
  0
TCOPTIONALDATA
  5
392
102
{ACAD_REACTORS
330
391
102
}
330
391
100
TcOptionalData
 70
     1
 70
    32
 40
-3.0
  0
TCOPTIONALDATA
  5
395
102
{ACAD_REACTORS
330
394
102
}
330
394
100
TcOptionalData
 70
     1
 70
    32
 40
-3.0
  0
TCOPTIONALDATA
  5
398
102
{ACAD_REACTORS
330
397
102
}
330
397
100
TcOptionalData
 70
     1
 70
    32
 40
-3.0
  0
TCOPTIONALDATA
  5
39B
102
{ACAD_REACTORS
330
39A
102
}
330
39A
100
TcOptionalData
 70
     1
 70
    32
 40
-3.0
  0
TCOPTIONALDATA
  5
39E
102
{ACAD_REACTORS
330
39D
102
}
330
39D
100
TcOptionalData
 70
     1
 70
    32
 40
-3.0
  0
TCOPTIONALDATA
  5
3A1
102
{ACAD_REACTORS
330
3A0
102
}
330
3A0
100
TcOptionalData
 70
     1
 70
    32
 40
-3.0
  0
TCOPTIONALDATA
  5
3A4
102
{ACAD_REACTORS
330
3A3
102
}
330
3A3
100
TcOptionalData
 70
     1
 70
    32
 40
-3.0
  0
TCOPTIONALDATA
  5
3A7
102
{ACAD_REACTORS
330
3A6
102
}
330
3A6
100
TcOptionalData
 70
     1
 70
    32
 40
-3.0
  0
TCOPTIONALDATA
  5
3AA
102
{ACAD_REACTORS
330
3A9
102
}
330
3A9
100
TcOptionalData
 70
     1
 70
    32
 40
-3.0
  0
TCOPTIONALDATA
  5
3AD
102
{ACAD_REACTORS
330
3AC
102
}
330
3AC
100
TcOptionalData
 70
     1
 70
    32
 40
-3.0
  0
TCOPTIONALDATA
  5
3B0
102
{ACAD_REACTORS
330
3AF
102
}
330
3AF
100
TcOptionalData
 70
     1
 70
    32
 40
-3.0
  0
TCOPTIONALDATA
  5
3B3
102
{ACAD_REACTORS
330
3B2
102
}
330
3B2
100
TcOptionalData
 70
     1
 70
    32
 40
-3.0
  0
TCOPTIONALDATA
  5
3B6
102
{ACAD_REACTORS
330
3B5
102
}
330
3B5
100
TcOptionalData
 70
     1
 70
    32
 40
-3.0
  0
TCOPTIONALDATA
  5
3B9
102
{ACAD_REACTORS
330
3B8
102
}
330
3B8
100
TcOptionalData
 70
     1
 70
    32
 40
-3.0
  0
TCOPTIONALDATA
  5
3BC
102
{ACAD_REACTORS
330
3BB
102
}
330
3BB
100
TcOptionalData
 70
     1
 70
    32
 40
-3.0
  0
TCOPTIONALDATA
  5
3BF
102
{ACAD_REACTORS
330
3BE
102
}
330
3BE
100
TcOptionalData
 70
     1
 70
    32
 40
-3.0
  0
TCOPTIONALDATA
  5
3C2
102
{ACAD_REACTORS
330
3C1
102
}
330
3C1
100
TcOptionalData
 70
     1
 70
    32
 40
-3.0
  0
TCOPTIONALDATA
  5
3C5
102
{ACAD_REACTORS
330
3C4
102
}
330
3C4
100
TcOptionalData
 70
     1
 70
    32
 40
-3.0
  0
TCOPTIONALDATA
  5
3C8
102
{ACAD_REACTORS
330
3C7
102
}
330
3C7
100
TcOptionalData
 70
     1
 70
    32
 40
-3.0
  0
TCOPTIONALDATA
  5
3CB
102
{ACAD_REACTORS
330
3CA
102
}
330
3CA
100
TcOptionalData
 70
     1
 70
    32
 40
-3.0
  0
TCOPTIONALDATA
  5
3CE
102
{ACAD_REACTORS
330
3CD
102
}
330
3CD
100
TcOptionalData
 70
     1
 70
    32
 40
-3.0
  0
TCOPTIONALDATA
  5
3D1
102
{ACAD_REACTORS
330
3D0
102
}
330
3D0
100
TcOptionalData
 70
     1
 70
    32
 40
-3.0
  0
TCOPTIONALDATA
  5
3D4
102
{ACAD_REACTORS
330
3D3
102
}
330
3D3
100
TcOptionalData
 70
     1
 70
    32
 40
-3.0
  0
TCOPTIONALDATA
  5
3D7
102
{ACAD_REACTORS
330
3D6
102
}
330
3D6
100
TcOptionalData
 70
     1
 70
    32
 40
-3.0
  0
TCOPTIONALDATA
  5
3DA
102
{ACAD_REACTORS
330
3D9
102
}
330
3D9
100
TcOptionalData
 70
     1
 70
    32
 40
-3.0
  0
TCOPTIONALDATA
  5
3DD
102
{ACAD_REACTORS
330
3DC
102
}
330
3DC
100
TcOptionalData
 70
     1
 70
    32
 40
-3.0
  0
TCOPTIONALDATA
  5
3E0
102
{ACAD_REACTORS
330
3DF
102
}
330
3DF
100
TcOptionalData
 70
     1
 70
    32
 40
-3.0
  0
TCOPTIONALDATA
  5
3E3
102
{ACAD_REACTORS
330
3E2
102
}
330
3E2
100
TcOptionalData
 70
     1
 70
    32
 40
-3.0
  0
TCOPTIONALDATA
  5
3E6
102
{ACAD_REACTORS
330
3E5
102
}
330
3E5
100
TcOptionalData
 70
     1
 70
    32
 40
-3.0
  0
TCOPTIONALDATA
  5
3E9
102
{ACAD_REACTORS
330
3E8
102
}
330
3E8
100
TcOptionalData
 70
     1
 70
    32
 40
-3.0
  0
TCOPTIONALDATA
  5
3EC
102
{ACAD_REACTORS
330
3EB
102
}
330
3EB
100
TcOptionalData
 70
     1
 70
    32
 40
-3.0
  0
TCOPTIONALDATA
  5
3EF
102
{ACAD_REACTORS
330
3EE
102
}
330
3EE
100
TcOptionalData
 70
     1
 70
    32
 40
-3.0
  0
TCOPTIONALDATA
  5
3F2
102
{ACAD_REACTORS
330
3F1
102
}
330
3F1
100
TcOptionalData
 70
     1
 70
    32
 40
-3.0
  0
TCOPTIONALDATA
  5
3F5
102
{ACAD_REACTORS
330
3F4
102
}
330
3F4
100
TcOptionalData
 70
     1
 70
    32
 40
-3.0
  0
TCOPTIONALDATA
  5
3F8
102
{ACAD_REACTORS
330
3F7
102
}
330
3F7
100
TcOptionalData
 70
     1
 70
    32
 40
-3.0
  0
TCOPTIONALDATA
  5
3FB
102
{ACAD_REACTORS
330
3FA
102
}
330
3FA
100
TcOptionalData
 70
     1
 70
    32
 40
-3.0
  0
TCOPTIONALDATA
  5
3FE
102
{ACAD_REACTORS
330
3FD
102
}
330
3FD
100
TcOptionalData
 70
     1
 70
    32
 40
-3.0
  0
TCOPTIONALDATA
  5
401
102
{ACAD_REACTORS
330
400
102
}
330
400
100
TcOptionalData
 70
     1
 70
    32
 40
-3.0
  0
TCOPTIONALDATA
  5
404
102
{ACAD_REACTORS
330
403
102
}
330
403
100
TcOptionalData
 70
     1
 70
    32
 40
-3.0
  0
TCOPTIONALDATA
  5
407
102
{ACAD_REACTORS
330
406
102
}
330
406
100
TcOptionalData
 70
     1
 70
    32
 40
-3.0
  0
TCOPTIONALDATA
  5
40A
102
{ACAD_REACTORS
330
409
102
}
330
409
100
TcOptionalData
 70
     1
 70
    32
 40
-3.0
  0
TCOPTIONALDATA
  5
40D
102
{ACAD_REACTORS
330
40C
102
}
330
40C
100
TcOptionalData
 70
     1
 70
    32
 40
-3.0
  0
TCOPTIONALDATA
  5
410
102
{ACAD_REACTORS
330
40F
102
}
330
40F
100
TcOptionalData
 70
     1
 70
    32
 40
-3.0
  0
TCOPTIONALDATA
  5
413
102
{ACAD_REACTORS
330
412
102
}
330
412
100
TcOptionalData
 70
     1
 70
    32
 40
-3.0
  0
TCOPTIONALDATA
  5
416
102
{ACAD_REACTORS
330
415
102
}
330
415
100
TcOptionalData
 70
     1
 70
    32
 40
-3.0
  0
TCOPTIONALDATA
  5
419
102
{ACAD_REACTORS
330
418
102
}
330
418
100
TcOptionalData
 70
     1
 70
    32
 40
-3.0
  0
TCOPTIONALDATA
  5
41C
102
{ACAD_REACTORS
330
41B
102
}
330
41B
100
TcOptionalData
 70
     1
 70
    32
 40
-3.0
  0
TCOPTIONALDATA
  5
41F
102
{ACAD_REACTORS
330
41E
102
}
330
41E
100
TcOptionalData
 70
     1
 70
    32
 40
-3.0
  0
TCOPTIONALDATA
  5
422
102
{ACAD_REACTORS
330
421
102
}
330
421
100
TcOptionalData
 70
     1
 70
    32
 40
-3.0
  0
LAYOUT
  5
1E
102
{ACAD_REACTORS
330
1A
102
}
330
1A
100
AcDbPlotSettings
  1

  2
none_device
  4
ISO_A4_(210.00_x_297.00_MM)
  6

 40
4.18041658401489
 41
13.23975372314453
 42
4.18040466308594
 43
3.17498779296875
 44
210.0
 45
297.0
 46
-1.20634217591106
 47
0.0923129968142611
 48
0.0
 49
0.0
140
0.0
141
0.0
142
1.0
143
1.0
 70
   672
 72
     1
 73
     1
 74
     5
  7

 75
    16
 76
     0
 77
     2
 78
   300
147
1.0
148
0.0
149
0.0
100
AcDbLayout
  1
Layout1
 70
     1
 71
     1
 10
-2.97407440810383
 20
-13.33206671995879
 11
294.0259255918962
 21
196.6679332800412
 12
0.0
 22
0.0
 32
0.0
 14
-2.97407440810383
 24
-13.33206671995879
 34
0.0
 15
294.0259255918962
 25
196.6679332800412
 35
0.0
146
0.0
 13
0.0
 23
0.0
 33
0.0
 16
1.0
 26
0.0
 36
0.0
 17
0.0
 27
1.0
 37
0.0
 76
     0
330
1B
331
424
  0
LAYOUT
  5
3C
102
{ACAD_REACTORS
330
1A
102
}
330
1A
100
AcDbPlotSettings
  1

  2
none_device
  4
ISO_C5_(229.00_x_162.00_MM)
  6

 40
0.0
 41
0.0
 42
0.0
 43
0.0
 44
229.0
 45
162.0
 46
0.0
 47
0.0
 48
0.0
 49
0.0
140
0.0
141
0.0
142
1.0
143
1.0
 70
   672
 72
     1
 73
     0
 74
     5
  7

 75
    16
 76
     0
 77
     2
 78
   300
147
1.0
148
0.0
149
0.0
100
AcDbLayout
  1
Layout2
 70
     1
 71
     2
 10
0.0
 20
0.0
 11
162.0
 21
229.0
 12
0.0
 22
0.0
 32
0.0
 14
0.0
 24
0.0
 34
0.0
 15
162.0
 25
229.0
 35
0.0
146
0.0
 13
0.0
 23
0.0
 33
0.0
 16
1.0
 26
0.0
 36
0.0
 17
0.0
 27
1.0
 37
0.0
 76
     0
330
3B
331
426
  0
LAYOUT
  5
22
102
{ACAD_REACTORS
330
1A
102
}
330
1A
100
AcDbPlotSettings
  1

  2
none_device
  4
ISO_A4_(210.00_x_297.00_MM)
  6

 40
4.18041658401489
 41
13.23975372314453
 42
4.18040466308594
 43
3.17498779296875
 44
210.0
 45
297.0
 46
3.42041788911579
 47
-83.08387609728366
 48
0.0
 49
0.0
140
0.0
141
0.0
142
1.0
143
1.359216
 70
  1696
 72
     1
 73
     1
 74
     0
  7

 75
     0
 76
     0
 77
     2
 78
   300
147
1.0
148
0.0
149
0.0
100
AcDbLayout
  1
Model
 70
     1
 71
     0
 10
-10.33117582923079
 20
94.9332486368879
 11
393.356036706442
 21
380.3686514398888
 12
0.0
 22
0.0
 32
0.0
 14
-10.33117582923079
 24
94.9332486368879
 34
0.0
 15
393.356036706442
 25
380.3686514398888
 35
0.0
146
0.0
 13
0.0
 23
0.0
 33
0.0
 16
1.0
 26
0.0
 36
0.0
 17
0.0
 27
1.0
 37
0.0
 76
     0
330
1F
331
29
  0
MLINESTYLE
  5
18
102
{ACAD_REACTORS
330
17
102
}
330
17
100
AcDbMlineStyle
  2
Standard
 70
     0
  3

 62
   256
 51
90.0
 52
90.0
 71
     6
 49
0.5
 62
   256
  6
BYLAYER
 49
-0.5
 62
   256
  6
BYLAYER
 49
0.5
 62
   256
  6
BYLAYER
 49
-0.5
 62
   256
  6
BYLAYER
 49
0.5
 62
   256
  6
BYLAYER
 49
-0.5
 62
   256
  6
BYLAYER
  0
ACDBPLACEHOLDER
  5
F
102
{ACAD_REACTORS
330
E
102
}
330
E
  0
VISUALSTYLE
  5
2F
102
{ACAD_REACTORS
330
2A
102
}
330
2A
100
AcDbVisualStyle
  2
2dWireframe
 70
     4
 71
     0
 72
     2
 73
     0
 90
        0
 40
-0.6
 41
-30.0
 62
     5
 63
     7
421
 16777215
 74
     1
 91
        4
 64
     7
 65
   257
 75
     1
175
     1
 42
1.0
 92
        0
 66
   257
 43
1.0
 76
     1
 77
     6
 78
     2
 67
     7
 79
     5
170
     0
171
     0
290
     0
174
     0
 93
        1
 44
0.0
173
     0
291
     0
 45
0.0
1001
ACAD
1000
AcDbSavedByObjectVersion
1070
     0
  0
VISUALSTYLE
  5
31
102
{ACAD_REACTORS
330
2A
102
}
330
2A
100
AcDbVisualStyle
  2
3D Hidden
 70
     6
 71
     1
 72
     2
 73
     2
 90
        0
 40
-0.6
 41
-30.0
 62
     5
 63
     7
421
 16777215
 74
     2
 91
        2
 64
     7
 65
   257
 75
     2
175
     1
 42
40.0
 92
        0
 66
   257
 43
1.0
 76
     1
 77
     6
 78
     2
 67
     7
 79
     3
170
     0
171
     0
290
     0
174
     0
 93
        1
 44
0.0
173
     0
291
     0
 45
0.0
1001
ACAD
1000
AcDbSavedByObjectVersion
1070
     0
  0
VISUALSTYLE
  5
30
102
{ACAD_REACTORS
330
2A
102
}
330
2A
100
AcDbVisualStyle
  2
3dWireframe
 70
     5
 71
     0
 72
     2
 73
     0
 90
        0
 40
-0.6
 41
-30.0
 62
     5
 63
     7
421
 16777215
 74
     1
 91
        4
 64
     7
 65
   257
 75
     1
175
     1
 42
1.0
 92
        0
 66
   257
 43
1.0
 76
     1
 77
     6
 78
     2
 67
     7
 79
     5
170
     0
171
     0
290
     0
174
     0
 93
        1
 44
0.0
173
     0
291
     0
 45
0.0
1001
ACAD
1000
AcDbSavedByObjectVersion
1070
     0
  0
VISUALSTYLE
  5
32
102
{ACAD_REACTORS
330
2A
102
}
330
2A
100
AcDbVisualStyle
  2
Basic
 70
     7
 71
     1
 72
     0
 73
     1
 90
        0
 40
-0.6
 41
-30.0
 62
     5
 63
     7
421
 16777215
 74
     0
 91
        4
 64
     7
 65
   257
 75
     1
175
     1
 42
1.0
 92
        8
 66
     7
 43
1.0
 76
     1
 77
     6
 78
     2
 67
     7
 79
     5
170
     0
171
     0
290
     0
174
     0
 93
        1
 44
0.0
173
     0
291
     1
 45
0.0
1001
ACAD
1000
AcDbSavedByObjectVersion
1070
     0
  0
VISUALSTYLE
  5
36
102
{ACAD_REACTORS
330
2A
102
}
330
2A
100
AcDbVisualStyle
  2
Brighten
 70
    12
 71
     2
 72
     2
 73
     0
 90
        0
 40
-0.6
 41
-30.0
 62
     5
 63
     7
421
 16777215
 74
     1
 91
        4
 64
     7
 65
   257
 75
     1
175
     1
 42
1.0
 92
        8
 66
     7
 43
1.0
 76
     1
 77
     6
 78
     2
 67
     7
 79
     5
170
     0
171
     0
290
     0
174
     0
 93
        1
 44
50.0
173
     0
291
     1
 45
0.0
1001
ACAD
1000
AcDbSavedByObjectVersion
1070
     0
  0
VISUALSTYLE
  5
3A
102
{ACAD_REACTORS
330
2A
102
}
330
2A
100
AcDbVisualStyle
  2
ColorChange
 70
    16
 71
     2
 72
     2
 73
     3
 90
        0
 40
-0.6
 41
-30.0
 62
     5
 63
     8
421
  8421504
 74
     1
 91
        4
 64
     7
 65
   257
 75
     1
175
     1
 42
1.0
 92
        8
 66
     8
424
  8421504
 43
1.0
 76
     1
 77
     6
 78
     2
 67
     7
 79
     5
170
     0
171
     0
290
     0
174
     0
 93
        1
 44
0.0
173
     0
291
     1
 45
0.0
1001
ACAD
1000
AcDbSavedByObjectVersion
1070
     0
  0
VISUALSTYLE
  5
34
102
{ACAD_REACTORS
330
2A
102
}
330
2A
100
AcDbVisualStyle
  2
Conceptual
 70
     9
 71
     3
 72
     2
 73
     0
 90
        0
 40
-0.6
 41
-30.0
 62
     5
 63
     7
421
 16777215
 74
     2
 91
        2
 64
     7
 65
   257
 75
     1
175
     1
 42
40.0
 92
        8
 66
     7
 43
1.0
 76
     1
 77
     6
 78
     2
 67
     7
 79
     3
170
     0
171
     0
290
     0
174
     0
 93
        1
 44
0.0
173
     0
291
     0
 45
0.0
1001
ACAD
1000
AcDbSavedByObjectVersion
1070
     0
  0
VISUALSTYLE
  5
35
102
{ACAD_REACTORS
330
2A
102
}
330
2A
100
AcDbVisualStyle
  2
Dim
 70
    11
 71
     2
 72
     2
 73
     0
 90
        0
 40
-0.6
 41
-30.0
 62
     5
 63
     7
421
 16777215
 74
     1
 91
        4
 64
     7
 65
   257
 75
     1
175
     1
 42
1.0
 92
        8
 66
     7
 43
1.0
 76
     1
 77
     6
 78
     2
 67
     7
 79
     5
170
     0
171
     0
290
     0
174
     0
 93
        1
 44
-50.0
173
     0
291
     1
 45
0.0
1001
ACAD
1000
AcDbSavedByObjectVersion
1070
     0
  0
VISUALSTYLE
  5
39
102
{ACAD_REACTORS
330
2A
102
}
330
2A
100
AcDbVisualStyle
  2
Facepattern
 70
    15
 71
     2
 72
     2
 73
     0
 90
        0
 40
-0.6
 41
-30.0
 62
     5
 63
     7
421
 16777215
 74
     1
 91
        4
 64
     7
 65
   257
 75
     1
175
     1
 42
1.0
 92
        8
 66
     7
 43
1.0
 76
     1
 77
     6
 78
     2
 67
     7
 79
     5
170
     0
171
     0
290
     0
174
     0
 93
        1
 44
0.0
173
     0
291
     1
 45
0.0
1001
ACAD
1000
AcDbSavedByObjectVersion
1070
     0
  0
VISUALSTYLE
  5
2B
102
{ACAD_REACTORS
330
2A
102
}
330
2A
100
AcDbVisualStyle
  2
Flat
 70
     0
 71
     2
 72
     1
 73
     1
 90
        2
 40
-0.6
 41
30.0
 62
     5
 63
     7
421
 16777215
 74
     0
 91
        4
 64
     7
 65
   257
 75
     1
175
     1
 42
1.0
 92
        8
 66
     7
 43
1.0
 76
     1
 77
     6
 78
     2
 67
     7
 79
     5
170
     0
171
     0
290
     0
174
     0
 93
       13
 44
0.0
173
     0
291
     1
 45
0.0
1001
ACAD
1000
AcDbSavedByObjectVersion
1070
     0
  0
VISUALSTYLE
  5
2C
102
{ACAD_REACTORS
330
2A
102
}
330
2A
100
AcDbVisualStyle
  2
FlatWithEdges
 70
     1
 71
     2
 72
     1
 73
     1
 90
        2
 40
-0.6
 41
30.0
 62
     5
 63
     7
421
 16777215
 74
     1
 91
        4
 64
     7
 65
   257
 75
     1
175
     1
 42
1.0
 92
        0
 66
   257
 43
1.0
 76
     1
 77
     6
 78
     2
 67
     7
 79
     5
170
     0
171
     0
290
     0
174
     0
 93
       13
 44
0.0
173
     0
291
     1
 45
0.0
1001
ACAD
1000
AcDbSavedByObjectVersion
1070
     0
  0
VISUALSTYLE
  5
2D
102
{ACAD_REACTORS
330
2A
102
}
330
2A
100
AcDbVisualStyle
  2
Gouraud
 70
     2
 71
     2
 72
     2
 73
     1
 90
        2
 40
-0.6
 41
30.0
 62
     5
 63
     7
421
 16777215
 74
     0
 91
        4
 64
     7
 65
   257
 75
     1
175
     1
 42
1.0
 92
        0
 66
     7
 43
1.0
 76
     1
 77
     6
 78
     2
 67
     7
 79
     5
170
     0
171
     0
290
     0
174
     0
 93
       13
 44
0.0
173
     0
291
     1
 45
0.0
1001
ACAD
1000
AcDbSavedByObjectVersion
1070
     0
  0
VISUALSTYLE
  5
2E
102
{ACAD_REACTORS
330
2A
102
}
330
2A
100
AcDbVisualStyle
  2
GouraudWithEdges
 70
     3
 71
     2
 72
     2
 73
     1
 90
        2
 40
-0.6
 41
30.0
 62
     5
 63
     7
421
 16777215
 74
     1
 91
        4
 64
     7
 65
   257
 75
     1
175
     1
 42
1.0
 92
        0
 66
   257
 43
1.0
 76
     1
 77
     6
 78
     2
 67
     7
 79
     5
170
     0
171
     0
290
     0
174
     0
 93
       13
 44
0.0
173
     0
291
     1
 45
0.0
1001
ACAD
1000
AcDbSavedByObjectVersion
1070
     0
  0
VISUALSTYLE
  5
38
102
{ACAD_REACTORS
330
2A
102
}
330
2A
100
AcDbVisualStyle
  2
Linepattern
 70
    14
 71
     2
 72
     2
 73
     0
 90
        0
 40
-0.6
 41
-30.0
 62
     5
 63
     7
421
 16777215
 74
     1
 91
        4
 64
     7
 65
   257
 75
     7
175
     7
 42
1.0
 92
        8
 66
     7
 43
1.0
 76
     1
 77
     6
 78
     2
 67
     7
 79
     5
170
     0
171
     0
290
     0
174
     0
 93
        1
 44
0.0
173
     0
291
     1
 45
0.0
1001
ACAD
1000
AcDbSavedByObjectVersion
1070
     0
  0
VISUALSTYLE
  5
33
102
{ACAD_REACTORS
330
2A
102
}
330
2A
100
AcDbVisualStyle
  2
Realistic
 70
     8
 71
     2
 72
     2
 73
     0
 90
        0
 40
-0.6
 41
-30.0
 62
     5
 63
     7
421
 16777215
 74
     1
 91
        0
 64
     7
 65
   257
 75
     1
175
     1
 42
1.0
 92
        8
 66
     8
424
  7895160
 43
1.0
 76
     1
 77
     6
 78
     2
 67
     7
 79
     5
170
     0
171
     0
290
     0
174
     0
 93
       13
 44
0.0
173
     0
291
     0
 45
0.0
1001
ACAD
1000
AcDbSavedByObjectVersion
1070
     0
  0
VISUALSTYLE
  5
37
102
{ACAD_REACTORS
330
2A
102
}
330
2A
100
AcDbVisualStyle
  2
Thicken
 70
    13
 71
     2
 72
     2
 73
     0
 90
        0
 40
-0.6
 41
-30.0
 62
     5
 63
     7
421
 16777215
 74
     1
 91
        4
 64
     7
 65
   257
 75
     1
175
     1
 42
1.0
 92
       12
 66
     7
 43
1.0
 76
     1
 77
     6
 78
     2
 67
     7
 79
     5
170
     0
171
     0
290
     0
174
     0
 93
        1
 44
0.0
173
     0
291
     1
 45
0.0
1001
ACAD
1000
AcDbSavedByObjectVersion
1070
     0
  0
ENDSEC
  0
SECTION
  2
THUMBNAILIMAGE
 90
    16364
310
28000000B40000005500000001000800000000000000000000000000000000000000000000000000FFFFFF000000FF0000FFFF0000FF0000FFFF0000FF000000FF00FF000000000080808000C0C0C0000000FF007F7FFF000000A5005252A50000007F003F3F7F0000004C0026264C000000260013132600003FFF007F9FFF
310
000029A5005267A500001F7F003F4F7F0000134C00262F4C000009260013172600007FFF007FBFFF000052A500527CA500003F7F003F5F7F0000264C0026394C0000132600131C260000BFFF007FDFFF00007CA5005291A500005F7F003F6F7F0000394C0026424C00001C26001321260000FFFF007FFFFF0000A5A50052A5
310
A500007F7F003F7F7F00004C4C00264C4C00002626001326260000FFBF007FFFDF0000A57C0052A59100007F5F003F7F6F00004C3900264C420000261C001326210000FF7F007FFFBF0000A5520052A57C00007F3F003F7F5F00004C2600264C39000026130013261C0000FF3F007FFF9F0000A5290052A56700007F1F003F
310
7F4F00004C1300264C2F00002609001326170000FF00007FFF7F0000A5000052A55200007F00003F7F3F00004C0000264C260000260000132613003FFF00009FFF7F0029A5000067A552001F7F00004F7F3F00134C00002F4C260009260000172613007FFF0000BFFF7F0052A500007CA552003F7F00005F7F3F00264C0000
310
394C2600132600001C261300BFFF0000DFFF7F007CA5000091A552005F7F00006F7F3F00394C0000424C26001C26000021261300FFFF0000FFFF7F00A5A50000A5A552007F7F00007F7F3F004C4C00004C4C26002626000026261300FFBF0000FFDF7F00A57C0000A59152007F5F00007F6F3F004C3900004C422600261C00
310
0026211300FF7F0000FFBF7F00A5520000A57C52007F3F00007F5F3F004C2600004C39260026130000261C1300FF3F0000FF9F7F00A5290000A56752007F1F00007F4F3F004C1300004C2F26002609000026171300FF000000FF7F7F00A5000000A55252007F0000007F3F3F004C0000004C2626002600000026131300FF00
310
3F00FF7F9F00A5002900A55267007F001F007F3F4F004C0013004C262F002600090026131700FF007F00FF7FBF00A5005200A5527C007F003F007F3F5F004C0026004C2639002600130026131C00FF00BF00FF7FDF00A5007C00A55291007F005F007F3F6F004C0039004C26420026001C0026132100FF00FF00FF7FFF00A5
310
00A500A552A5007F007F007F3F7F004C004C004C264C002600260026132600BF00FF00DF7FFF007C00A5009152A5005F007F006F3F7F0039004C0042264C001C002600211326007F00FF00BF7FFF005200A5007C52A5003F007F005F3F7F0026004C0039264C00130026001C1326003F00FF009F7FFF002900A5006752A500
310
1F007F004F3F7F0013004C002F264C000900260017132600000000002D2D2D005B5B5B0089898900B7B7B700B3B3B30000000000000000000000000000000000000000000000000000000000000000000000000000000000000000000000000000000000000000000000000000000000000000000000000000000000000000
310
00000000000000000000000000000000000000000000000000000000000000000000000000000000000000000000000000000000000000000000000000000000000000000000000000000000000000000000000000000000000000000000000000000000000000000000000000000000000000000000000000000000000000
310
00000000000000000000000000000000000000000000000000000000000000000000000000000000000000000000000000000000000000000000000000000000000000000000000000000000000000000000000000000000000000000000000000000000000000000000000000000000000000000000000000000000000000
310
00000000000000000000000000000000000000000000000000000000000000000000000000000000000000000000000000000000000000000000000000000000000000000000000000000000000000000000000000000000000000000000000000000000000000000000000000000000000000000000000000000000000000
310
00000000000000000000000000000000000000000000000000000000000000000000000000000000000000000000000000000000000000000000000000000000000000000000000000000000000000000000000000000000000000000000000000000000000000000000000000000000000000000000000000000000000000
310
00000000000000000000000000000000000000000000000000000000000000000000000000000000000000000000000000000000000000000000000000000000000000000000000000000000000000000000000000000000000000000000000000000000000000000000000000000000000000000000000000000000000000
310
00000000000000000000000000000000000000000000000000000000000000000000000000000000000000000000000000000000000000000000000000000000000000000000000000000000000000000000000000000000000000000000000000000000000000000000000000000000000000000000000000000000000000
310
00000000000000000000000000000000000000000000000000000000000000000000000000000000000000000000000000000000000000000000000000000000000000000000000000000000000000000000000000000000000000000000000000000000000000000000000000000000000000000000000000000000000000
310
00000000000000000000000000000000000000000000000000000000000000000000000000000000000000000000000000000000000000000000000000000000000000000000000000000000000000000000000000000000000000000000000000000000000000000000000000000000000000000000000000000000000000
310
00000000000000000000000000000000000000000000000000000000000000000000000000000000000000000000000000000000000000000000000000000000000000000000000000000000000000000000000000000000000000000000000000000000000000000000000000000000000000000000000000000000000000
310
00000000000000000000000000000000000000000000000000000000000000000000000000000000000000000000000000000000000000000000000000000000000000000000000000000000000000000000000000000000000000000000000000000000000000000000000000000000000000000000000000000000000000
310
00000000000000000000000000000000000000000000000000000000000000000000000000000000000000000000000000000000000000000000000000000000000000000000000000000000000000000000000000000000000000000000000000000000000000000000000000000000000000000000000000000000000000
310
00000000000000000000000000000000000000000000000000000000000000000000000000000000000000000000000000000000000000000000000000000000000000000000000000000000000000000000000000000000000000000000000000000000000000000000000000000000000000000000000000000000000000
310
00000000000000000000000000000000000000000000000000000000000000000000000000000000000000000000000000000000000000000000000000000000000000000000000000000000000000000000000000000000000000000000000000000000000000000000000000000000000000000000000000000000000000
310
00000000000000000000000000000000000000000000000000000000000000000000000000000000000000000000000000000000000000000000000000000000000000000000000000000000000000000000000000000000000000000000000000000000000000000000000000000000000000000000000000000000000000
310
00000000000000000000000000000000000000000000000000000000000000000000000000000000000000000000000000000000000000000000000000000000000000000000000000000000000000000000000000000000000000000000000000000000000000000000000000000000000000000000000000000000000000
310
00000000000000000000000000000000000000000000000000000000000000000000000000000000000000000000000000000000000000000000000000000000000000000000000000000000000000000000000000000000000000000000000000000000000000000000000000000000000000000000000000000000000000
310
00000000000000000000000000000000000000000000000000000000000000000000000000000000000000000000000000000000000000000000000000000000000000000000000000000000000000000000000000000000000000000000000000000000000000000000000000000000000000000000000000000000000000
310
00000000000000000000000000000000000000000000000000000000000000000000000000000000000000000000000000000000000000000000000000000000000000000000000000000000000000000000000000000000000000000000000000000000000000000000000000000000000000000000000000000000000000
310
00000000000000000000000000000000000000000000000000000000000000000000000000000000000000000000000000000000000000000000000000000000000000000000000000000000000000000000000000000000000000000000000000000000000000000000000000000000000000000000000000000000000000
310
00000000000000000000000000000000000000000000000000000000000000000000000000000000000000000000000000000000000000000000000000000000000000000000000000000000000000000000000000000000000000000000000000000000000000000000000000000000000000000000000000000000000000
310
00000000000000000000000000000000000000000000000000000000000000000000000000000000000000000000000000000000000000000000000000000000000000000000000000000000000000000000000000000000000000000000000000000000000000000000000000000000000000000000000000000000000000
310
00000000000000000000000000000000000000000000000000000000000000000000000000000000000000000000000000000000000000000000000000000000000000000000000000000000000000000000000000000000000000000000000000000000000000000000000000000000000000000000000000000000000000
310
00000000000000000000000000000000000000000000000000000000000000000000000000000000000000000000000000000000000000000000000000000000000000000000000000000000000000000000000000000000000000000000000000000000000000000000000000000000000000000000000000000000000000
310
00000000000000000000000000000000000000000000000000000000000000000000000000000000000000000000000000000000000000000000000000000000000000000000000000000000000000000000000000000000000000000000000000000000000000000000000000000000000000000000000000000000000000
310
00000000000000000000000000000000000000000000000000000000000000000000000000000000000000000000000000000000000000000000000000000000000000000000000000000000000000000000000000000000000000000000000000000000000000000000000000000000000000000000000000000000000000
310
00000000000000000000000000000000000000000000000000000000000000000000000000000000000000000000000000000000000000000000000000000000000000000000000000000000000000000000000000000000000000000000000000000000000000000000000000000000000000000000000000000000000000
310
00000000000000000000000000000000000000000000000000000000000000000000000000000000000000000000000000000000000000000000000000000000000000000000000000000000000000000000000000000000000000000000000000000000000000000000000000000000000000000000000000000000000000
310
00000000000000000000000000000000000000000000000000000000000000000000000000000000000000000000000000000000000000000000000000000000000000000000000000000000000000000000000000000000000000000000000000000000000000000000000000000000000000000000000000000000000000
310
00000000000000000000000000000000000000000000000000000000000000000000000000000000000000000000000000000000000000000000000000000000000000000000000000000000000000000000000000000000000000000000000000000000000000000000000000000000000000000000000000000000000000
310
00000000000000000000000000000000000000000000000000000000000000000000000000000000000000000000000000000000000000000000000000000000000000000000000000000000000000000000000000000000000000000000000000000000000000000000000000000000000000000000000000000000000000
310
00000000000000000000000000000000000000000000000000000000000000000000000000000000000000000000000000000000000000000000000000000000000000000000000000000000000000000000000000000000000000000000000000000000000000000000000000000000000000000000000000000000000000
310
00000000000000000000000000000000000000000000000000000000000000000000000000000000000000000000000000000000000000000000000000000000000000000000000000000000000000000000000000000000000000000000000000000000000000000000000000000000000000000000000000000000000000
310
00000000000000000000000000000000000000000000000000000000000000000000000000000000000000000000000000000000000000000000000000000000000000000000000000000000000000000000000000000000000000000000000000000000000000000000000000000000000000000000000000000000000000
310
00000000000000000000000000000000000000000000000000000000000000000000000000000000000000000000000000000000000000000000000000000000000000000000000000000000000000000000000000000000000000000000000000000000000000000000000000000000000000000000000000000000000000
310
00000000000000000000000000000000000000000000000000000000000000000000000000000000000000000000000000000000000000000000000000000000000000000000000000000000000000000000000000000000000000000000000000000000000000000000000000000000000000000000000000000000000000
310
00000000000000000000000000000000000000000000000000000000000000000000000000000000000000000000000000000000000000000000000000000000000000000000000000000000000000000000000000000000000000000000000000000000000000000000000000000000000000000000000000000000000000
310
00000000000000000000000000000000000000000000000000000000000000000000000000000000000000000000000000000000000000000000000000000000000000000000000000000000000000000000000000000000000000000000000000000000000000000000000000000000000000000000000000000000000000
310
00000000000000000000000000000000000000000000000000000000000000000000000000000000000000000000000000000000000000000000000000000000000000000000000000000000000000000000000000000000000000000000000000000000000000000000000000000000000000000000000000000000000000
310
00000000000000000000000000000000000000000000000000000000000000000000000000000000000000000000000000000000000000000000000000000000000000000000000000000000000000000000000000000000000000000000000000000000000000000000000000000000000000000000000000000000000000
310
00000000000000000000000000000000000000000000000000000101010001010100010101000101010001010100010101000001010100010101000101010001010100010101000101010001010100000101010001010100010101000101010001010100010101000001010100000000000000000000000000000000000101
310
00000000000000000000000000000000000000000000000000000000000000000000000000000000000000000000000000000000000000000000000000000000000000000000000000000000000000010001000100010001000100010001000100010001000100000100010001000100010001000100010001000100010001
310
00010001000001000100010001000100010001000100010001000100010000010001000000000000000000000000000000010100000101000000000000000000000000000000000000000000000000000000000000000000000000000000000000000000000000000000000000000000000000000000000000000000000000
310
00000000000101010001010100010101000101010001010100010101000001010100010101000101010001010100010101000101010001010100000101010001010100010101000101010001010100010101000001010100000000000000000000000000000001000001000100000000000000000000000000000000000000
310
00000000000000000000000000000000000000000000000000000000000000000000000000000000000000000000000000000000000000000000010001000100010001000100010001000100010001000100000100010001000100010001000100010001000100010001000100010000010001000100010001000100010001
310
00010001000100010000010001000000000000000000000000000001000101000100010000000000000000000000000000000000000000000000000000000000000000000000000000000000000000000000000000000000000000000000000000000000000000000000000000000001010101010101010101010101010101
310
01010101010101010101010101010101010101010101010101010101010101010101010101010101010101010101010101010101010101010101010101010101010101010000000000000000000000000100000101000001000000000000000000000000000000000000000000000000000000000000000000000000000000
310
00000000000000000000000000000000000000000000000000000000000000000000000000010000000000000000000000000000000000000000000000000000000000000000000000000000000000000000000000000000000000000000000000000000000000000000000000000000000000000000000001000000000000
310
00000000000001000000000001010000000000000000000000000000000000000000000000000000000000000000000000000000000000000000000000000000000000000000000000000000000000000000000000000000000001000000000000000000000000000000000000000000000000000000000000000000000000
310
00000000000000000000000000000000000000000000000000000000000000000000000000000000000000000000010000000000000000000000000001000000000101000000000000000000000000000000000000000000000000000000000000000000000000000000000000000000000000000000000000000000000000
310
00000000000000000000000000000000010000000000000000000000000000000000000000000000000000000000000000000000000000000000000000000000000000000000000000000000000000000000000000000000000000000000000000000001000000000000000000000000000100000101000100000000000000
310
00000000000000000000000000000000000000000000000000000000000000000000000000000000000000000000000000000000000000000000000000000000000000000001000000000000000000000000000000000000000000000000000000000000000000000000000000000000000000000000000000000000000000
310
00000000000000000000000000000000000000000000000000010000000000000000000000000000010101010101000000000000000000000000000000000000000000000000000000000000000000000000000000000000000000000000000000000000000000000000000000000000000000000000000000000100000000
310
00000000000000000000000000000000000000000000000000000000000000000000000000000000000000000000000000000000000000000000000000000000000000000000000000000000000001000000000000000000000000000101000000000101010100000000000000000000000000000000000000000000000000
310
00000000000000000000000000000000000000000000000000000000000000000000000000000000000000000000000001000000000000000000000000000000000000000000000000000000000000000000000000000000000000000000000000000000000000000000000000000000000000000000000000000000000000
310
00000000010000000000000000000000000000000101000001000000010101010101010100000000000000000000000000000000000000000000000000000000000000000000000000000000000000000000000000000000000000000000000000000000000100000000000000000000000000000000000000000000000000
310
00000000000000000000000000000000000000000000000000000000000000000000000000000000000000000000000000000000000000000001000000000000000000000000000000000100000101010100000000000000000101010101010101000000000000000000000000000000000000000000000000000000000000
310
00000000000000000000000000000000000000000000000000000001000000000000000000000000000000000000000000000000000000000000000000000000000000000000000000000000000000000000000000000000000000000000000000000000000000000000000000000100000000000000000000000000000000
310
01000001000000010101010101010100000000000000000101010101010101000000000000000000000000000000000000000000000000000000000000000000000000000000000000000000000000000101010101010101010101010101010101010101010101010101010101010101010101010101010101010101010101
310
01010101010101010101010101010101010101010101010101010101010101010101010101000000000000000000000000000000000100000101010101010101010101010101010101010101010101010101010101010101010101010101010101010000000000000000000000000000000000000000000000000000000000
310
00000000000001010101010101010101010101010101010101010101010101010101010101010101010101010101010101010101010101010101010101010101010101010101010101010101010101010101010101010101010100000000000000000000000000000000010000010101010101010101010101010101010101
310
01010101010101010101010101010101010101010101010100000000000000000000000000000000000000000000000000000000000000000000000100000000000000000000000000000000000000000000000000000000000000000000000000000000000000000000000000000000000000000000000000000000000000
310
00000000000000000000000000000001000000000000000000000000000000000100000101010101010101010101010101010101010101010101010101010101010101010101010101010100000000000000000000000000000000000000000000000000000000000000000000000000010000000000000000000000000000
310
00000000000000000000000000000000000000000000000000000000000000000000000000000000000000000000000000000000000000000000000000000000000000000100000000000000000000000000000000010000010000000000000000000000000000000000000000000000000000000000000000000000000000
310
00000000000000000000000000000000000000000000000000000000000000000000000000000100000000000000000000000000000000000000000000000000000000000000000000000000000000000000000000000000000000000000000000000000000000000000000000000000000000000000000000010000000000
310
00000000000000000000010100000100000000000000000000000000000000000000000000000000000000000000000000000000000000000000000000000000000000000000000000000000000000000000000000000000000000010000000000000000000000000000000000000000000000000000000000000000000000
310
00000000000000000000000000000000000000000000000000000000000000000000000000000000000000000000000100000000000000000000000001010100000000010000000000000000000000000000000000000000000000000000000000000000000000000000000000000000000000000000000000000000000000
310
00000000000000000000000000000000000100000000000000000000000000000000000000000000000000000000000000000000000000000000000000000000000000000000000000000000000000000000000000000000000000000000000000000000010000000000000000000000000000010101000001000000000000
310
00000000000000000000000000000000000000000000000000000000000000000000000000000000000000000000000000000000000000000000000000000000000000000000010000000000000000000000000000000000000000000000000000000000000000000000000000000000000000000000000000000000000000
310
00000000000000000000000000000000000000000000000000000100000000000000000000000000010000010000070000000000000000000000000000000000000000000000000000000000000000000000000000000000000000000000000000000000000000000000000000000000000000000000000000000001000000
310
00000000000000000000000000000000000000000000000000000000000000000000000000000000000000000000000000000000000000000000000000000000000000000000000000000000000000010000000000000000000000000001000000010101000000000000000000000000000000000000000000000000000000
310
00000000000000000000000000000000000000000000000000000000000000000000000000000000000000000000000000010000000000000000000000000000000000000000000000000000000000000000000000000000000000000000000000000000000000000000000000000000000000000000000000000000000000
310
00000000000100000000000000000000000001000000000001010000000000000000000000000000000000000000000000000000000000000000000000000000000000000000000000000000000000000000000000000000000000000000000000000000000001010101010101010101010101010101010101010101010101
310
01010101010101010101010101010101010101010101010101010101010101010101010101010101010101010101010101010101010101010101010000000000000000000000000100000001000001000000000000000000000000000000000000000000000000000000000000000000000000000000000000000000000000
310
00000000000000000000000000000000000000000000000000000000000001000100010001000100010001000100010001000100010000010001000100010001000100010001000100010001000100000100010001000100010001000100010001000100010001000100010000010001000000000000000000000000010001
310
01000100010000000000000000000000000000000000000000000000000000000000000000000000000000000000000000000000000000000000000000000000000000000000000000000000000000000000000101010001010100010101000101010001010100010101000001010100010101000101010001010100010101
310
00010101000001010100010101000101010001010100010101000101010001010100000101010000000000000000000000000001000101000100000000000000000000000000000000000000000000000000000000000000000000000000000000000000000000000000000000000000000000000000000000000000000000
310
00000000000000000001000100010001000100010001000100010001000100010000010001000100010001000100010001000100010001000100000100010001000100010001000100010001000100010001000100010000010001000000000000000000000000000100000001010000000000000000000000000000000000
310
00000000000000000000000000000000000000000000000000000000000000000000000000000000000000000000000000000000000000000000000000000101010001010100010101000101010001010100010101000001010100010101000101010001010100010101000101010000010101000101010001010100010101
310
00010101000101010001010100000101010000000000000000000000000000010101000000000000000000000000000000000000000000000000000000000000000000000000000000000000000000000000000000000000000000000000000000000000000000000000000000000000000000000000000000000000000000
310
00000000000000000000000000000000000000000000000000000000000000000000000000000000000000000000000000000000000000000000000000000000000000000000000000000000000000000000000000000000000000000000000000000000000000000000000000000000000000000000000000000000000000
310
00000000000000000000000000000000000000000000000000000000000000000000000000000000000000000000000000000000000000000000000000000000000000000000000000000000000000000000000000000000000000000000000000000000000000000000000000000000000000000000000000000000000000
310
00000000000000000000000000000000000000000000000000000000000000000000000000000000000000000000000000000000000000000000000000000000000000000000000000000000000000000000000000000000000000000000000000000000000000000000000000000000000000000000000000000000000000
310
00000000000000000000000000000000000000000000000000000000000000000000000000000000000000000000000000000000000000000000000000000000000000000000000000000000000000000000000000000000000000000000000000000000000000000000000000000000000000000000000000000000000000
310
00000000000000000000000000000000000000000000000000000000000000000000000000000000000000000000000000000000000000000000000000000000000000000000000000000000000000000000000000000000000000000000000000000000000000000000000000000000000000000000000000000000000000
310
00000000000000000000000000000000000000000000000000000000000000000000000000000000000000000000000000000000000000000000000000000000000000000000000000000000000000000000000000000000000000000000000000000000000000000000000000000000000000000000000000000000000000
310
00000000000000000000000000000000000000000000000000000000000000000000000000000000000000000000000000000000000000000000000000000000000000000000000000000000000000000000000000000000000000000000000000000000000000000000000000000000000000000000000000000000000000
310
00000000000000000000000000000000000000000000000000000000000000000000000000000000000000000000000000000000000000000000000000000000000000000000000000000000000000000000000000000000000000000000000000000000000000000000000000000000000000000000000000000000000000
310
00000000000000000000000000000000000000000000000000000000000000000000000000000000000000000000000000000000000000000000000000000000000000000000000000000000000000000000000000000000000000000000000000000000000000000000000000000000000000000000000000000000000000
310
00000000000000000000000000000000000000000000000000000000000000000000000000000000000000000000000000000000000000000000000000000000000000000000000000000000000000000000000000000000000000000000000000000000000000000000000000000000000000000000000000000000000000
310
00000000000000000000000000000000000000000000000000000000000000000000000000000000000000000000000000000000000000000000000000000000000000000000000000000000000000000000000000000000000000000000000000000000000000000000000000000000000000000000000000000000000000
310
00000000000000000000000000000000000000000000000000000000000000000000000000000000000000000000000000000000000000000000000000000000000000000000000000000000000000000000000000000000000000000000000000000000000000000000000000000000000000000000000000000000000000
310
00000000000000000000000000000000000000000000000000000000000000000000000000000000000000000000000000000000000000000000000000000000000000000000000000000000000000000000000000000000000000000000000000000000000000000000000000000000000000000000000000000000000000
310
00000000000000000000000000000000000000000000000000000000000000000000000000000000000000000000000000000000000000000000000000000000000000000000000000000000000000000000000000000000000000000000000000000000000000000000000000000000000000000000000000000000000000
310
00000000000000000000000000000000000000000000000000000000000000000000000000000000000000000000000000000000000000000000000000000000000000000000000000000000000000000000000000000000000000000000000000000000000000000000000000000000000000000000000000000000000000
310
00000000000000000000000000000000000000000000000000000000000000000000000000000000000000000000000000000000000000000000000000000000000000000000000000000000000000000000000000000000000000000000000000000000000000000000000000000000000000000000000000000000000000
310
00000000000000000000000000000000000000000000000000000000000000000000000000000000000000000000000000000000000000000000000000000000000000000000000000000000000000000000000000000000000000000000000000000000000000000000000000000000000000000000000000000000000000
310
00000000000000000000000000000000000000000000000000000000000000000000000000000000000000000000000000000000000000000000000000000000000000000000000000000000000000000000000000000000000000000000000000000000000000000000000000000000000000000000000000000000000000
310
00000000000000000000000000000000000000000000000000000000000000000000000000000000000000000000000000000000000000000000000000000000000000000000000000000000000000000000000000000000000000000000000000000000000000000000000000000000000000000000000000000000000000
310
00000000000000000000000000000000000000000000000000000000000000000000000000000000000000000000000000000000000000000000000000000000000000000000000000000000000000000000000000000000000000000000000000000000000000000000000000000000000000000000000000000000000000
310
00000000000000000000000000000000000000000000000000000000000000000000000000000000000000000000000000000000000000000000000000000000000000000000000000000000000000000000000000000000000000000000000000000000000000000000000000000000000000000000000000000000000000
310
00000000000000000000000000000000000000000000000000000000000000000000000000000000000000000000000000000000000000000000000000000000000000000000000000000000000000000000000000000000000000000000000000000000000000000000000000000000000000000000000000000000000000
310
00000000000000000000000000000000000000000000000000000000000000000000000000000000000000000000000000000000000000000000000000000000000000000000000000000000000000000000000000000000000000000000000000000000000000000000000000000000000000000000000000000000000000
310
00000000000000000000000000000000000000000000000000000000000000000000000000000000000000000000000000000000000000000000000000000000000000000000000000000000000000000000000000000000000000000000000000000000000000000000000000000000000000000000000000000000000000
310
00000000000000000000000000000000000000000000000000000000000000000000000000000000000000000000000000000000000000000000000000000000000000000000000000000000000000000000000000000000000000000000000000000000000000000000000000000000000000000000000000000000000000
310
00000000000000000000000000000000000000000000000000000000000000000000000000000000000000000000000000000000000000000000000000000000000000000000000000000000000000000000000000000000000000000000000000000000000000000000000000000000000000000000000000000000000000
310
00000000000000000000000000000000000000000000000000000000000000000000000000000000000000000000000000000000000000000000000000000000000000000000000000000000000000000000000000000000000000000000000000000000000000000000000000000000000000000000000000000000000000
310
00000000000000000000000000000000000000000000000000000000000000000000000000000000000000000000000000000000000000000000000000000000000000000000000000000000000000000000000000000000000000000000000000000000000000000000000000000000000000000000000000000000000000
310
00000000000000000000000000000000000000000000000000000000000000000000000000000000000000000000000000000000000000000000000000000000000000000000000000000000000000000000000000000000000000000000000000000000000000000000000000000000000000000000000000000000000000
310
00000000000000000000000000000000000000000000000000000000000000000000000000000000000000000000000000000000000000000000000000000000000000000000000000000000000000000000000000000000000000000000000000000000000000000000000000000000000000000000000000000000000000
310
00000000000000000000000000000000000000000000000000000000000000000000000000000000000000000000000000000000000000000000000000000000000000000000000000000000000000000000000000000000000000000000000000000000000000000000000000000000000000000000000000000000000000
310
00000000000000000000000000000000000000000000000000000000000000000000000000000000000000000000000000000000000000000000000000000000000000000000000000000000000000000000000000000000000000000000000000000000000000000000000000000000000000000000000000000000000000
310
00000000000000000000000000000000000000000000000000000000000000000000000000000000000000000000000000000000000000000000000000000000000000000000000000000000000000000000000000000000000000000000000000000000000000000000000000000000000000000000000000000000000000
310
00000000000000000000000000000000000000000000000000000000000000000000000000000000000000000000000000000000000000000000000000000000000000000000000000000000000000000000000000000000000000000000000000000000000000000000000000000000000000000000000000000000000000
310
00000000000000000000000000000000000000000000000000000000000000000000000000000000000000000000000000000000000000000000000000000000000000000000000000000000000000000000000000000000000000000000000000000000000000000000000000000000000000000000000000000000000000
310
00000000000000000000000000000000000000000000000000000000000000000000000000000000000000000000000000000000000000000000000000000000000000000000000000000000000000000000000000000000000000000000000000000000000000000000000000000000000000000000000000000000000000
310
00000000000000000000000000000000000000000000000000000000000000000000000000000000000000000000000000000000000000000000000000000000000000000000000000000000000000000000000000000000000000000000000000000000000000000000000000000000000000000000000000000000000000
310
00000000000000000000000000000000000000000000000000000000000000000000000000000000000000000000000000000000000000000000000000000000000000000000000000000000000000000000000000000000000000000000000000000000000000000000000000000000000000000000000000000000000000
310
00000000000000000000000000000000000000000000000000000000000000000000000000000000000000000000000000000000000000000000000000000000000000000000000000000000000000000000000000000000000000000000000000000000000000000000000000000000000000000000000000000000000000
310
00000000000000000000000000000000000000000000000000000000000000000000000000000000000000000000000000000000000000000000000000000000000000000000000000000000000000000000000000000000000000000000000000000000000000000000000000000000000000000000000000000000000000
310
000000000000000000000000000000000000000000000000000000000000000000000000000000000000000000000000000000000000000000000000000000000000000000000000000000000000000000000000000000000000000000000000000000000000000000000000
  0
ENDSEC
  0
EOF
