999
DXF file: s10-z06-rd25MM.dxf
999
Pro/ENGINEER 2012230 by Parametric Technology Corporation
  0
SECTION
  2
HEADER
  9
$ACADVER
  1
AC1021
  9
$DWGCODEPAGE
  3
ANSI_1252
  9
$EXTMAX
 10
297.0
 20
210.0
 30
0.0
  9
$EXTMIN
 10
0.0
 20
0.0
 30
0.0
  9
$LIMMIN
 10
0.0
 20
0.0
  9
$LIMMAX
 10
297.0
 20
210.0
  9
$VIEWCTR
 10
148.5
 20
105.0
  9
$VIEWSIZE
 40
210.0
  9
$CLAYER
  8
0
  9
$LTSCALE
 40
16.335
  9
$CELTYPE
  6
BYLAYER
  9
$DIMSCALE
 40
1.0
  9
$DIMASZ
 40
3.5
  9
$DIMEXO
 40
0.0
  9
$DIMDLI
 40
11.286
  9
$DIMEXE
 40
1.5
  9
$DIMCEN
 40
2.673
  9
$DIMLFAC
 40
1.0
  9
$DIMBLK
  1
_FILLED
  9
$DIMTXT
 40
3.5
  9
$DIMTOL
 70
1
  9
$DIMLIM
 70
0
  9
$DIMTFAC
 40
1.0
  9
$DIMTP
 40
0.005
  9
$DIMTM
 40
0.005
  9
$DIMGAP
 40
0.625
  9
$DIMDSEP
 70
46
  9
$PDMODE
 70
3
  9
$PDSIZE
 40
0.3125
  9
$HANDSEED
  5
6A5
  9
$TILEMODE
 70
1
  9
$MEASUREMENT
 70
1
  9
$INSUNITS
 70
4
  0
ENDSEC
  0
SECTION
  2
CLASSES
  0
CLASS
  1
ACDBDICTIONARYWDFLT
  2
AcDbDictionaryWithDefault
  3
AutoCAD 2000
 90
0
 91
1
280
0
281
0
  0
CLASS
  1
ACDBPLACEHOLDER
  2
AcDbPlaceHolder
  3
AutoCAD 2000
 90
0
 91
1
280
0
281
0
  0
CLASS
  1
LAYOUT
  2
AcDbLayout
  3
AutoCAD 2000
 90
0
 91
0
280
0
281
0
  0
ENDSEC
  0
SECTION
  2
TABLES
  0
TABLE
  2
VPORT
  5
8
100
AcDbSymbolTable
 70
2
  0
VPORT
  5
1F4
100
AcDbSymbolTableRecord
100
AcDbViewportTableRecord
  2
*ACTIVE
 70
0
 10
0.0
 20
0.0
 11
1.0
 21
1.0
 12
148.5
 22
105.0
 13
0.0
 23
0.0
 14
1.0
 24
1.0
 15
0.0
 25
0.0
 16
0.0
 26
0.0
 36
1.0
 17
0.0
 27
0.0
 37
0.0
 40
210.0
 41
1.4142857143
 42
50.0
 43
0.0
 44
0.0
 50
0.0
 51
0.0
 71
0
 72
100
 73
1
 74
1
 75
0
 76
0
 77
0
 78
0
  0
ENDTAB
  0
TABLE
  2
LTYPE
  5
5
100
AcDbSymbolTable
 70
6
  0
LTYPE
  5
14
100
AcDbSymbolTableRecord
100
AcDbLinetypeTableRecord
  2
BYBLOCK
 70
0
  3

 72
65
 73
0
 40
0.0
  0
LTYPE
  5
15
100
AcDbSymbolTableRecord
100
AcDbLinetypeTableRecord
  2
BYLAYER
 70
0
  3

 72
65
 73
0
 40
0.0
  0
LTYPE
  5
16
100
AcDbSymbolTableRecord
100
AcDbLinetypeTableRecord
  2
CONTINUOUS
 70
64
  3
Solid line
 72
65
 73
0
 40
0.0
  0
LTYPE
  5
1F5
100
AcDbSymbolTableRecord
100
AcDbLinetypeTableRecord
  2
CENTER
 70
64
  3
____ _ ____ _ ____ _ ____ _ ____ _ ____ _ ____
 72
65
 73
4
 40
0.6
 49
0.375
 74
0
 49
-0.075
 74
0
 49
0.075
 74
0
 49
-0.075
 74
0
  0
LTYPE
  5
1F6
100
AcDbSymbolTableRecord
100
AcDbLinetypeTableRecord
  2
HIDDEN
 70
64
  3
- - - - - - - - - - - - - - - - - - - -
 72
65
 73
2
 40
0.2
 49
0.1
 74
0
 49
-0.1
 74
0
  0
LTYPE
  5
1F7
100
AcDbSymbolTableRecord
100
AcDbLinetypeTableRecord
  2
PHANTOM
 70
64
  3
_____ _ _ _____ _ _ _____ _ _ _____
 72
65
 73
6
 40
0.8
 49
0.45
 74
0
 49
-0.05
 74
0
 49
0.1
 74
0
 49
-0.05
 74
0
 49
0.1
 74
0
 49
-0.05
 74
0
  0
LTYPE
  5
1F8
100
AcDbSymbolTableRecord
100
AcDbLinetypeTableRecord
  2
DOT
 70
64
  3
. . . . . . . . . . . . . . . . . . . .
 72
65
 73
2
 40
0.2
 49
0.1
 74
0
 49
-0.1
 74
0
  0
LTYPE
  5
1F9
100
AcDbSymbolTableRecord
100
AcDbLinetypeTableRecord
  2
DASHED
 70
64
  3
- - - - - - - - - - - - - - - - - - - -
 72
65
 73
2
 40
0.2
 49
0.1
 74
0
 49
-0.1
 74
0
  0
ENDTAB
  0
TABLE
  2
LAYER
  5
2
100
AcDbSymbolTable
 70
36
  0
LAYER
  5
10
100
AcDbSymbolTableRecord
100
AcDbLayerTableRecord
  2
0
 70
0
 62
7
  6
CONTINUOUS
370
-3
390
F
  0
LAYER
  5
1FA
100
AcDbSymbolTableRecord
100
AcDbLayerTableRecord
  2
DEFAULT_1
 70
0
 62
7
  6
CENTER
370
-3
390
F
  0
LAYER
  5
1FB
100
AcDbSymbolTableRecord
100
AcDbLayerTableRecord
  2
DEFAULT_2
 70
0
 62
8
  6
HIDDEN
370
-3
390
F
  0
LAYER
  5
1FC
100
AcDbSymbolTableRecord
100
AcDbLayerTableRecord
  2
DEFAULT_3
 70
0
 62
7
  6
PHANTOM
370
-3
390
F
  0
LAYER
  5
1FD
100
AcDbSymbolTableRecord
100
AcDbLayerTableRecord
  2
ALLE
 70
0
 62
7
  6
CONTINUOUS
370
-3
390
F
  0
LAYER
  5
1FE
100
AcDbSymbolTableRecord
100
AcDbLayerTableRecord
  2
AUSFORMSCHRAEGEN
 70
0
 62
7
  6
CONTINUOUS
370
-3
390
F
  0
LAYER
  5
1FF
100
AcDbSymbolTableRecord
100
AcDbLayerTableRecord
  2
BEZUGSACHSEN
 70
0
 62
7
  6
CONTINUOUS
370
-3
390
F
  0
LAYER
  5
200
100
AcDbSymbolTableRecord
100
AcDbLayerTableRecord
  2
BEZUGSEBENE
 70
0
 62
7
  6
CONTINUOUS
370
-3
390
F
  0
LAYER
  5
201
100
AcDbSymbolTableRecord
100
AcDbLayerTableRecord
  2
BEZUGSEBENEN
 70
0
 62
7
  6
CONTINUOUS
370
-3
390
F
  0
LAYER
  5
202
100
AcDbSymbolTableRecord
100
AcDbLayerTableRecord
  2
BEZUGSEBENEN-KES
 70
0
 62
7
  6
CONTINUOUS
370
-3
390
F
  0
LAYER
  5
203
100
AcDbSymbolTableRecord
100
AcDbLayerTableRecord
  2
BEZUGSPUNKT-KES
 70
0
 62
7
  6
CONTINUOUS
370
-3
390
F
  0
LAYER
  5
204
100
AcDbSymbolTableRecord
100
AcDbLayerTableRecord
  2
BEZUGSPUNKTE
 70
0
 62
7
  6
CONTINUOUS
370
-3
390
F
  0
LAYER
  5
205
100
AcDbSymbolTableRecord
100
AcDbLayerTableRecord
  2
BOHRUNGEN
 70
0
 62
7
  6
CONTINUOUS
370
-3
390
F
  0
LAYER
  5
206
100
AcDbSymbolTableRecord
100
AcDbLayerTableRecord
  2
FASEN
 70
0
 62
7
  6
CONTINUOUS
370
-3
390
F
  0
LAYER
  5
207
100
AcDbSymbolTableRecord
100
AcDbLayerTableRecord
  2
FLAECHEN
 70
0
 62
7
  6
CONTINUOUS
370
-3
390
F
  0
LAYER
  5
208
100
AcDbSymbolTableRecord
100
AcDbLayerTableRecord
  2
GESTEUERTE
 70
0
 62
7
  6
CONTINUOUS
370
-3
390
F
  0
LAYER
  5
209
100
AcDbSymbolTableRecord
100
AcDbLayerTableRecord
  2
GEWINDE
 70
0
 62
7
  6
CONTINUOUS
370
-3
390
F
  0
LAYER
  5
20A
100
AcDbSymbolTableRecord
100
AcDbLayerTableRecord
  2
KURVEN
 70
0
 62
7
  6
CONTINUOUS
370
-3
390
F
  0
LAYER
  5
20B
100
AcDbSymbolTableRecord
100
AcDbLayerTableRecord
  2
PARAMETER-BEMAßUNGEN
 70
0
 62
7
  6
CONTINUOUS
370
-3
390
F
  0
LAYER
  5
20C
100
AcDbSymbolTableRecord
100
AcDbLayerTableRecord
  2
RUNDUNGEN
 70
0
 62
7
  6
CONTINUOUS
370
-3
390
F
  0
LAYER
  5
20D
100
AcDbSymbolTableRecord
100
AcDbLayerTableRecord
  2
SAMMELFLÄCHEN
 70
0
 62
7
  6
CONTINUOUS
370
-3
390
F
  0
LAYER
  5
20E
100
AcDbSymbolTableRecord
100
AcDbLayerTableRecord
  2
ZEICHNUNGSBEMASSUNGEN
 70
0
 62
7
  6
CONTINUOUS
370
-3
390
F
  0
LAYER
  5
20F
100
AcDbSymbolTableRecord
100
AcDbLayerTableRecord
  2
ZEICHNUNGSNOTIZEN
 70
0
 62
7
  6
CONTINUOUS
370
-3
390
F
  0
ENDTAB
  0
TABLE
  2
STYLE
  5
3
100
AcDbSymbolTable
 70
1
  0
STYLE
  5
11
100
AcDbSymbolTableRecord
100
AcDbTextStyleTableRecord
  2
STANDARD
 70
0
 40
0.0
 41
0.7
 50
0.0
 71
0
 42
0.2
  3
txt
  4

  0
STYLE
  5
210
100
AcDbSymbolTableRecord
100
AcDbTextStyleTableRecord
  2
TEXTSTYLE_1
 70
0
 40
0.0
 41
0.8
 50
0.0
 71
0
 42
0.2
  3
gdt
  4

  0
ENDTAB
  0
TABLE
  2
VIEW
  5
6
100
AcDbSymbolTable
 70
0
  0
ENDTAB
  0
TABLE
  2
UCS
  5
7
100
AcDbSymbolTable
 70
0
  0
ENDTAB
  0
TABLE
  2
APPID
  5
9
100
AcDbSymbolTable
 70
1
  0
APPID
  5
211
100
AcDbSymbolTableRecord
100
AcDbRegAppTableRecord
  2
ACAD
 70
0
  0
ENDTAB
  0
TABLE
  2
BLOCK_RECORD
  5
1
100
AcDbSymbolTable
 70
0
  0
BLOCK_RECORD
  5
212
100
AcDbSymbolTableRecord
100
AcDbBlockTableRecord
  2
*Model_Space
  0
BLOCK_RECORD
  5
213
100
AcDbSymbolTableRecord
100
AcDbBlockTableRecord
  2
*Paper_Space
  0
ENDTAB
  0
TABLE
  2
DIMSTYLE
  5
A
100
AcDbSymbolTable
 70
1
100
AcDbDimStyleTable
 71
0
  0
DIMSTYLE
105
214
100
AcDbSymbolTableRecord
100
AcDbDimStyleTableRecord
  2
STANDARD
 70
0
  3

  4

 40
1.0
 41
3.5
 42
0.0
 43
0.38
 44
1.5
 45
0.0
 46
0.0
 47
0.005
 48
0.005
140
3.5
141
0.09
142
0.0
143
25.4
144
1.0
145
0.0
146
1.0
147
0.625
 71
1.0
 72
0.0
 73
0
 74
0
 75
0
 76
0
 77
1
 78
8
170
0
171
2
172
0
173
0
174
0
175
0
176
0
177
0
178
5
270
2
271
3
272
3
273
2
274
2
275
0
280
0
281
0
282
0
283
1
284
8
285
0
286
0
287
3
288
0
340
11
278
46
  0
ENDTAB
  0
ENDSEC
  0
SECTION
  2
BLOCKS
  0
BLOCK
  5
20
100
AcDbEntity
  8
0
100
AcDbBlockBegin
  2
*Model_Space
 70
0
 10
0.0
 20
0.0
 30
0.0
  3
*Model_Space
  1

  0
ENDBLK
  5
21
100
AcDbEntity
  8
0
100
AcDbBlockEnd
  0
BLOCK
  5
1C
100
AcDbEntity
  8
0
100
AcDbBlockBegin
  2
*Paper_Space
 70
0
 10
0.0
 20
0.0
 30
0.0
  3
*Paper_Space
  1

  0
ENDBLK
  5
1D
100
AcDbEntity
  8
0
100
AcDbBlockEnd
  0
ENDSEC
  0
SECTION
  2
ENTITIES
  0
HATCH
  5
215
100
AcDbEntity
  8
0
100
AcDbHatch
 62
2
  6
CONTINUOUS
 10
0.0
 20
0.0
 30
0.0
210
0.0
220
0.0
230
1.0
  2
E
 70
0
 71
0
 91
1
 92
1
 93
16
 72
1
 10
233.875
 20
128.25
 11
205.875
 21
128.25
 72
1
 10
205.875
 20
128.25
 11
205.875
 21
129.1874225238
 72
4
 94
3
 73
0
 74
0
 95
12
 96
8
 40
0.0
 40
0.0
 40
0.0
 40
0.0
 40
0.2
 40
0.4
 40
0.6
 40
0.8
 40
1.0
 40
1.0
 40
1.0
 40
1.0
 10
205.875
 20
129.1874225238
 10
205.8757672686
 20
129.2943255931
 10
205.9071176528
 20
129.49691327
 10
206.0493001428
 20
129.7800117815
 10
206.2695114278
 20
130.0037101471
 10
206.5503400185
 20
130.1503229561
 10
206.7524129462
 20
130.184852382
 10
206.8592926827
 20
130.1872991563
 72
1
 10
206.8592926827
 20
130.1872991563
 11
214.1883063503
 21
130.3024325033
 72
2
 10
214.1725616866
 20
131.302180414
 40
0.9998752341
 50
270.9022556605
 51
337.1656079381
 73
1
 72
2
 10
217.675
 20
129.8272987214
 40
2.8
 50
101.9608631626
 51
157.1633881725
 73
1
 72
2
 10
216.8253016576
 20
133.8382851817
 40
1.3000001235
 50
281.9608627762
 51
359.0912740135
 73
1
 72
4
 94
3
 73
0
 74
0
 95
13
 96
9
 40
0.0
 40
0.0
 40
0.0
 40
0.0
 40
0.1666666667
 40
0.3333333333
 40
0.5
 40
0.6666666667
 40
0.8333333333
 40
1.0
 40
1.0
 40
1.0
 40
1.0
 10
218.1251383486
 20
133.8176677045
 10
218.1270866966
 20
133.9147483866
 10
218.1542194567
 20
134.1013372057
 10
218.2676180774
 20
134.3668196562
 10
218.4447423147
 20
134.5929507569
 10
218.6736537382
 20
134.7664674083
 10
218.9408994698
 20
134.8756423971
 10
219.1278983597
 20
134.8998132975
 10
219.225
 20
134.90022214
 72
1
 10
219.225
 20
134.90022214
 11
220.525
 21
134.90022214
 72
4
 94
3
 73
0
 74
0
 95
13
 96
9
 40
0.0
 40
0.0
 40
0.0
 40
0.0
 40
0.1666666667
 40
0.3333333333
 40
0.5
 40
0.6666666667
 40
0.8333333333
 40
1.0
 40
1.0
 40
1.0
 40
1.0
 10
220.525
 20
134.90022214
 10
220.6221011813
 20
134.8998133614
 10
220.8090993796
 20
134.8756426341
 10
221.0763451427
 20
134.76646803
 10
221.3052564942
 20
134.5929519219
 10
221.4823809206
 20
134.366821152
 10
221.5957799012
 20
134.1013399324
 10
221.6229130646
 20
133.9147495505
 10
221.6248616509
 20
133.8176677397
 72
2
 10
222.9246981444
 20
133.8382852669
 40
1.2999999981
 50
180.9087283248
 51
258.0391399538
 73
1
 72
2
 10
222.075
 20
129.8272987214
 40
2.8
 50
22.8366124087
 51
78.0391398948
 73
1
 72
2
 10
225.5774282787
 20
131.3021662139
 40
0.9998590262
 50
202.8338636363
 51
269.0983065617
 73
1
 72
1
 10
225.5616936511
 20
130.3024325032
 11
232.8907073173
 21
130.1872991563
 72
4
 94
3
 73
0
 74
0
 95
12
 96
8
 40
0.0
 40
0.0
 40
0.0
 40
0.0
 40
0.2
 40
0.4
 40
0.6
 40
0.8
 40
1.0
 40
1.0
 40
1.0
 40
1.0
 10
232.8907073173
 20
130.1872991563
 10
232.9975870538
 20
130.184852382
 10
233.1996599816
 20
130.1503229561
 10
233.4804885722
 20
130.0037101471
 10
233.7006998572
 20
129.7800117814
 10
233.8428823472
 20
129.49691327
 10
233.8742327314
 20
129.294325593
 10
233.875
 20
129.1874225238
 72
1
 10
233.875
 20
129.1874225238
 11
233.875
 21
128.25
 97
0
 75
0
 76
0
 52
45.0
 41
3.3462437633
 77
0
 78
1
 53
45.0
 43
0.0
 44
0.0
 45
-2.3661516566
 46
2.3661516566
 79
0
 98
1
 10
0.0
 20
0.0
  0
LINE
  5
216
100
AcDbEntity
  8
0
100
AcDbLine
 62
7
  6
CONTINUOUS
 10
0.0
 20
0.0
 11
0.0
 21
210.0
  0
LINE
  5
217
100
AcDbEntity
  8
0
100
AcDbLine
 62
7
  6
CONTINUOUS
 10
0.0
 20
0.0
 11
297.0
 21
0.0
  0
LINE
  5
218
100
AcDbEntity
  8
0
100
AcDbLine
 62
7
  6
CONTINUOUS
 10
0.0
 20
210.0
 11
297.0
 21
210.0
  0
LINE
  5
219
100
AcDbEntity
  8
0
100
AcDbLine
 62
7
  6
CONTINUOUS
 10
297.0
 20
0.0
 11
297.0
 21
210.0
  0
LINE
  5
21A
100
AcDbEntity
  8
RUNDUNGEN
100
AcDbLine
 62
7
  6
CONTINUOUS
 10
86.6630726946
 20
116.5575097419
 11
86.6630726946
 21
115.7715552085
  0
LINE
  5
21B
100
AcDbEntity
  8
RUNDUNGEN
100
AcDbLine
 62
7
  6
CONTINUOUS
 10
86.6630726946
 20
108.2284447915
 11
86.6630726946
 21
107.4424902581
  0
LINE
  5
21C
100
AcDbEntity
  8
RUNDUNGEN
100
AcDbLine
 62
7
  6
CONTINUOUS
 10
86.7643726392
 20
107.4424902581
 11
86.7643726392
 21
108.2284447915
  0
LINE
  5
21D
100
AcDbEntity
  8
RUNDUNGEN
100
AcDbLine
 62
7
  6
CONTINUOUS
 10
86.7643726392
 20
115.7715552085
 11
86.7643726392
 21
116.5575097419
  0
LINE
  5
21E
100
AcDbEntity
  8
RUNDUNGEN
100
AcDbLine
 62
7
  6
CONTINUOUS
 10
102.2784555618
 20
134.4891267637
 11
101.5977989697
 21
134.096149497
  0
LINE
  5
21F
100
AcDbEntity
  8
RUNDUNGEN
100
AcDbLine
 62
7
  6
CONTINUOUS
 10
95.0652737249
 20
130.3245942884
 11
94.3846171328
 21
129.9316170218
  0
LINE
  5
220
100
AcDbEntity
  8
RUNDUNGEN
100
AcDbLine
 62
7
  6
CONTINUOUS
 10
94.4352671051
 20
129.8438886964
 11
95.1159236972
 21
130.2368659631
  0
LINE
  5
221
100
AcDbEntity
  8
RUNDUNGEN
100
AcDbLine
 62
7
  6
CONTINUOUS
 10
101.648448942
 20
134.0084211716
 11
102.3291055341
 21
134.4013984383
  0
LINE
  5
222
100
AcDbEntity
  8
RUNDUNGEN
100
AcDbLine
 62
7
  6
CONTINUOUS
 10
94.3846171328
 20
94.0683829782
 11
95.0652737249
 21
93.6754057116
  0
LINE
  5
223
100
AcDbEntity
  8
RUNDUNGEN
100
AcDbLine
 62
7
  6
CONTINUOUS
 10
101.5977989697
 20
89.903850503
 11
102.2784555618
 21
89.5108732363
  0
LINE
  5
224
100
AcDbEntity
  8
RUNDUNGEN
100
AcDbLine
 62
7
  6
CONTINUOUS
 10
102.3291055341
 20
89.5986015617
 11
101.648448942
 21
89.9915788284
  0
LINE
  5
225
100
AcDbEntity
  8
RUNDUNGEN
100
AcDbLine
 62
7
  6
CONTINUOUS
 10
95.1159236972
 20
93.7631340369
 11
94.4352671051
 21
94.1561113036
  0
LINE
  5
226
100
AcDbEntity
  8
RUNDUNGEN
100
AcDbLine
 62
7
  6
CONTINUOUS
 10
93.0873091874
 20
125.0802319894
 11
93.8918511003
 21
128.2098690672
  0
LINE
  5
227
100
AcDbEntity
  8
RUNDUNGEN
100
AcDbLine
 62
7
  6
CONTINUOUS
 10
87.9077667764
 20
117.8451312594
 11
90.2158414035
 21
120.1067038953
  0
LINE
  5
228
100
AcDbEntity
  8
RUNDUNGEN
100
AcDbLine
 62
7
  6
CONTINUOUS
 10
107.1285322161
 20
90.8130641152
 11
104.015916046
 21
89.9449993114
  0
LINE
  5
229
100
AcDbEntity
  8
RUNDUNGEN
100
AcDbLine
 62
7
  6
CONTINUOUS
 10
115.9840844527
 20
89.9449991723
 11
112.8714677839
 21
90.8130641152
  0
LINE
  5
22A
100
AcDbEntity
  8
RUNDUNGEN
100
AcDbLine
 62
7
  6
CONTINUOUS
 10
90.2158414035
 20
103.8932961047
 11
87.9077671463
 21
106.1548683782
  0
LINE
  5
22B
100
AcDbEntity
  8
RUNDUNGEN
100
AcDbLine
 62
7
  6
CONTINUOUS
 10
93.8918512291
 20
95.7901304317
 11
93.0873091874
 21
98.9197680106
  0
LWPOLYLINE
  5
22C
100
AcDbEntity
  8
RUNDUNGEN
100
AcDbPolyline
 62
7
  6
CONTINUOUS
 90
4
 70
0
 10
93.9178996085
 20
95.6444423289
 10
93.931186984
 20
95.4893343571
 10
93.9293742357
 20
95.3338153599
 10
93.9125105655
 20
95.1794213879
  0
LINE
  5
22D
100
AcDbEntity
  8
RUNDUNGEN
100
AcDbLine
 62
7
  6
CONTINUOUS
 10
87.9052247521
 20
117.8434607318
 11
87.794621368
 21
117.7497286497
  0
LWPOLYLINE
  5
22E
100
AcDbEntity
  8
RUNDUNGEN
100
AcDbPolyline
 62
7
  6
CONTINUOUS
 90
4
 70
0
 10
87.794621368
 20
117.7497286497
 10
87.6669376118
 20
117.6606674591
 10
87.5313478354
 20
117.5844778466
 10
87.3892068983
 20
117.5218852274
  0
LINE
  5
22F
100
AcDbEntity
  8
RUNDUNGEN
100
AcDbLine
 62
7
  6
CONTINUOUS
 10
115.9868021842
 20
89.9436329785
 11
116.1232782404
 21
89.8947136792
  0
LWPOLYLINE
  5
230
100
AcDbEntity
  8
RUNDUNGEN
100
AcDbPolyline
 62
7
  6
CONTINUOUS
 90
5
 70
0
 10
116.1232782404
 20
89.8947136792
 10
116.2642493722
 20
89.828666898
 10
116.3980264003
 20
89.7493375134
 10
116.5233036671
 20
89.6575361606
 10
116.5547456889
 20
89.6313926315
  0
LINE
  5
231
100
AcDbEntity
  8
RUNDUNGEN
100
AcDbLine
 62
7
  6
CONTINUOUS
 10
87.7864663511
 20
106.2565291784
 11
87.9050826779
 21
106.1566710906
  0
LINE
  5
232
100
AcDbEntity
  8
RUNDUNGEN
100
AcDbLine
 62
7
  6
CONTINUOUS
 10
93.8920269363
 20
95.7870937103
 11
93.9178996085
 21
95.6444423289
  0
LINE
  5
233
100
AcDbEntity
  8
0
100
AcDbLine
 62
7
  6
CONTINUOUS
 10
96.0877326849
 20
117.2970071059
 11
95.9634363809
 21
116.9582605715
  0
LINE
  5
234
100
AcDbEntity
  8
0
100
AcDbLine
 62
7
  6
CONTINUOUS
 10
96.3655303961
 20
117.975843434
 11
96.321984176
 21
117.8731200327
  0
LINE
  5
235
100
AcDbEntity
  8
0
100
AcDbLine
 62
7
  6
CONTINUOUS
 10
96.5569126603
 20
117.5027995996
 11
96.6977434707
 21
117.8350125864
  0
LINE
  5
236
100
AcDbEntity
  8
0
100
AcDbLine
 62
7
  6
CONTINUOUS
 10
97.47641414
 20
120.0491396582
 11
97.2766982224
 21
119.7486195457
  0
LINE
  5
237
100
AcDbEntity
  8
0
100
AcDbLine
 62
7
  6
CONTINUOUS
 10
97.0107889783
 20
104.7274582712
 11
97.0664715598
 21
104.6307735931
  0
LINE
  5
238
100
AcDbEntity
  8
0
100
AcDbLine
 62
7
  6
CONTINUOUS
 10
97.5035509362
 20
104.5948557417
 11
97.3234711569
 21
104.9075380029
  0
LINE
  5
239
100
AcDbEntity
  8
0
100
AcDbLine
 62
7
  6
CONTINUOUS
 10
95.6174928321
 20
108.1590426073
 11
95.7148107725
 21
107.8115832511
  0
LINE
  5
23A
100
AcDbEntity
  8
0
100
AcDbLine
 62
7
  6
CONTINUOUS
 10
95.4457596589
 20
108.8721326291
 11
95.4705228728
 21
108.7633427453
  0
LINE
  5
23B
100
AcDbEntity
  8
0
100
AcDbLine
 62
7
  6
CONTINUOUS
 10
95.8776762376
 20
108.6003864523
 11
95.7975908654
 21
108.9522179378
  0
LINE
  5
23C
100
AcDbEntity
  8
0
100
AcDbLine
 62
7
  6
CONTINUOUS
 10
95.6278405539
 20
111.9661979582
 11
95.6410378439
 21
111.6531222626
  0
LINE
  5
23D
100
AcDbEntity
  8
0
100
AcDbLine
 62
7
  6
CONTINUOUS
 10
95.6857450355
 20
113.1939487336
 11
95.6531845288
 21
112.8822920397
  0
LINE
  5
23E
100
AcDbEntity
  8
0
100
AcDbLine
 62
7
  6
CONTINUOUS
 10
97.3021038898
 20
112.9701825739
 11
97.3136973639
 21
113.0811508658
  0
LINE
  5
23F
100
AcDbEntity
  8
RUNDUNGEN
100
AcDbLine
 62
7
  6
CONTINUOUS
 10
93.9125105655
 20
95.1794213879
 11
93.905590616
 21
95.1391200338
  0
LINE
  5
240
100
AcDbEntity
  8
RUNDUNGEN
100
AcDbLine
 62
7
  6
CONTINUOUS
 10
93.9055969418
 20
95.1391188645
 11
93.901336826
 21
95.1160751138
  0
LINE
  5
241
100
AcDbEntity
  8
RUNDUNGEN
100
AcDbLine
 62
7
  6
CONTINUOUS
 10
94.0009488417
 20
95.0976597642
 11
94.1182651927
 21
95.7322455019
  0
LINE
  5
242
100
AcDbEntity
  8
0
100
AcDbLine
 62
7
  6
CONTINUOUS
 10
95.8949717996
 20
114.6989573005
 11
95.8358713898
 21
114.3960640728
  0
LINE
  5
243
100
AcDbEntity
  8
0
100
AcDbLine
 62
7
  6
CONTINUOUS
 10
96.9765802597
 20
114.180744968
 11
97.0456822773
 21
114.5348970496
  0
LINE
  5
244
100
AcDbEntity
  8
0
100
AcDbLine
 62
7
  6
CONTINUOUS
 10
97.6316026979
 20
116.6116686294
 11
97.6700362921
 21
116.7164122654
  0
LINE
  5
245
100
AcDbEntity
  8
0
100
AcDbLine
 62
7
  6
CONTINUOUS
 10
96.8485507696
 20
117.7710827734
 11
96.7077199592
 21
117.4388697866
  0
LINE
  5
246
100
AcDbEntity
  8
0
100
AcDbLine
 62
7
  6
CONTINUOUS
 10
97.7764846344
 20
116.9858020221
 11
97.9173154448
 21
117.3180150089
  0
LINE
  5
247
100
AcDbEntity
  8
0
100
AcDbLine
 62
7
  6
CONTINUOUS
 10
97.1369126045
 20
118.3900764154
 11
96.9927898731
 21
118.1118342191
  0
LINE
  5
248
100
AcDbEntity
  8
0
100
AcDbLine
 62
7
  6
CONTINUOUS
 10
98.0279186003
 20
117.5863563283
 11
98.1938781091
 21
117.9067564331
  0
LINE
  5
249
100
AcDbEntity
  8
0
100
AcDbLine
 62
7
  6
CONTINUOUS
 10
98.4832155862
 20
118.4653490598
 11
98.5345325396
 21
118.564421161
  0
LINE
  5
24A
100
AcDbEntity
  8
0
100
AcDbLine
 62
7
  6
CONTINUOUS
 10
98.3324960019
 20
120.3894608877
 11
98.0920487596
 21
120.0276508069
  0
LINE
  5
24B
100
AcDbEntity
  8
0
100
AcDbLine
 62
7
  6
CONTINUOUS
 10
98.6804441198
 20
118.8157355607
 11
98.8801600375
 21
119.1162556731
  0
LINE
  5
24C
100
AcDbEntity
  8
0
100
AcDbLine
 62
7
  6
CONTINUOUS
 10
99.2441162301
 20
119.6639143536
 11
99.3321495378
 21
119.796381409
  0
LINE
  5
24D
100
AcDbEntity
  8
RUNDUNGEN
100
AcDbLine
 62
7
  6
CONTINUOUS
 10
116.57257628
 20
134.3838137187
 11
116.5547498646
 21
134.368602475
  0
LINE
  5
24E
100
AcDbEntity
  8
RUNDUNGEN
100
AcDbLine
 62
7
  6
CONTINUOUS
 10
116.1474212543
 20
133.8878630483
 11
116.6383304484
 21
134.3067548574
  0
LINE
  5
24F
100
AcDbEntity
  8
RUNDUNGEN
100
AcDbLine
 62
7
  6
CONTINUOUS
 10
116.5547456916
 20
134.3686073656
 11
116.5312988157
 21
134.3489838353
  0
LWPOLYLINE
  5
250
100
AcDbEntity
  8
RUNDUNGEN
100
AcDbPolyline
 62
7
  6
CONTINUOUS
 90
5
 70
0
 10
116.5312988157
 20
134.3489838353
 10
116.406622748
 20
134.2563812408
 10
116.2733415927
 20
134.1761824824
 10
116.132775187
 20
134.1092198585
 10
115.9869873828
 20
134.0564241502
  0
LINE
  5
251
100
AcDbEntity
  8
RUNDUNGEN
100
AcDbLine
 62
7
  6
CONTINUOUS
 10
87.3892068983
 20
117.5218852274
 11
87.3508449271
 21
117.5077274023
  0
LINE
  5
252
100
AcDbEntity
  8
RUNDUNGEN
100
AcDbLine
 62
7
  6
CONTINUOUS
 10
87.3508470774
 20
117.5077213394
 11
87.328760546
 21
117.4998888326
  0
LINE
  5
253
100
AcDbEntity
  8
RUNDUNGEN
100
AcDbLine
 62
7
  6
CONTINUOUS
 10
87.3626183933
 20
117.4044146217
 11
87.9708439385
 21
117.6201085502
  0
LINE
  5
254
100
AcDbEntity
  8
RUNDUNGEN
100
AcDbLine
 62
7
  6
CONTINUOUS
 10
87.328760546
 20
106.5001111674
 11
87.3508470773
 21
106.4922786607
  0
LINE
  5
255
100
AcDbEntity
  8
RUNDUNGEN
100
AcDbLine
 62
7
  6
CONTINUOUS
 10
87.9708439385
 20
106.3798914498
 11
87.3626183933
 21
106.5955853783
  0
LINE
  5
256
100
AcDbEntity
  8
RUNDUNGEN
100
AcDbLine
 62
7
  6
CONTINUOUS
 10
87.3508449284
 20
106.4922726015
 11
87.379562842
 21
106.4817787764
  0
LWPOLYLINE
  5
257
100
AcDbEntity
  8
RUNDUNGEN
100
AcDbPolyline
 62
7
  6
CONTINUOUS
 90
4
 70
0
 10
87.379562842
 20
106.4817787764
 10
87.5220970752
 20
106.4201074318
 10
87.658191815
 20
106.3447819447
 10
87.7864663511
 20
106.2565291784
  0
LINE
  5
258
100
AcDbEntity
  8
RUNDUNGEN
100
AcDbLine
 62
7
  6
CONTINUOUS
 10
116.5547498645
 20
89.6313975251
 11
116.57257628
 21
89.6161862813
  0
LINE
  5
259
100
AcDbEntity
  8
RUNDUNGEN
100
AcDbLine
 62
7
  6
CONTINUOUS
 10
116.6383304484
 20
89.6932451426
 11
116.1474212543
 21
90.1121369517
  0
LINE
  5
25A
100
AcDbEntity
  8
0
100
AcDbLine
 62
7
  6
CONTINUOUS
 10
97.4654124541
 20
104.9892847492
 11
97.6454922334
 21
104.676602488
  0
LINE
  5
25B
100
AcDbEntity
  8
0
100
AcDbLine
 62
7
  6
CONTINUOUS
 10
98.6514239458
 20
105.2559380732
 11
98.4713441665
 21
105.5686203344
  0
LINE
  5
25C
100
AcDbEntity
  8
0
100
AcDbLine
 62
7
  6
CONTINUOUS
 10
97.3728178707
 20
106.1505706188
 11
97.5584517858
 21
105.7657004136
  0
LINE
  5
25D
100
AcDbEntity
  8
0
100
AcDbLine
 62
7
  6
CONTINUOUS
 10
97.7797899253
 20
105.875093725
 11
97.454930553
 21
106.548616627
  0
LINE
  5
25E
100
AcDbEntity
  8
0
100
AcDbLine
 62
7
  6
CONTINUOUS
 10
96.3196269918
 20
107.5969067182
 11
96.4270480843
 21
107.3025416551
  0
LINE
  5
25F
100
AcDbEntity
  8
0
100
AcDbLine
 62
7
  6
CONTINUOUS
 10
97.2705862385
 20
108.5061819444
 11
97.2404945069
 21
108.6136200348
  0
LINE
  5
260
100
AcDbEntity
  8
0
100
AcDbLine
 62
7
  6
CONTINUOUS
 10
95.9573037666
 20
108.9885724645
 11
96.0373891387
 21
108.6367409789
  0
LINE
  5
261
100
AcDbEntity
  8
0
100
AcDbLine
 62
7
  6
CONTINUOUS
 10
97.1692674238
 20
108.8943839058
 11
97.0891820517
 21
109.2462153913
  0
LINE
  5
262
100
AcDbEntity
  8
RUNDUNGEN
100
AcDbLine
 62
7
  6
CONTINUOUS
 10
93.901336826
 20
128.8839248862
 11
93.9055969418
 21
128.8608811356
  0
LINE
  5
263
100
AcDbEntity
  8
RUNDUNGEN
100
AcDbLine
 62
7
  6
CONTINUOUS
 10
94.1182651927
 20
128.2677544981
 11
94.0009488417
 21
128.9023402358
  0
LINE
  5
264
100
AcDbEntity
  8
RUNDUNGEN
100
AcDbLine
 62
7
  6
CONTINUOUS
 10
93.9055906199
 20
128.860879967
 11
93.9108616577
 21
128.8307626118
  0
LINE
  5
265
100
AcDbEntity
  8
0
100
AcDbLine
 62
7
  6
CONTINUOUS
 10
95.8291412156
 20
109.6593046352
 11
95.874988637
 21
109.3493234511
  0
LINE
  5
266
100
AcDbEntity
  8
0
100
AcDbLine
 62
7
  6
CONTINUOUS
 10
97.0219378777
 20
109.5285605424
 11
96.9691438857
 21
109.8855085154
  0
LINE
  5
267
100
AcDbEntity
  8
0
100
AcDbLine
 62
7
  6
CONTINUOUS
 10
96.8771017702
 20
110.5078188458
 11
96.8607773852
 21
110.6181904223
  0
LWPOLYLINE
  5
268
100
AcDbEntity
  8
RUNDUNGEN
100
AcDbPolyline
 62
7
  6
CONTINUOUS
 90
5
 70
0
 10
93.9108616577
 20
128.8307626118
 10
93.9287198232
 20
128.6764886726
 10
93.9315334076
 20
128.5209644271
 10
93.9192415382
 20
128.3657490369
 10
93.8920700607
 20
128.2130952407
  0
LINE
  5
269
100
AcDbEntity
  8
RUNDUNGEN
100
AcDbLine
 62
7
  6
CONTINUOUS
 10
98.9453360226
 20
97.3444515633
 11
98.9440081652
 21
97.4274080345
  0
LINE
  5
26A
100
AcDbEntity
  8
RUNDUNGEN
100
AcDbLine
 62
7
  6
CONTINUOUS
 10
98.9317908333
 20
97.0882851143
 11
98.9453358038
 21
97.3444474256
  0
LINE
  5
26B
100
AcDbEntity
  8
RUNDUNGEN
100
AcDbLine
 62
7
  6
CONTINUOUS
 10
91.7805907641
 20
114.2458456194
 11
91.8517692342
 21
114.2884738057
  0
LINE
  5
26C
100
AcDbEntity
  8
RUNDUNGEN
100
AcDbLine
 62
7
  6
CONTINUOUS
 10
91.5519715116
 20
114.1294928699
 11
91.7805870698
 21
114.2458437393
  0
LWPOLYLINE
  5
26D
100
AcDbEntity
  8
RUNDUNGEN
100
AcDbPolyline
 62
7
  6
CONTINUOUS
 90
3
 70
0
 10
91.8510270338
 20
109.7119162328
 10
91.7805646819
 20
109.7541193572
 10
91.5519888483
 20
109.8704958304
  0
LINE
  5
26E
100
AcDbEntity
  8
RUNDUNGEN
100
AcDbLine
 62
7
  6
CONTINUOUS
 10
98.957071567
 20
96.6667284389
 11
99.0000352223
 21
97.0050122574
  0
LINE
  5
26F
100
AcDbEntity
  8
RUNDUNGEN
100
AcDbLine
 62
7
  6
CONTINUOUS
 10
99.0000382678
 20
97.0050118703
 11
99.0196487222
 21
97.1304709827
  0
LINE
  5
270
100
AcDbEntity
  8
RUNDUNGEN
100
AcDbLine
 62
7
  6
CONTINUOUS
 10
98.9438959629
 20
96.5998561608
 11
98.9570276298
 21
96.6667340068
  0
LINE
  5
271
100
AcDbEntity
  8
RUNDUNGEN
100
AcDbLine
 62
7
  6
CONTINUOUS
 10
99.0196487222
 20
97.1304709827
 11
99.078284403
 21
97.3706770713
  0
LINE
  5
272
100
AcDbEntity
  8
RUNDUNGEN
100
AcDbLine
 62
7
  6
CONTINUOUS
 10
117.3641195287
 20
128.9240118387
 11
117.3640176229
 21
128.9239240999
  0
LWPOLYLINE
  5
273
100
AcDbEntity
  8
RUNDUNGEN
100
AcDbPolyline
 62
7
  6
CONTINUOUS
 90
5
 70
0
 10
117.7575116972
 20
129.2301276134
 10
117.80108641
 20
129.2673246276
 10
117.8606711879
 20
129.3358858394
 10
117.9068889413
 20
129.4141850567
 10
117.9318216537
 20
129.4778616245
  0
LINE
  5
274
100
AcDbEntity
  8
RUNDUNGEN
100
AcDbLine
 62
7
  6
CONTINUOUS
 10
117.3640178107
 20
128.9239242651
 11
117.4860575185
 21
129.023743345
  0
LINE
  5
275
100
AcDbEntity
  8
RUNDUNGEN
100
AcDbLine
 62
7
  6
CONTINUOUS
 10
117.4860579255
 20
129.0237428095
 11
117.7575384982
 21
129.2300923506
  0
LINE
  5
276
100
AcDbEntity
  8
RUNDUNGEN
100
AcDbLine
 62
7
  6
CONTINUOUS
 10
91.1995330885
 20
113.8968207746
 11
91.5139772966
 21
114.028755067
  0
LINE
  5
277
100
AcDbEntity
  8
RUNDUNGEN
100
AcDbLine
 62
7
  6
CONTINUOUS
 10
91.5139784841
 20
114.0287522359
 11
91.6324345737
 21
114.0744986701
  0
LINE
  5
278
100
AcDbEntity
  8
0
100
AcDbLine
 62
7
  6
CONTINUOUS
 10
118.900592713
 20
122.3026512229
 11
118.7844661272
 21
122.2653804782
  0
LWPOLYLINE
  5
279
100
AcDbEntity
  8
RUNDUNGEN
100
AcDbPolyline
 62
7
  6
CONTINUOUS
 90
4
 70
0
 10
91.6324345737
 20
114.0744986701
 10
91.8697770576
 20
114.1438217311
 10
92.1212090935
 20
114.1877119202
 10
92.2969152393
 20
114.2019166192
  0
LINE
  5
27A
100
AcDbEntity
  8
0
100
AcDbLine
 62
7
  6
CONTINUOUS
 10
123.3234170722
 20
106.2828383618
 11
123.2038452169
 21
106.2588142173
  0
LINE
  5
27B
100
AcDbEntity
  8
0
100
AcDbLine
 62
7
  6
CONTINUOUS
 10
122.6168126648
 20
104.7902813781
 11
122.4952622975
 21
104.7802775377
  0
LINE
  5
27C
100
AcDbEntity
  8
0
100
AcDbLine
 62
7
  6
CONTINUOUS
 10
121.1502087906
 20
103.6017794576
 11
121.3190959704
 21
103.6061888702
  0
LINE
  5
27D
100
AcDbEntity
  8
0
100
AcDbLine
 62
7
  6
CONTINUOUS
 10
121.3675550584
 20
104.7496831908
 11
121.1986678688
 21
104.7452737851
  0
LINE
  5
27E
100
AcDbEntity
  8
0
100
AcDbLine
 62
7
  6
CONTINUOUS
 10
121.2643430728
 20
103.7660151591
 11
121.1424329928
 21
103.7695508362
  0
LWPOLYLINE
  5
27F
100
AcDbEntity
  8
RUNDUNGEN
100
AcDbPolyline
 62
7
  6
CONTINUOUS
 90
5
 70
0
 10
91.1995159278
 20
110.1031383932
 10
91.1455150121
 20
110.1222766944
 10
91.056346872
 20
110.1395980198
 10
90.965428884
 20
110.1404741597
 10
90.8978170025
 20
110.1302282382
  0
LINE
  5
280
100
AcDbEntity
  8
RUNDUNGEN
100
AcDbLine
 62
7
  6
CONTINUOUS
 10
91.6391662164
 20
109.9231273809
 11
91.5139769878
 21
109.9712441967
  0
LINE
  5
281
100
AcDbEntity
  8
RUNDUNGEN
100
AcDbLine
 62
7
  6
CONTINUOUS
 10
91.5139772967
 20
109.971244933
 11
91.1995330658
 21
110.103179235
  0
LINE
  5
282
100
AcDbEntity
  8
RUNDUNGEN
100
AcDbLine
 62
7
  6
CONTINUOUS
 10
117.7575384785
 20
94.7699076644
 11
117.4860579256
 21
94.9762571905
  0
LWPOLYLINE
  5
283
100
AcDbEntity
  8
RUNDUNGEN
100
AcDbPolyline
 62
7
  6
CONTINUOUS
 90
3
 70
0
 10
117.4860598247
 20
94.9762596884
 10
117.3871021302
 20
95.0560686089
 10
117.2083329441
 20
95.2270393264
  0
LINE
  5
284
100
AcDbEntity
  8
0
100
AcDbLine
 62
7
  6
CONTINUOUS
 10
98.0920487596
 20
120.0276508069
 11
98.2545818428
 21
119.6374560183
  0
LINE
  5
285
100
AcDbEntity
  8
0
100
AcDbLine
 62
7
  6
CONTINUOUS
 10
98.579639786
 20
119.3159716832
 11
98.532690934
 21
119.4554844913
  0
LINE
  5
286
100
AcDbEntity
  8
0
100
AcDbLine
 62
7
  6
CONTINUOUS
 10
98.4940273108
 20
119.7833112618
 11
98.3324960019
 21
120.3894608877
  0
LINE
  5
287
100
AcDbEntity
  8
RUNDUNGEN
100
AcDbLine
 62
7
  6
CONTINUOUS
 10
98.9570276249
 20
127.3332660066
 11
98.9466014221
 21
127.389601322
  0
LINE
  5
288
100
AcDbEntity
  8
RUNDUNGEN
100
AcDbLine
 62
7
  6
CONTINUOUS
 10
99.0000352223
 20
126.9949877425
 11
98.9570715639
 21
127.3332715855
  0
LWPOLYLINE
  5
289
100
AcDbEntity
  8
RUNDUNGEN
100
AcDbPolyline
 62
7
  6
CONTINUOUS
 90
3
 70
0
 10
99.078284403
 20
97.3706770713
 10
99.1659903654
 20
97.6103686547
 10
99.2415429059
 20
97.7696391336
  0
LINE
  5
28A
100
AcDbEntity
  8
0
100
AcDbLine
 62
7
  6
CONTINUOUS
 10
118.8247452225
 20
123.372735565
 11
118.9149928469
 21
123.4310155162
  0
LINE
  5
28B
100
AcDbEntity
  8
0
100
AcDbLine
 62
7
  6
CONTINUOUS
 10
118.896828163
 20
122.0864660944
 11
119.0344109324
 21
122.1501665375
  0
LINE
  5
28C
100
AcDbEntity
  8
0
100
AcDbLine
 62
7
  6
CONTINUOUS
 10
120.4337585872
 20
121.9758257037
 11
120.3352547318
 21
121.9329516828
  0
LINE
  5
28D
100
AcDbEntity
  8
0
100
AcDbLine
 62
7
  6
CONTINUOUS
 10
122.5880565096
 20
107.977321318
 11
123.4219635476
 21
108.0648126684
  0
LINE
  5
28E
100
AcDbEntity
  8
0
100
AcDbLine
 62
7
  6
CONTINUOUS
 10
123.4078703377
 20
108.2756134322
 11
122.6483492656
 21
108.2027298153
  0
LINE
  5
28F
100
AcDbEntity
  8
0
100
AcDbLine
 62
7
  6
CONTINUOUS
 10
123.1612653145
 20
106.0604563247
 11
123.3124505555
 21
106.0718518312
  0
LINE
  5
290
100
AcDbEntity
  8
0
100
AcDbLine
 62
7
  6
CONTINUOUS
 10
123.7805807316
 20
107.6928469943
 11
123.8878531115
 21
107.6986581981
  0
LINE
  5
291
100
AcDbEntity
  8
0
100
AcDbLine
 62
7
  6
CONTINUOUS
 10
123.9395327293
 20
107.8918659027
 11
123.8322603494
 21
107.8860546988
  0
LINE
  5
292
100
AcDbEntity
  8
0
100
AcDbLine
 62
7
  6
CONTINUOUS
 10
121.2534207762
 20
104.5854474894
 11
121.4032850147
 21
104.562483436
  0
LINE
  5
293
100
AcDbEntity
  8
0
100
AcDbLine
 62
7
  6
CONTINUOUS
 10
121.5174192969
 20
104.7267191375
 11
121.3675550584
 21
104.7496831908
  0
LINE
  5
294
100
AcDbEntity
  8
0
100
AcDbLine
 62
7
  6
CONTINUOUS
 10
120.9723886521
 20
103.6441693811
 11
121.1502087906
 21
103.6017794576
  0
LINE
  5
295
100
AcDbEntity
  8
0
100
AcDbLine
 62
7
  6
CONTINUOUS
 10
121.1424329928
 20
103.7695508362
 11
121.0395458345
 21
103.8004599929
  0
LWPOLYLINE
  5
296
100
AcDbEntity
  8
RUNDUNGEN
100
AcDbPolyline
 62
7
  6
CONTINUOUS
 90
3
 70
0
 10
117.2083329441
 20
95.2270393264
 10
117.0445912873
 20
95.4229065423
 10
116.9446179296
 20
95.5677289093
  0
LWPOLYLINE
  5
297
100
AcDbEntity
  8
RUNDUNGEN
100
AcDbPolyline
 62
7
  6
CONTINUOUS
 90
4
 70
0
 10
99.1692775914
 20
126.38193517
 10
99.0809563718
 20
126.6205191152
 10
99.0214215465
 20
126.8600696229
 10
99.0000347447
 20
126.9949876818
  0
LWPOLYLINE
  5
298
100
AcDbEntity
  8
RUNDUNGEN
100
AcDbPolyline
 62
7
  6
CONTINUOUS
 90
4
 70
0
 10
98.9466014221
 20
127.389601322
 10
98.9170180599
 20
127.4754838592
 10
98.8723178253
 20
127.5546592164
 10
98.8296386563
 20
127.6080898627
  0
LINE
  5
299
100
AcDbEntity
  8
0
100
AcDbLine
 62
7
  6
CONTINUOUS
 10
106.0
 20
128.25
 11
106.0
 21
123.8954823357
  0
LINE
  5
29A
100
AcDbEntity
  8
RUNDUNGEN
100
AcDbLine
 62
7
  6
CONTINUOUS
 10
102.0681374468
 20
94.5221512549
 11
101.0533921451
 21
91.3037903301
  0
LINE
  5
29B
100
AcDbEntity
  8
RUNDUNGEN
100
AcDbLine
 62
7
  6
CONTINUOUS
 10
101.1500036193
 20
91.2733288493
 11
101.2854952852
 21
91.7030535128
  0
LINE
  5
29C
100
AcDbEntity
  8
RUNDUNGEN
100
AcDbLine
 62
7
  6
CONTINUOUS
 10
99.241521639
 20
97.7695977294
 11
99.2415430612
 21
97.7696394322
  0
LINE
  5
29D
100
AcDbEntity
  8
RUNDUNGEN
100
AcDbLine
 62
7
  6
CONTINUOUS
 10
123.4501394087
 20
130.096094515
 11
121.1703297193
 21
127.6081188202
  0
LINE
  5
29E
100
AcDbEntity
  8
RUNDUNGEN
100
AcDbLine
 62
7
  6
CONTINUOUS
 10
123.2204189198
 20
129.695455708
 11
123.524825562
 21
130.0276572644
  0
LINE
  5
29F
100
AcDbEntity
  8
0
100
AcDbLine
 62
7
  6
CONTINUOUS
 10
118.8026308052
 20
123.6099298741
 11
118.6909270631
 21
123.5252203245
  0
LINE
  5
2A0
100
AcDbEntity
  8
0
100
AcDbLine
 62
7
  6
CONTINUOUS
 10
97.8539366918
 20
106.6830856855
 11
97.65433138
 21
106.5340984926
  0
LINE
  5
2A1
100
AcDbEntity
  8
0
100
AcDbLine
 62
7
  6
CONTINUOUS
 10
120.2710255271
 20
121.6976377872
 11
120.4459032203
 21
121.8083135322
  0
LINE
  5
2A2
100
AcDbEntity
  8
0
100
AcDbLine
 62
7
  6
CONTINUOUS
 10
120.3352547318
 20
121.9329516828
 11
120.1858349239
 21
121.8448766287
  0
LINE
  5
2A3
100
AcDbEntity
  8
0
100
AcDbLine
 62
7
  6
CONTINUOUS
 10
120.5054587367
 20
120.6131274818
 11
120.6039623941
 21
120.6560015821
  0
LINE
  5
2A4
100
AcDbEntity
  8
0
100
AcDbLine
 62
7
  6
CONTINUOUS
 10
122.7609215179
 20
118.6042615551
 11
122.5309903068
 21
118.5333489102
  0
LINE
  5
2A5
100
AcDbEntity
  8
RUNDUNGEN
100
AcDbLine
 62
7
  6
CONTINUOUS
 10
129.1021922933
 20
113.8697299022
 11
132.3967472636
 21
114.6001151549
  0
LINE
  5
2A6
100
AcDbEntity
  8
RUNDUNGEN
100
AcDbLine
 62
7
  6
CONTINUOUS
 10
132.3748219427
 20
114.6990138862
 11
131.9349236346
 21
114.6014907792
  0
LINE
  5
2A7
100
AcDbEntity
  8
0
100
AcDbLine
 62
7
  6
CONTINUOUS
 10
97.8792343943
 20
107.097119256
 11
98.1623328515
 21
107.1246185042
  0
LINE
  5
2A8
100
AcDbEntity
  8
RUNDUNGEN
100
AcDbLine
 62
7
  6
CONTINUOUS
 10
127.7029918028
 20
109.798090816
 11
127.7029498396
 21
109.7980887832
  0
LINE
  5
2A9
100
AcDbEntity
  8
RUNDUNGEN
100
AcDbLine
 62
7
  6
CONTINUOUS
 10
92.2969204556
 20
109.7980877207
 11
92.2968761597
 21
109.7980898833
  0
LWPOLYLINE
  5
2AA
100
AcDbEntity
  8
RUNDUNGEN
100
AcDbPolyline
 62
7
  6
CONTINUOUS
 90
4
 70
0
 10
92.2969200399
 20
109.7980877389
 10
92.1241671117
 20
109.8119276778
 10
91.8744767014
 20
109.8550790967
 10
91.6391662164
 20
109.9231273809
  0
LINE
  5
2AB
100
AcDbEntity
  8
0
100
AcDbLine
 62
7
  6
CONTINUOUS
 10
123.2038452169
 20
106.2588142173
 11
123.0650259307
 21
106.2783745194
  0
LINE
  5
2AC
100
AcDbEntity
  8
0
100
AcDbLine
 62
7
  6
CONTINUOUS
 10
122.9908324654
 20
106.0926453356
 11
123.1612653145
 21
106.0604563247
  0
LINE
  5
2AD
100
AcDbEntity
  8
0
100
AcDbLine
 62
7
  6
CONTINUOUS
 10
96.9627524037
 20
111.0174234273
 11
97.2408784002
 21
110.9578668668
  0
LINE
  5
2AE
100
AcDbEntity
  8
RUNDUNGEN
100
AcDbLine
 62
7
  6
CONTINUOUS
 10
87.6032527364
 20
114.6001151549
 11
90.8978077368
 21
113.8697298955
  0
LINE
  5
2AF
100
AcDbEntity
  8
RUNDUNGEN
100
AcDbLine
 62
7
  6
CONTINUOUS
 10
88.0650763654
 20
114.6014907792
 11
87.6251780573
 21
114.6990138862
  0
LINE
  5
2B0
100
AcDbEntity
  8
0
100
AcDbLine
 62
7
  6
CONTINUOUS
 10
122.4000427164
 20
104.6043990814
 11
122.5356594242
 21
104.5688813649
  0
LINE
  5
2B1
100
AcDbEntity
  8
0
100
AcDbLine
 62
7
  6
CONTINUOUS
 10
121.1419814913
 20
102.7644413586
 11
119.8939456828
 21
103.2611432974
  0
LINE
  5
2B2
100
AcDbEntity
  8
0
100
AcDbLine
 62
7
  6
CONTINUOUS
 10
119.9311047345
 20
103.0481427483
 11
121.3278884418
 21
102.4622359303
  0
LINE
  5
2B3
100
AcDbEntity
  8
0
100
AcDbLine
 62
7
  6
CONTINUOUS
 10
119.7290682414
 20
101.2862459368
 11
118.5634975613
 21
101.9538919397
  0
LINE
  5
2B4
100
AcDbEntity
  8
0
100
AcDbLine
 62
7
  6
CONTINUOUS
 10
118.5702646748
 20
101.7377803129
 11
119.870525571
 21
100.9608548812
  0
LINE
  5
2B5
100
AcDbEntity
  8
RUNDUNGEN
100
AcDbLine
 62
7
  6
CONTINUOUS
 10
121.1703297402
 20
96.3918811571
 11
123.4501394087
 21
93.903905485
  0
LINE
  5
2B6
100
AcDbEntity
  8
RUNDUNGEN
100
AcDbLine
 62
7
  6
CONTINUOUS
 10
123.524825562
 20
93.9723427356
 11
123.2204189198
 21
94.304544292
  0
LINE
  5
2B7
100
AcDbEntity
  8
RUNDUNGEN
100
AcDbLine
 62
7
  6
CONTINUOUS
 10
116.9446430205
 20
95.5676899921
 11
116.9446177514
 21
95.5677291889
  0
LINE
  5
2B8
100
AcDbEntity
  8
RUNDUNGEN
100
AcDbLine
 62
7
  6
CONTINUOUS
 10
99.2416452413
 20
126.2301481968
 11
99.2416257889
 21
126.2301859974
  0
LINE
  5
2B9
100
AcDbEntity
  8
RUNDUNGEN
100
AcDbLine
 62
7
  6
CONTINUOUS
 10
99.2416450535
 20
126.2301485577
 11
99.1692775914
 21
126.38193517
  0
LINE
  5
2BA
100
AcDbEntity
  8
RUNDUNGEN
100
AcDbLine
 62
7
  6
CONTINUOUS
 10
101.0533921451
 20
132.6962096699
 11
102.0681374561
 21
129.4778487157
  0
LINE
  5
2BB
100
AcDbEntity
  8
RUNDUNGEN
100
AcDbLine
 62
7
  6
CONTINUOUS
 10
101.2854952852
 20
132.2969464872
 11
101.1500036193
 21
132.7266711507
  0
LINE
  5
2BC
100
AcDbEntity
  8
DEFAULT_1
100
AcDbLine
 62
7
  6
CENTER
 10
110.0
 20
112.0
 11
110.0
 21
83.8211805556
  0
LINE
  5
2BD
100
AcDbEntity
  8
DEFAULT_1
100
AcDbLine
 62
7
  6
CENTER
 10
110.0
 20
112.0
 11
110.0
 21
140.1788194444
  0
LWPOLYLINE
  5
2BE
100
AcDbEntity
  8
RUNDUNGEN
100
AcDbPolyline
 62
7
  6
CONTINUOUS
 90
3
 70
0
 10
98.8660256563
 20
96.4364589773
 10
98.9124178105
 20
96.514585367
 10
98.9438959629
 20
96.5998561608
  0
LINE
  5
2BF
100
AcDbEntity
  8
0
100
AcDbLine
 62
7
  6
CONTINUOUS
 10
118.6909270631
 20
123.5252203245
 11
118.6051023286
 21
123.4195015307
  0
LINE
  5
2C0
100
AcDbEntity
  8
0
100
AcDbLine
 62
7
  6
CONTINUOUS
 10
118.7818328853
 20
123.3198762051
 11
118.8247452225
 21
123.372735565
  0
LINE
  5
2C1
100
AcDbEntity
  8
RUNDUNGEN
100
AcDbLine
 62
7
  6
CONTINUOUS
 10
121.1703613348
 20
127.6080898473
 11
121.1339743437
 21
127.5635410227
  0
LINE
  5
2C2
100
AcDbEntity
  8
0
100
AcDbLine
 62
7
  6
CONTINUOUS
 10
119.9293598711
 20
122.6532146431
 11
119.7409548661
 21
122.4565603888
  0
LINE
  5
2C3
100
AcDbEntity
  8
0
100
AcDbLine
 62
7
  6
CONTINUOUS
 10
120.0502271884
 20
122.4902729763
 11
119.1317529785
 21
121.5315836848
  0
LINE
  5
2C4
100
AcDbEntity
  8
0
100
AcDbLine
 62
7
  6
CONTINUOUS
 10
119.2761709131
 20
121.3932237911
 11
120.383050062
 21
122.5485672681
  0
LINE
  5
2C5
100
AcDbEntity
  8
0
100
AcDbLine
 62
7
  6
CONTINUOUS
 10
120.1858349239
 20
121.8448766287
 11
119.9567128168
 21
121.6414716944
  0
LINE
  5
2C6
100
AcDbEntity
  8
0
100
AcDbLine
 62
7
  6
CONTINUOUS
 10
120.0928194438
 20
121.5394339495
 11
120.2710255271
 21
121.6976377872
  0
LINE
  5
2C7
100
AcDbEntity
  8
0
100
AcDbLine
 62
7
  6
CONTINUOUS
 10
121.0283258346
 20
120.5454811417
 11
120.8917393324
 21
120.4439108584
  0
LINE
  5
2C8
100
AcDbEntity
  8
0
100
AcDbLine
 62
7
  6
CONTINUOUS
 10
121.1702112234
 20
120.0694361565
 11
121.3067977256
 21
120.1710064397
  0
LINE
  5
2C9
100
AcDbEntity
  8
0
100
AcDbLine
 62
7
  6
CONTINUOUS
 10
120.6681917611
 20
120.8913153667
 11
120.4933139057
 21
120.7806397327
  0
LINE
  5
2CA
100
AcDbEntity
  8
0
100
AcDbLine
 62
7
  6
CONTINUOUS
 10
122.2331426596
 20
120.3567137698
 11
122.0884153915
 21
120.2671236104
  0
LINE
  5
2CB
100
AcDbEntity
  8
0
100
AcDbLine
 62
7
  6
CONTINUOUS
 10
121.1042698267
 20
119.6579104385
 11
120.8727061775
 21
119.5145661709
  0
LINE
  5
2CC
100
AcDbEntity
  8
0
100
AcDbLine
 62
7
  6
CONTINUOUS
 10
120.6039623941
 20
120.6560015821
 11
120.7533823643
 21
120.7440765252
  0
LINE
  5
2CD
100
AcDbEntity
  8
0
100
AcDbLine
 62
7
  6
CONTINUOUS
 10
98.4713441665
 20
105.5686203344
 11
97.4654124541
 21
104.9892847492
  0
LINE
  5
2CE
100
AcDbEntity
  8
0
100
AcDbLine
 62
7
  6
CONTINUOUS
 10
97.3234711569
 20
104.9075380029
 11
97.0107889783
 21
104.7274582712
  0
LINE
  5
2CF
100
AcDbEntity
  8
0
100
AcDbLine
 62
7
  6
CONTINUOUS
 10
97.4068663408
 20
104.5391732078
 11
97.5035509362
 21
104.5948557417
  0
LINE
  5
2D0
100
AcDbEntity
  8
0
100
AcDbLine
 62
7
  6
CONTINUOUS
 10
97.6454922334
 20
104.676602488
 11
98.6514239458
 21
105.2559380732
  0
LINE
  5
2D1
100
AcDbEntity
  8
0
100
AcDbLine
 62
7
  6
CONTINUOUS
 10
122.5309903068
 20
118.5333489102
 11
122.3152006435
 21
118.4322515134
  0
LINE
  5
2D2
100
AcDbEntity
  8
0
100
AcDbLine
 62
7
  6
CONTINUOUS
 10
122.5400440186
 20
118.353539834
 11
122.6016982081
 21
118.3824248045
  0
LINE
  5
2D3
100
AcDbEntity
  8
0
100
AcDbLine
 62
7
  6
CONTINUOUS
 10
122.2150876429
 20
118.1644873783
 11
122.3075689272
 21
118.2078148341
  0
LINE
  5
2D4
100
AcDbEntity
  8
0
100
AcDbLine
 62
7
  6
CONTINUOUS
 10
97.387655849
 20
107.5924428836
 11
97.4551594738
 21
107.6221306514
  0
LINE
  5
2D5
100
AcDbEntity
  8
0
100
AcDbLine
 62
7
  6
CONTINUOUS
 10
97.2550386688
 20
107.9281535252
 11
96.6484679557
 21
107.7068008688
  0
LINE
  5
2D6
100
AcDbEntity
  8
0
100
AcDbLine
 62
7
  6
CONTINUOUS
 10
96.890357049
 20
107.4109662511
 11
97.0509199003
 21
107.469559607
  0
LINE
  5
2D7
100
AcDbEntity
  8
0
100
AcDbLine
 62
7
  6
CONTINUOUS
 10
95.985355107
 20
109.7064063835
 11
95.8291412156
 21
109.6593046352
  0
LINE
  5
2D8
100
AcDbEntity
  8
0
100
AcDbLine
 62
7
  6
CONTINUOUS
 10
95.7148107725
 20
107.8115832511
 11
97.0977910668
 21
108.1989344376
  0
LINE
  5
2D9
100
AcDbEntity
  8
0
100
AcDbLine
 62
7
  6
CONTINUOUS
 10
97.2404945069
 20
108.6136200348
 11
95.6174928321
 21
108.1590426073
  0
LINE
  5
2DA
100
AcDbEntity
  8
0
100
AcDbLine
 62
7
  6
CONTINUOUS
 10
96.4270480843
 20
107.3025416551
 11
96.5604593794
 21
107.338591673
  0
LINE
  5
2DB
100
AcDbEntity
  8
0
100
AcDbLine
 62
7
  6
CONTINUOUS
 10
95.7688863538
 20
108.5756232384
 11
95.8776762376
 21
108.6003864523
  0
LINE
  5
2DC
100
AcDbEntity
  8
0
100
AcDbLine
 62
7
  6
CONTINUOUS
 10
96.0373891387
 20
108.6367409789
 11
97.1692674238
 21
108.8943839058
  0
LINE
  5
2DD
100
AcDbEntity
  8
0
100
AcDbLine
 62
7
  6
CONTINUOUS
 10
97.0891820517
 20
109.2462153913
 11
95.9573037666
 21
108.9885724645
  0
LINE
  5
2DE
100
AcDbEntity
  8
0
100
AcDbLine
 62
7
  6
CONTINUOUS
 10
95.7975908654
 20
108.9522179378
 11
95.4457596589
 21
108.8721326291
  0
LINE
  5
2DF
100
AcDbEntity
  8
0
100
AcDbLine
 62
7
  6
CONTINUOUS
 10
123.4167452917
 20
114.1534639809
 11
123.5834096817
 21
114.188037958
  0
LINE
  5
2E0
100
AcDbEntity
  8
0
100
AcDbLine
 62
7
  6
CONTINUOUS
 10
123.5094523758
 20
114.3769538442
 11
123.4094537418
 21
114.3562094579
  0
LINE
  5
2E1
100
AcDbEntity
  8
0
100
AcDbLine
 62
7
  6
CONTINUOUS
 10
123.9604880943
 20
115.2194655058
 11
124.0271538503
 21
115.2332950967
  0
LINE
  5
2E2
100
AcDbEntity
  8
0
100
AcDbLine
 62
7
  6
CONTINUOUS
 10
96.2399404651
 20
109.412900087
 11
97.0219378777
 21
109.5285605424
  0
LINE
  5
2E3
100
AcDbEntity
  8
0
100
AcDbLine
 62
7
  6
CONTINUOUS
 10
96.9691438857
 20
109.8855085154
 11
96.306911832
 21
109.7875618219
  0
LINE
  5
2E4
100
AcDbEntity
  8
0
100
AcDbLine
 62
7
  6
CONTINUOUS
 10
96.2771710487
 20
110.1671167539
 11
96.6669955617
 21
110.2247733139
  0
LINE
  5
2E5
100
AcDbEntity
  8
0
100
AcDbLine
 62
7
  6
CONTINUOUS
 10
124.28633875
 20
112.683124771
 11
124.4219467418
 21
112.6954868483
  0
LINE
  5
2E6
100
AcDbEntity
  8
0
100
AcDbLine
 62
7
  6
CONTINUOUS
 10
124.4037899514
 20
112.8946609705
 11
124.3020839338
 21
112.8853894103
  0
LINE
  5
2E7
100
AcDbEntity
  8
0
100
AcDbLine
 62
7
  6
CONTINUOUS
 10
96.1154217633
 20
111.6160954234
 11
96.2861900041
 21
111.6232939317
  0
LINE
  5
2E8
100
AcDbEntity
  8
DEFAULT_1
100
AcDbLine
 62
7
  6
CENTER
 10
110.0
 20
112.0
 11
81.8211805556
 21
112.0
  0
LINE
  5
2E9
100
AcDbEntity
  8
DEFAULT_1
100
AcDbLine
 62
7
  6
CENTER
 10
110.0
 20
112.0
 11
138.1788194444
 21
112.0
  0
LWPOLYLINE
  5
2EA
100
AcDbEntity
  8
RUNDUNGEN
100
AcDbPolyline
 62
7
  6
CONTINUOUS
 90
4
 70
0
 10
129.0454090703
 20
110.1394658846
 10
128.9545535551
 20
110.1405794739
 10
128.8649678053
 20
110.1252049566
 10
128.8004840582
 20
110.1031383907
  0
LINE
  5
2EB
100
AcDbEntity
  8
0
100
AcDbLine
 62
7
  6
CONTINUOUS
 10
124.2708574423
 20
111.057405077
 11
124.4069885521
 21
111.0541386814
  0
LINE
  5
2EC
100
AcDbEntity
  8
0
100
AcDbLine
 62
7
  6
CONTINUOUS
 10
124.4117860678
 20
111.2540811328
 11
124.3096877116
 21
111.25653093
  0
LINE
  5
2ED
100
AcDbEntity
  8
0
100
AcDbLine
 62
7
  6
CONTINUOUS
 10
95.6410378439
 20
111.6531222626
 11
95.7791010475
 21
111.6470625438
  0
LINE
  5
2EE
100
AcDbEntity
  8
0
100
AcDbLine
 62
7
  6
CONTINUOUS
 10
96.0413812325
 20
112.8512821992
 11
97.028294571
 21
112.7481738786
  0
LINE
  5
2EF
100
AcDbEntity
  8
0
100
AcDbLine
 62
7
  6
CONTINUOUS
 10
97.3136973639
 20
113.0811508658
 11
96.7399654381
 21
113.1410918283
  0
LINE
  5
2F0
100
AcDbEntity
  8
0
100
AcDbLine
 62
7
  6
CONTINUOUS
 10
96.350394381
 20
113.1817924815
 11
96.1922049036
 21
113.1983194152
  0
LINE
  5
2F1
100
AcDbEntity
  8
RUNDUNGEN
100
AcDbLine
 62
7
  6
CONTINUOUS
 10
90.8978170203
 20
113.8697717618
 11
90.9545909297
 21
113.8605341154
  0
LINE
  5
2F2
100
AcDbEntity
  8
0
100
AcDbLine
 62
7
  6
CONTINUOUS
 10
96.2123569723
 20
114.3298599212
 11
96.9765802597
 21
114.180744968
  0
LINE
  5
2F3
100
AcDbEntity
  8
0
100
AcDbLine
 62
7
  6
CONTINUOUS
 10
97.0456822773
 20
114.5348970496
 11
96.4701848639
 21
114.647187883
  0
LINE
  5
2F4
100
AcDbEntity
  8
0
100
AcDbLine
 62
7
  6
CONTINUOUS
 10
123.649034984
 20
107.7280331375
 11
123.7805807316
 21
107.6928469943
  0
LINE
  5
2F5
100
AcDbEntity
  8
0
100
AcDbLine
 62
7
  6
CONTINUOUS
 10
123.8322603494
 20
107.8860546988
 11
123.7336010157
 21
107.9124443124
  0
LINE
  5
2F6
100
AcDbEntity
  8
0
100
AcDbLine
 62
7
  6
CONTINUOUS
 10
95.9634363809
 20
116.9582605715
 11
97.311737336
 21
116.4635283505
  0
LINE
  5
2F7
100
AcDbEntity
  8
0
100
AcDbLine
 62
7
  6
CONTINUOUS
 10
97.6700362921
 20
116.7164122654
 11
96.0877326849
 21
117.2970071059
  0
LINE
  5
2F8
100
AcDbEntity
  8
0
100
AcDbLine
 62
7
  6
CONTINUOUS
 10
122.5166303063
 20
106.2820754549
 11
122.9908324654
 21
106.0926453356
  0
LINE
  5
2F9
100
AcDbEntity
  8
0
100
AcDbLine
 62
7
  6
CONTINUOUS
 10
123.0650259307
 20
106.2783745194
 11
122.5908237716
 21
106.4678046386
  0
LINE
  5
2FA
100
AcDbEntity
  8
0
100
AcDbLine
 62
7
  6
CONTINUOUS
 10
96.4541889078
 20
117.5463459686
 11
96.5569126603
 21
117.5027995996
  0
LINE
  5
2FB
100
AcDbEntity
  8
0
100
AcDbLine
 62
7
  6
CONTINUOUS
 10
96.7077199592
 20
117.4388697866
 11
97.7764846344
 21
116.9858020221
  0
LINE
  5
2FC
100
AcDbEntity
  8
0
100
AcDbLine
 62
7
  6
CONTINUOUS
 10
97.9173154448
 20
117.3180150089
 11
96.8485507696
 21
117.7710827734
  0
LINE
  5
2FD
100
AcDbEntity
  8
0
100
AcDbLine
 62
7
  6
CONTINUOUS
 10
96.6977434707
 20
117.8350125864
 11
96.3655303961
 21
117.975843434
  0
LINE
  5
2FE
100
AcDbEntity
  8
0
100
AcDbLine
 62
7
  6
CONTINUOUS
 10
97.3259890845
 20
117.9499388488
 11
98.0279186003
 21
117.5863563283
  0
LINE
  5
2FF
100
AcDbEntity
  8
0
100
AcDbLine
 62
7
  6
CONTINUOUS
 10
98.1938781091
 20
117.9067564331
 11
97.5994513025
 21
118.2146551491
  0
LINE
  5
300
100
AcDbEntity
  8
0
100
AcDbLine
 62
7
  6
CONTINUOUS
 10
97.7973331161
 20
118.5399095227
 11
98.1472439051
 21
118.3586641928
  0
LINE
  5
301
100
AcDbEntity
  8
0
100
AcDbLine
 62
7
  6
CONTINUOUS
 10
121.3223193706
 20
105.1878722803
 11
121.4720031663
 21
105.1068343373
  0
LINE
  5
302
100
AcDbEntity
  8
0
100
AcDbLine
 62
7
  6
CONTINUOUS
 10
122.3401691227
 20
104.6368142995
 11
122.4000427164
 21
104.6043990814
  0
LINE
  5
303
100
AcDbEntity
  8
0
100
AcDbLine
 62
7
  6
CONTINUOUS
 10
122.4952622975
 20
104.7802775377
 11
122.4353887037
 21
104.8126927558
  0
LINE
  5
304
100
AcDbEntity
  8
0
100
AcDbLine
 62
7
  6
CONTINUOUS
 10
98.32524413
 20
119.4907362894
 11
97.47641414
 21
120.0491396582
  0
LINE
  5
305
100
AcDbEntity
  8
0
100
AcDbLine
 62
7
  6
CONTINUOUS
 10
97.2766982224
 20
119.7486195457
 11
98.6804441198
 21
118.8157355607
  0
LINE
  5
306
100
AcDbEntity
  8
0
100
AcDbLine
 62
7
  6
CONTINUOUS
 10
98.8801600375
 20
119.1162556731
 11
98.579639786
 21
119.3159716832
  0
LINE
  5
307
100
AcDbEntity
  8
0
100
AcDbLine
 62
7
  6
CONTINUOUS
 10
120.8605686134
 20
103.7218778193
 11
120.9723886521
 21
103.6441693811
  0
LINE
  5
308
100
AcDbEntity
  8
0
100
AcDbLine
 62
7
  6
CONTINUOUS
 10
121.7093090625
 20
103.2132372123
 11
121.8490841109
 21
103.1161016645
  0
LINE
  5
309
100
AcDbEntity
  8
0
100
AcDbLine
 62
7
  6
CONTINUOUS
 10
121.0395458345
 20
103.8004599929
 11
120.9836358151
 21
103.8393142119
  0
LINE
  5
30A
100
AcDbEntity
  8
0
100
AcDbLine
 62
7
  6
CONTINUOUS
 10
119.269044467
 20
102.5678838711
 11
120.4574898455
 21
101.4966240602
  0
LINE
  5
30B
100
AcDbEntity
  8
0
100
AcDbLine
 62
7
  6
CONTINUOUS
 10
120.3385366332
 20
101.8731073247
 11
119.4029519434
 21
102.7164395434
  0
LINE
  5
30C
100
AcDbEntity
  8
0
100
AcDbLine
 62
7
  6
CONTINUOUS
 10
117.8471240336
 20
101.3556285107
 11
118.8727190421
 21
100.1275589368
  0
LINE
  5
30D
100
AcDbEntity
  8
0
100
AcDbLine
 62
7
  6
CONTINUOUS
 10
118.8080160609
 20
100.5170496804
 11
118.0006327303
 21
101.4838278868
  0
LWPOLYLINE
  5
30E
100
AcDbEntity
  8
RUNDUNGEN
100
AcDbPolyline
 62
7
  6
CONTINUOUS
 90
4
 70
0
 10
117.9114347266
 20
94.5759248619
 10
117.8669713656
 20
94.6551648409
 10
117.8088637681
 20
94.7250611173
 10
117.757511688
 20
94.7698723975
  0
LINE
  5
30F
100
AcDbEntity
  8
RUNDUNGEN
100
AcDbLine
 62
7
  6
CONTINUOUS
 10
102.0681783551
 20
129.477861609
 11
102.0885652734
 21
129.4240751381
  0
LINE
  5
310
100
AcDbEntity
  8
RUNDUNGEN
100
AcDbLine
 62
7
  6
CONTINUOUS
 10
118.8499963807
 20
132.7266711507
 11
118.7145047148
 21
132.2969464872
  0
LINE
  5
311
100
AcDbEntity
  8
RUNDUNGEN
100
AcDbLine
 62
7
  6
CONTINUOUS
 10
117.9318625532
 20
129.4778487451
 11
118.9466078549
 21
132.6962096699
  0
LINE
  5
312
100
AcDbEntity
  8
0
100
AcDbLine
 62
7
  6
CONTINUOUS
 10
118.1197979013
 20
122.9803650779
 11
118.0598522924
 21
122.85363719
  0
LWPOLYLINE
  5
313
100
AcDbEntity
  8
RUNDUNGEN
100
AcDbPolyline
 62
7
  6
CONTINUOUS
 90
3
 70
0
 10
121.1339743437
 20
127.5635410227
 10
121.0875821895
 20
127.485414633
 10
121.0561040371
 20
127.4001438392
  0
LINE
  5
314
100
AcDbEntity
  8
0
100
AcDbLine
 62
7
  6
CONTINUOUS
 10
119.9567128168
 20
121.6414716944
 11
119.8515524699
 21
121.5035412344
  0
LINE
  5
315
100
AcDbEntity
  8
0
100
AcDbLine
 62
7
  6
CONTINUOUS
 10
118.9649612187
 20
122.3819402627
 11
118.900592713
 21
122.3026512229
  0
LINE
  5
316
100
AcDbEntity
  8
0
100
AcDbLine
 62
7
  6
CONTINUOUS
 10
119.0344109324
 20
122.1501665375
 11
119.1416917754
 21
122.2823149371
  0
LINE
  5
317
100
AcDbEntity
  8
0
100
AcDbLine
 62
7
  6
CONTINUOUS
 10
119.9622009584
 20
121.3789030838
 11
120.0928194438
 21
121.5394339495
  0
LINE
  5
318
100
AcDbEntity
  8
0
100
AcDbLine
 62
7
  6
CONTINUOUS
 10
120.9770161675
 20
121.2100501811
 11
120.8463978444
 21
121.0495192044
  0
LINE
  5
319
100
AcDbEntity
  8
RUNDUNGEN
100
AcDbLine
 62
7
  6
CONTINUOUS
 10
98.8296386652
 20
96.3919101527
 11
98.8660256563
 21
96.4364589773
  0
LINE
  5
31A
100
AcDbEntity
  8
RUNDUNGEN
100
AcDbLine
 62
7
  6
CONTINUOUS
 10
96.7795810802
 20
94.304544292
 11
96.475174438
 21
93.9723427356
  0
LINE
  5
31B
100
AcDbEntity
  8
RUNDUNGEN
100
AcDbLine
 62
7
  6
CONTINUOUS
 10
96.5498605913
 20
93.903905485
 11
98.8296702807
 21
96.3918811798
  0
LINE
  5
31C
100
AcDbEntity
  8
0
100
AcDbLine
 62
7
  6
CONTINUOUS
 10
120.8463978444
 20
121.0495192044
 11
120.6681917611
 21
120.8913153667
  0
LINE
  5
31D
100
AcDbEntity
  8
0
100
AcDbLine
 62
7
  6
CONTINUOUS
 10
120.7533823643
 20
120.7440765252
 11
120.9825044714
 21
120.9474814595
  0
LINE
  5
31E
100
AcDbEntity
  8
0
100
AcDbLine
 62
7
  6
CONTINUOUS
 10
122.3152006435
 20
118.4322515134
 11
122.113552485
 21
118.3009693442
  0
LINE
  5
31F
100
AcDbEntity
  8
0
100
AcDbLine
 62
7
  6
CONTINUOUS
 10
121.5744957763
 20
118.3808692107
 11
121.7481685183
 21
118.4883774145
  0
LINE
  5
320
100
AcDbEntity
  8
0
100
AcDbLine
 62
7
  6
CONTINUOUS
 10
122.7323140831
 20
119.0975905864
 11
122.9349322584
 21
119.2230168095
  0
LINE
  5
321
100
AcDbEntity
  8
0
100
AcDbLine
 62
7
  6
CONTINUOUS
 10
123.2328938457
 20
115.3749156103
 11
123.1063329684
 21
115.3146184797
  0
LINE
  5
322
100
AcDbEntity
  8
0
100
AcDbLine
 62
7
  6
CONTINUOUS
 10
122.6611089193
 20
117.453193269
 11
122.5686276351
 21
117.4098658132
  0
LINE
  5
323
100
AcDbEntity
  8
0
100
AcDbLine
 62
7
  6
CONTINUOUS
 10
122.6085084417
 20
117.2444992222
 11
122.7626439586
 21
117.3167116688
  0
LINE
  5
324
100
AcDbEntity
  8
0
100
AcDbLine
 62
7
  6
CONTINUOUS
 10
122.6016982081
 20
118.3824248045
 11
122.8008024864
 21
118.4388946186
  0
LINE
  5
325
100
AcDbEntity
  8
RUNDUNGEN
100
AcDbLine
 62
7
  6
CONTINUOUS
 10
87.6251780573
 20
109.3009861138
 11
88.0650763654
 21
109.3985092208
  0
LINE
  5
326
100
AcDbEntity
  8
RUNDUNGEN
100
AcDbLine
 62
7
  6
CONTINUOUS
 10
90.8978077067
 20
110.1302700978
 11
87.6032527364
 21
109.3998848451
  0
LINE
  5
327
100
AcDbEntity
  8
0
100
AcDbLine
 62
7
  6
CONTINUOUS
 10
124.0198623938
 20
115.436040593
 11
123.8865307884
 21
115.408381392
  0
LINE
  5
328
100
AcDbEntity
  8
0
100
AcDbLine
 62
7
  6
CONTINUOUS
 10
96.8607773852
 20
110.6181904223
 11
96.1821069554
 21
110.5178124291
  0
LINE
  5
329
100
AcDbEntity
  8
0
100
AcDbLine
 62
7
  6
CONTINUOUS
 10
96.6443289203
 20
111.6383908019
 11
96.7176541654
 21
111.6462337188
  0
LINE
  5
32A
100
AcDbEntity
  8
0
100
AcDbLine
 62
7
  6
CONTINUOUS
 10
123.1076654425
 20
113.6132940049
 11
123.8196069959
 21
113.6781948738
  0
LINE
  5
32B
100
AcDbEntity
  8
0
100
AcDbLine
 62
7
  6
CONTINUOUS
 10
124.0230188411
 20
113.6967379768
 11
124.5315485492
 21
113.7430957428
  0
LINE
  5
32C
100
AcDbEntity
  8
0
100
AcDbLine
 62
7
  6
CONTINUOUS
 10
124.6829016298
 20
113.9577224508
 11
123.0895086521
 21
113.8124681271
  0
LINE
  5
32D
100
AcDbEntity
  8
0
100
AcDbLine
 62
7
  6
CONTINUOUS
 10
96.6196449147
 20
111.998502176
 11
95.9745205119
 21
111.971307814
  0
LINE
  5
32E
100
AcDbEntity
  8
0
100
AcDbLine
 62
7
  6
CONTINUOUS
 10
95.8485156227
 20
113.1984248288
 11
95.6857450355
 21
113.1939487336
  0
LWPOLYLINE
  5
32F
100
AcDbEntity
  8
RUNDUNGEN
100
AcDbPolyline
 62
7
  6
CONTINUOUS
 90
4
 70
0
 10
90.9545909297
 20
113.8605341154
 10
91.0454464449
 20
113.8594205261
 10
91.1350321947
 20
113.8747950434
 10
91.1995159418
 20
113.8968616093
  0
LINE
  5
330
100
AcDbEntity
  8
0
100
AcDbLine
 62
7
  6
CONTINUOUS
 10
123.206596402
 20
112.1165724785
 11
123.9212843233
 21
112.0994239114
  0
LINE
  5
331
100
AcDbEntity
  8
0
100
AcDbLine
 62
7
  6
CONTINUOUS
 10
124.1254808449
 20
112.0945243214
 11
124.6359722445
 21
112.0822753442
  0
LINE
  5
332
100
AcDbEntity
  8
0
100
AcDbLine
 62
7
  6
CONTINUOUS
 10
124.8109335283
 20
112.2781348039
 11
123.2113939177
 21
112.3165149299
  0
LINE
  5
333
100
AcDbEntity
  8
0
100
AcDbLine
 62
7
  6
CONTINUOUS
 10
96.111543338
 20
114.6808864744
 11
95.8949717996
 21
114.6989573005
  0
LINE
  5
334
100
AcDbEntity
  8
RUNDUNGEN
100
AcDbLine
 62
7
  6
CONTINUOUS
 10
129.1021829797
 20
110.1302282382
 11
129.0454090703
 21
110.1394658846
  0
LINE
  5
335
100
AcDbEntity
  8
0
100
AcDbLine
 62
7
  6
CONTINUOUS
 10
96.2886185795
 20
115.042994697
 11
95.9554358418
 21
115.1080051843
  0
LINE
  5
336
100
AcDbEntity
  8
RUNDUNGEN
100
AcDbLine
 62
7
  6
CONTINUOUS
 10
131.9349236346
 20
109.3985092208
 11
132.3748219427
 21
109.3009861138
  0
LINE
  5
337
100
AcDbEntity
  8
RUNDUNGEN
100
AcDbLine
 62
7
  6
CONTINUOUS
 10
132.3967472636
 20
109.3998848451
 11
129.1021922632
 21
110.1302701045
  0
LINE
  5
338
100
AcDbEntity
  8
0
100
AcDbLine
 62
7
  6
CONTINUOUS
 10
122.863680875
 20
109.0077614263
 11
123.5542956586
 21
108.8230342791
  0
LINE
  5
339
100
AcDbEntity
  8
0
100
AcDbLine
 62
7
  6
CONTINUOUS
 10
123.7516141419
 20
108.7702551013
 11
124.2449104422
 21
108.638307132
  0
LINE
  5
33A
100
AcDbEntity
  8
0
100
AcDbLine
 62
7
  6
CONTINUOUS
 10
124.4610221294
 20
108.7875321883
 11
122.9153604929
 21
109.2009691308
  0
LINE
  5
33B
100
AcDbEntity
  8
0
100
AcDbLine
 62
7
  6
CONTINUOUS
 10
97.2911683178
 20
118.3369109598
 11
97.1369126045
 21
118.3900764154
  0
LINE
  5
33C
100
AcDbEntity
  8
0
100
AcDbLine
 62
7
  6
CONTINUOUS
 10
122.6209249889
 20
107.4608271005
 11
123.7273967452
 21
107.0188234683
  0
LINE
  5
33D
100
AcDbEntity
  8
0
100
AcDbLine
 62
7
  6
CONTINUOUS
 10
123.9912710564
 20
107.1287806114
 11
122.5054375862
 21
107.7223283338
  0
LINE
  5
33E
100
AcDbEntity
  8
0
100
AcDbLine
 62
7
  6
CONTINUOUS
 10
98.5345325396
 20
118.564421161
 11
97.925350465
 21
118.8799627492
  0
LINE
  5
33F
100
AcDbEntity
  8
0
100
AcDbLine
 62
7
  6
CONTINUOUS
 10
122.0433206528
 20
106.1621050749
 11
121.8936368571
 21
106.243143018
  0
LINE
  5
340
100
AcDbEntity
  8
0
100
AcDbLine
 62
7
  6
CONTINUOUS
 10
122.3709283236
 20
106.3761732137
 11
122.5166303063
 21
106.2820754549
  0
LINE
  5
341
100
AcDbEntity
  8
0
100
AcDbLine
 62
7
  6
CONTINUOUS
 10
121.8136781502
 20
104.3178773274
 11
122.2609583834
 21
104.0070435202
  0
LINE
  5
342
100
AcDbEntity
  8
0
100
AcDbLine
 62
7
  6
CONTINUOUS
 10
122.4958447531
 20
104.0467702217
 11
121.7690144231
 21
104.5518751243
  0
LINE
  5
343
100
AcDbEntity
  8
0
100
AcDbLine
 62
7
  6
CONTINUOUS
 10
120.2063968015
 20
103.6077735773
 11
121.1419814913
 21
102.7644413586
  0
LINE
  5
344
100
AcDbEntity
  8
0
100
AcDbLine
 62
7
  6
CONTINUOUS
 10
121.5287496563
 20
102.6850694387
 11
120.3403042779
 21
103.7563292496
  0
LINE
  5
345
100
AcDbEntity
  8
RUNDUNGEN
100
AcDbLine
 62
7
  6
CONTINUOUS
 10
96.475174438
 20
130.0276572644
 11
96.7795810802
 21
129.695455708
  0
LINE
  5
346
100
AcDbEntity
  8
RUNDUNGEN
100
AcDbLine
 62
7
  6
CONTINUOUS
 10
98.8296702598
 20
127.6081188429
 11
96.5498605913
 21
130.096094515
  0
LINE
  5
347
100
AcDbEntity
  8
0
100
AcDbLine
 62
7
  6
CONTINUOUS
 10
118.9216849108
 20
102.2530241432
 11
119.7290682414
 21
101.2862459368
  0
LINE
  5
348
100
AcDbEntity
  8
0
100
AcDbLine
 62
7
  6
CONTINUOUS
 10
120.1007886161
 20
101.1531539453
 11
119.0751936075
 21
102.3812235193
  0
LWPOLYLINE
  5
349
100
AcDbEntity
  8
RUNDUNGEN
100
AcDbPolyline
 62
7
  6
CONTINUOUS
 90
4
 70
0
 10
102.0885652734
 20
129.4240751381
 10
102.1330286344
 20
129.3448351591
 10
102.1911362319
 20
129.2749388827
 10
102.242488312
 20
129.2301276025
  0
LINE
  5
34A
100
AcDbEntity
  8
RUNDUNGEN
100
AcDbLine
 62
7
  6
CONTINUOUS
 10
117.9318216449
 20
94.522138391
 11
117.9114347266
 21
94.5759248619
  0
LINE
  5
34B
100
AcDbEntity
  8
RUNDUNGEN
100
AcDbLine
 62
7
  6
CONTINUOUS
 10
118.7145047148
 20
91.7030535128
 11
118.8499963807
 21
91.2733288493
  0
LINE
  5
34C
100
AcDbEntity
  8
RUNDUNGEN
100
AcDbLine
 62
7
  6
CONTINUOUS
 10
118.9466078549
 20
91.3037903301
 11
117.9318625439
 21
94.5221512843
  0
LINE
  5
34D
100
AcDbEntity
  8
0
100
AcDbLine
 62
7
  6
CONTINUOUS
 10
114.0
 20
123.8954823357
 11
114.0
 21
128.25
  0
LWPOLYLINE
  5
34E
100
AcDbEntity
  8
RUNDUNGEN
100
AcDbPolyline
 62
7
  6
CONTINUOUS
 90
3
 70
0
 10
120.9214289617
 20
126.6283338351
 10
120.8336799844
 20
126.3888404906
 10
120.7583899942
 20
126.2302414057
  0
LINE
  5
34F
100
AcDbEntity
  8
0
100
AcDbLine
 62
7
  6
CONTINUOUS
 10
118.2365828421
 20
122.7540118701
 11
118.2750722893
 21
122.8543100724
  0
LINE
  5
350
100
AcDbEntity
  8
0
100
AcDbLine
 62
7
  6
CONTINUOUS
 10
118.743343438
 20
123.2195780028
 11
118.7818328853
 21
123.3198762051
  0
LINE
  5
351
100
AcDbEntity
  8
0
100
AcDbLine
 62
7
  6
CONTINUOUS
 10
119.4931780434
 20
122.8739361494
 11
119.5316675092
 21
122.9742343367
  0
LINE
  5
352
100
AcDbEntity
  8
0
100
AcDbLine
 62
7
  6
CONTINUOUS
 10
118.6051023286
 20
123.4195015307
 11
118.545156722
 21
123.2927736409
  0
LINE
  5
353
100
AcDbEntity
  8
RUNDUNGEN
100
AcDbLine
 62
7
  6
CONTINUOUS
 10
120.7584087696
 20
126.2302778915
 11
120.7583898767
 21
126.2302411799
  0
LINE
  5
354
100
AcDbEntity
  8
0
100
AcDbLine
 62
7
  6
CONTINUOUS
 10
119.8515524699
 20
121.5035412344
 11
119.7973081826
 21
121.4108119024
  0
LINE
  5
355
100
AcDbEntity
  8
0
100
AcDbLine
 62
7
  6
CONTINUOUS
 10
121.087664656
 20
121.0854120305
 11
121.1419091413
 21
121.1781412831
  0
LINE
  5
356
100
AcDbEntity
  8
RUNDUNGEN
100
AcDbLine
 62
7
  6
CONTINUOUS
 10
103.0553721967
 20
95.5677272466
 11
103.0553481777
 21
95.5676899696
  0
LINE
  5
357
100
AcDbEntity
  8
RUNDUNGEN
100
AcDbLine
 62
7
  6
CONTINUOUS
 10
103.0553719723
 20
95.5677268947
 11
102.9570096681
 21
95.425038304
  0
LINE
  5
358
100
AcDbEntity
  8
0
100
AcDbLine
 62
7
  6
CONTINUOUS
 10
120.9825044714
 20
120.9474814595
 11
121.087664656
 21
121.0854120305
  0
LINE
  5
359
100
AcDbEntity
  8
RUNDUNGEN
100
AcDbLine
 62
7
  6
CONTINUOUS
 10
102.9570096681
 20
95.425038304
 11
102.7947942563
 21
95.2303758228
  0
LINE
  5
35A
100
AcDbEntity
  8
0
100
AcDbLine
 62
7
  6
CONTINUOUS
 10
122.113552485
 20
118.3009693442
 11
121.9877002473
 21
118.1683870582
  0
LINE
  5
35B
100
AcDbEntity
  8
0
100
AcDbLine
 62
7
  6
CONTINUOUS
 10
122.1367479066
 20
118.0909751704
 11
122.2150876429
 21
118.1644873783
  0
LINE
  5
35C
100
AcDbEntity
  8
0
100
AcDbLine
 62
7
  6
CONTINUOUS
 10
122.739448537
 20
117.5267058425
 11
122.6611089193
 21
117.453193269
  0
LINE
  5
35D
100
AcDbEntity
  8
0
100
AcDbLine
 62
7
  6
CONTINUOUS
 10
123.2892486547
 20
117.6370459482
 11
123.3675882292
 21
117.7105585015
  0
LINE
  5
35E
100
AcDbEntity
  8
0
100
AcDbLine
 62
7
  6
CONTINUOUS
 10
123.1802902743
 20
115.1257025935
 11
123.2735182736
 21
115.1790849287
  0
LINE
  5
35F
100
AcDbEntity
  8
0
100
AcDbLine
 62
7
  6
CONTINUOUS
 10
123.8672600949
 20
115.1660831707
 11
123.9604880943
 21
115.2194655058
  0
LINE
  5
360
100
AcDbEntity
  8
0
100
AcDbLine
 62
7
  6
CONTINUOUS
 10
124.2297551679
 20
114.4242492361
 11
124.3229831672
 21
114.4776315712
  0
LINE
  5
361
100
AcDbEntity
  8
0
100
AcDbLine
 62
7
  6
CONTINUOUS
 10
123.8865307884
 20
115.408381392
 11
123.759969911
 21
115.3480842615
  0
LINE
  5
362
100
AcDbEntity
  8
0
100
AcDbLine
 62
7
  6
CONTINUOUS
 10
124.5024697884
 20
112.9371277024
 11
124.4037899514
 21
112.8946609705
  0
LINE
  5
363
100
AcDbEntity
  8
0
100
AcDbLine
 62
7
  6
CONTINUOUS
 10
124.4219467418
 20
112.6954868483
 11
124.5206265789
 21
112.7379535802
  0
LINE
  5
364
100
AcDbEntity
  8
0
100
AcDbLine
 62
7
  6
CONTINUOUS
 10
98.0966458564
 20
104.4889808252
 11
97.8568221312
 21
104.4038576232
  0
LINE
  5
365
100
AcDbEntity
  8
0
100
AcDbLine
 62
7
  6
CONTINUOUS
 10
98.9487354586
 20
104.2140800248
 11
99.1977830676
 21
104.302477202
  0
LINE
  5
366
100
AcDbEntity
  8
0
100
AcDbLine
 62
7
  6
CONTINUOUS
 10
123.9076913681
 20
111.5329205535
 11
123.186606747
 21
111.2834786771
  0
LINE
  5
367
100
AcDbEntity
  8
0
100
AcDbLine
 62
7
  6
CONTINUOUS
 10
124.514683939
 20
111.2849560966
 11
124.4117860678
 21
111.2540811328
  0
LINE
  5
368
100
AcDbEntity
  8
0
100
AcDbLine
 62
7
  6
CONTINUOUS
 10
124.4069885521
 20
111.0541386814
 11
124.5098864233
 21
111.0850136453
  0
LINE
  5
369
100
AcDbEntity
  8
0
100
AcDbLine
 62
7
  6
CONTINUOUS
 10
122.5686276351
 20
117.4098658132
 11
122.4620046411
 21
117.3967234549
  0
LINE
  5
36A
100
AcDbEntity
  8
0
100
AcDbLine
 62
7
  6
CONTINUOUS
 10
122.3075689272
 20
118.2078148341
 11
122.4141918025
 21
118.220957558
  0
LINE
  5
36B
100
AcDbEntity
  8
0
100
AcDbLine
 62
7
  6
CONTINUOUS
 10
122.8008024864
 20
118.4388946186
 11
122.9074254049
 21
118.4520373628
  0
LINE
  5
36C
100
AcDbEntity
  8
0
100
AcDbLine
 62
7
  6
CONTINUOUS
 10
122.4260898505
 20
117.2326562899
 11
122.6085084417
 21
117.2444992222
  0
LINE
  5
36D
100
AcDbEntity
  8
RUNDUNGEN
100
AcDbLine
 62
7
  6
CONTINUOUS
 10
92.296870947
 20
114.2019144314
 11
92.2969176567
 21
114.2019167254
  0
LINE
  5
36E
100
AcDbEntity
  8
0
100
AcDbLine
 62
7
  6
CONTINUOUS
 10
124.1599645404
 20
115.4310618258
 11
124.0198623938
 21
115.436040593
  0
LINE
  5
36F
100
AcDbEntity
  8
RUNDUNGEN
100
AcDbLine
 62
7
  6
CONTINUOUS
 10
127.7031476061
 20
114.2019280546
 11
127.7031908983
 21
114.2019259429
  0
LWPOLYLINE
  5
370
100
AcDbEntity
  8
RUNDUNGEN
100
AcDbPolyline
 62
7
  6
CONTINUOUS
 90
5
 70
0
 10
127.7031479719
 20
114.2019280385
 10
127.8751827578
 20
114.1881497717
 10
128.124484739
 20
114.1451625981
 10
128.3602908823
 20
114.0770479604
 10
128.4860213073
 20
114.0287517388
  0
LINE
  5
371
100
AcDbEntity
  8
0
100
AcDbLine
 62
7
  6
CONTINUOUS
 10
124.0271538503
 20
115.2332950967
 11
124.1339232123
 21
115.2214015533
  0
LINE
  5
372
100
AcDbEntity
  8
0
100
AcDbLine
 62
7
  6
CONTINUOUS
 10
124.1816067418
 20
112.7070484
 11
124.28633875
 21
112.683124771
  0
LINE
  5
373
100
AcDbEntity
  8
0
100
AcDbLine
 62
7
  6
CONTINUOUS
 10
124.3020839338
 20
112.8853894103
 11
124.1973519256
 21
112.9093130394
  0
LINE
  5
374
100
AcDbEntity
  8
0
100
AcDbLine
 62
7
  6
CONTINUOUS
 10
124.1695587918
 20
111.0931796309
 11
124.2708574423
 21
111.057405077
  0
LINE
  5
375
100
AcDbEntity
  8
0
100
AcDbLine
 62
7
  6
CONTINUOUS
 10
124.3096877116
 20
111.25653093
 11
124.2083890611
 21
111.2923054839
  0
LINE
  5
376
100
AcDbEntity
  8
0
100
AcDbLine
 62
7
  6
CONTINUOUS
 10
123.5589888806
 20
107.7866235192
 11
123.649034984
 21
107.7280331375
  0
LINE
  5
377
100
AcDbEntity
  8
0
100
AcDbLine
 62
7
  6
CONTINUOUS
 10
123.7336010157
 20
107.9124443124
 11
123.6435549123
 21
107.9710346941
  0
LINE
  5
378
100
AcDbEntity
  8
0
100
AcDbLine
 62
7
  6
CONTINUOUS
 10
122.5908237716
 20
106.4678046386
 11
122.4767352632
 21
106.549273724
  0
LINE
  5
379
100
AcDbEntity
  8
0
100
AcDbLine
 62
7
  6
CONTINUOUS
 10
122.2362917909
 20
104.7309572736
 11
122.3401691227
 21
104.6368142995
  0
LINE
  5
37A
100
AcDbEntity
  8
0
100
AcDbLine
 62
7
  6
CONTINUOUS
 10
123.0593671201
 20
105.5362128743
 11
122.9554905148
 21
105.6303571903
  0
LINE
  5
37B
100
AcDbEntity
  8
0
100
AcDbLine
 62
7
  6
CONTINUOUS
 10
120.9836358151
 20
103.8393142119
 11
120.9187928762
 21
103.9249677398
  0
LINE
  5
37C
100
AcDbEntity
  8
0
100
AcDbLine
 62
7
  6
CONTINUOUS
 10
120.7588385964
 20
103.8737590321
 11
120.8605686134
 21
103.7218778193
  0
LINE
  5
37D
100
AcDbEntity
  8
0
100
AcDbLine
 62
7
  6
CONTINUOUS
 10
120.65835106
 20
101.7194575687
 11
119.9311047345
 21
103.0481427483
  0
LINE
  5
37E
100
AcDbEntity
  8
0
100
AcDbLine
 62
7
  6
CONTINUOUS
 10
119.7154020404
 20
103.0630686899
 11
120.3385366332
 21
101.8731073247
  0
LINE
  5
37F
100
AcDbEntity
  8
RUNDUNGEN
100
AcDbLine
 62
7
  6
CONTINUOUS
 10
120.7583907442
 20
97.7697338563
 11
120.7584111588
 21
97.7696941502
  0
LINE
  5
380
100
AcDbEntity
  8
RUNDUNGEN
100
AcDbLine
 62
7
  6
CONTINUOUS
 10
120.7583909377
 20
97.7697334844
 11
120.8323318977
 21
97.6142870928
  0
LINE
  5
381
100
AcDbEntity
  8
0
100
AcDbLine
 62
7
  6
CONTINUOUS
 10
119.1029820872
 20
100.3198580009
 11
118.5702646748
 21
101.7377803129
  0
LWPOLYLINE
  5
382
100
AcDbEntity
  8
RUNDUNGEN
100
AcDbPolyline
 62
7
  6
CONTINUOUS
 90
4
 70
0
 10
120.8323318977
 20
97.6142870928
 10
120.920051428
 20
97.3761665172
 10
120.9789518046
 20
97.1379608079
 10
120.9999655412
 20
97.0050123545
  0
LINE
  5
383
100
AcDbEntity
  8
0
100
AcDbLine
 62
7
  6
CONTINUOUS
 10
118.3588200798
 20
101.7829600903
 11
118.8080160609
 21
100.5170496804
  0
LINE
  5
384
100
AcDbEntity
  8
0
100
AcDbLine
 62
7
  6
CONTINUOUS
 10
118.0598522924
 20
122.85363719
 11
118.0302086232
 21
122.658461258
  0
LINE
  5
385
100
AcDbEntity
  8
0
100
AcDbLine
 62
7
  6
CONTINUOUS
 10
119.1416917754
 20
122.2823149371
 11
119.1757583998
 21
122.4300519889
  0
LINE
  5
386
100
AcDbEntity
  8
0
100
AcDbLine
 62
7
  6
CONTINUOUS
 10
119.3549369525
 20
123.0738596623
 11
119.3379036553
 21
122.9999911549
  0
LINE
  5
387
100
AcDbEntity
  8
RUNDUNGEN
100
AcDbLine
 62
7
  6
CONTINUOUS
 10
120.9802292066
 20
126.8689267496
 11
120.9214289617
 21
126.6283338351
  0
LINE
  5
388
100
AcDbEntity
  8
0
100
AcDbLine
 62
7
  6
CONTINUOUS
 10
119.8979717359
 20
121.1435891723
 11
119.9622009584
 21
121.3789030838
  0
LINE
  5
389
100
AcDbEntity
  8
0
100
AcDbLine
 62
7
  6
CONTINUOUS
 10
119.7973081826
 20
121.4108119024
 11
119.7397354872
 21
121.2705544619
  0
LINE
  5
38A
100
AcDbEntity
  8
0
100
AcDbLine
 62
7
  6
CONTINUOUS
 10
121.1419091413
 20
121.1781412831
 11
121.1994816922
 21
121.3183988505
  0
LINE
  5
38B
100
AcDbEntity
  8
0
100
AcDbLine
 62
7
  6
CONTINUOUS
 10
121.9877002473
 20
118.1683870582
 11
121.906816663
 21
118.0200625104
  0
LINE
  5
38C
100
AcDbEntity
  8
0
100
AcDbLine
 62
7
  6
CONTINUOUS
 10
122.0725498584
 20
117.9872778549
 11
122.1367479066
 21
118.0909751704
  0
LINE
  5
38D
100
AcDbEntity
  8
0
100
AcDbLine
 62
7
  6
CONTINUOUS
 10
122.7626439586
 20
117.3167116688
 11
122.8884963366
 21
117.4492935992
  0
LINE
  5
38E
100
AcDbEntity
  8
RUNDUNGEN
100
AcDbLine
 62
7
  6
CONTINUOUS
 10
102.7947942563
 20
95.2303758228
 11
102.6182075039
 21
95.0606151537
  0
LINE
  5
38F
100
AcDbEntity
  8
0
100
AcDbLine
 62
7
  6
CONTINUOUS
 10
123.1063329684
 20
115.3146184797
 11
122.9599807573
 21
115.1821291546
  0
LINE
  5
390
100
AcDbEntity
  8
0
100
AcDbLine
 62
7
  6
CONTINUOUS
 10
123.5834096817
 20
114.188037958
 11
123.7031998161
 21
114.2809737942
  0
LINE
  5
391
100
AcDbEntity
  8
0
100
AcDbLine
 62
7
  6
CONTINUOUS
 10
124.2490258613
 20
114.6665474574
 11
124.18913074
 21
114.6200799177
  0
LINE
  5
392
100
AcDbEntity
  8
0
100
AcDbLine
 62
7
  6
CONTINUOUS
 10
123.1810096575
 20
111.0502129924
 11
123.9709593596
 21
111.3313449056
  0
LINE
  5
393
100
AcDbEntity
  8
0
100
AcDbLine
 62
7
  6
CONTINUOUS
 10
120.3593671745
 20
120.5725806474
 11
120.5054587367
 21
120.6131274818
  0
LINE
  5
394
100
AcDbEntity
  8
0
100
AcDbLine
 62
7
  6
CONTINUOUS
 10
120.5798500048
 20
122.016372665
 11
120.4337585872
 21
121.9758257037
  0
LINE
  5
395
100
AcDbEntity
  8
0
100
AcDbLine
 62
7
  6
CONTINUOUS
 10
120.4933139057
 20
120.7806397327
 11
120.2520470763
 21
120.7447468907
  0
LINE
  5
396
100
AcDbEntity
  8
0
100
AcDbLine
 62
7
  6
CONTINUOUS
 10
122.9433403357
 20
118.6161041723
 11
122.7609215179
 21
118.6042615551
  0
LINE
  5
397
100
AcDbEntity
  8
0
100
AcDbLine
 62
7
  6
CONTINUOUS
 10
98.532690934
 20
119.4554844913
 11
98.7973868898
 21
119.4420434162
  0
LINE
  5
398
100
AcDbEntity
  8
0
100
AcDbLine
 62
7
  6
CONTINUOUS
 10
122.4620046411
 20
117.3967234549
 11
122.3412402395
 21
117.4137654931
  0
LINE
  5
399
100
AcDbEntity
  8
0
100
AcDbLine
 62
7
  6
CONTINUOUS
 10
122.2603566552
 20
117.2654409453
 11
122.4260898505
 21
117.2326562899
  0
LINE
  5
39A
100
AcDbEntity
  8
0
100
AcDbLine
 62
7
  6
CONTINUOUS
 10
123.2698723321
 20
114.1910814393
 11
123.4167452917
 21
114.1534639809
  0
LINE
  5
39B
100
AcDbEntity
  8
0
100
AcDbLine
 62
7
  6
CONTINUOUS
 10
123.4094537418
 20
114.3562094579
 11
123.2959136835
 21
114.4007417166
  0
LINE
  5
39C
100
AcDbEntity
  8
0
100
AcDbLine
 62
7
  6
CONTINUOUS
 10
122.2692057479
 20
106.4885981165
 11
122.3709283236
 21
106.3761732137
  0
LINE
  5
39D
100
AcDbEntity
  8
0
100
AcDbLine
 62
7
  6
CONTINUOUS
 10
122.4353887037
 20
104.8126927558
 11
122.3473817865
 21
104.9361497005
  0
LINE
  5
39E
100
AcDbEntity
  8
0
100
AcDbLine
 62
7
  6
CONTINUOUS
 10
122.4767352632
 20
106.549273724
 11
122.406626184
 21
106.6490699446
  0
LINE
  5
39F
100
AcDbEntity
  8
0
100
AcDbLine
 62
7
  6
CONTINUOUS
 10
122.1782216286
 20
104.838206632
 11
122.2362917909
 21
104.7309572736
  0
LINE
  5
3A0
100
AcDbEntity
  8
0
100
AcDbLine
 62
7
  6
CONTINUOUS
 10
120.9187928762
 20
103.9249677398
 11
120.8729728786
 21
104.0379947336
  0
LWPOLYLINE
  5
3A1
100
AcDbEntity
  8
RUNDUNGEN
100
AcDbPolyline
 62
7
  6
CONTINUOUS
 90
4
 70
0
 10
121.0533985779
 20
96.610398678
 10
121.0829819401
 20
96.5245161408
 10
121.1276821747
 20
96.4453407836
 10
121.1703613437
 20
96.3919101373
  0
LINE
  5
3A2
100
AcDbEntity
  8
0
100
AcDbLine
 62
7
  6
CONTINUOUS
 10
120.704085689
 20
104.0335853278
 11
120.7588385964
 21
103.8737590321
  0
LINE
  5
3A3
100
AcDbEntity
  8
0
100
AcDbLine
 62
7
  6
CONTINUOUS
 10
118.2498515153
 20
122.611695309
 11
118.2365828421
 21
122.7540118701
  0
LINE
  5
3A4
100
AcDbEntity
  8
0
100
AcDbLine
 62
7
  6
CONTINUOUS
 10
118.545156722
 20
123.2927736409
 11
118.5628483094
 21
123.1030182484
  0
LINE
  5
3A5
100
AcDbEntity
  8
0
100
AcDbLine
 62
7
  6
CONTINUOUS
 10
119.1757583998
 20
122.4300519889
 11
119.1580667661
 21
122.619807419
  0
LINE
  5
3A6
100
AcDbEntity
  8
0
100
AcDbLine
 62
7
  6
CONTINUOUS
 10
119.5316675092
 20
122.9742343367
 11
119.5398549895
 21
123.1429805591
  0
LINE
  5
3A7
100
AcDbEntity
  8
0
100
AcDbLine
 62
7
  6
CONTINUOUS
 10
119.7397354872
 20
121.2705544619
 11
119.7297505609
 21
121.1279698903
  0
LINE
  5
3A8
100
AcDbEntity
  8
0
100
AcDbLine
 62
7
  6
CONTINUOUS
 10
118.9775716746
 20
122.5032476346
 11
118.9649612187
 21
122.3819402627
  0
LINE
  5
3A9
100
AcDbEntity
  8
RUNDUNGEN
100
AcDbLine
 62
7
  6
CONTINUOUS
 10
121.042928433
 20
127.3332715611
 11
120.9999647778
 21
126.9949877429
  0
LINE
  5
3AA
100
AcDbEntity
  8
RUNDUNGEN
100
AcDbLine
 62
7
  6
CONTINUOUS
 10
120.9999607289
 20
126.9949882578
 11
120.9802292066
 21
126.8689267496
  0
LINE
  5
3AB
100
AcDbEntity
  8
RUNDUNGEN
100
AcDbLine
 62
7
  6
CONTINUOUS
 10
121.0561040371
 20
127.4001438392
 11
121.0429723702
 21
127.3332659932
  0
LINE
  5
3AC
100
AcDbEntity
  8
0
100
AcDbLine
 62
7
  6
CONTINUOUS
 10
121.0412455701
 20
121.4453639974
 11
120.9770161675
 21
121.2100501811
  0
LINE
  5
3AD
100
AcDbEntity
  8
0
100
AcDbLine
 62
7
  6
CONTINUOUS
 10
122.7728196307
 20
117.6159603172
 11
122.739448537
 21
117.5267058425
  0
LINE
  5
3AE
100
AcDbEntity
  8
0
100
AcDbLine
 62
7
  6
CONTINUOUS
 10
123.3675882292
 20
117.7105585015
 11
123.4484718027
 21
117.8588830442
  0
LINE
  5
3AF
100
AcDbEntity
  8
0
100
AcDbLine
 62
7
  6
CONTINUOUS
 10
123.2827386181
 20
117.8916677047
 11
123.2185407533
 21
117.7879700539
  0
LINE
  5
3B0
100
AcDbEntity
  8
0
100
AcDbLine
 62
7
  6
CONTINUOUS
 10
123.1006038309
 20
115.0070428617
 11
123.1802902743
 21
115.1257025935
  0
LINE
  5
3B1
100
AcDbEntity
  8
0
100
AcDbLine
 62
7
  6
CONTINUOUS
 10
123.759969911
 20
115.3480842615
 11
123.6537214026
 21
115.1898710431
  0
LINE
  5
3B2
100
AcDbEntity
  8
0
100
AcDbLine
 62
7
  6
CONTINUOUS
 10
123.7031998161
 20
114.2809737942
 11
123.8094483246
 21
114.4391870126
  0
LINE
  5
3B3
100
AcDbEntity
  8
0
100
AcDbLine
 62
7
  6
CONTINUOUS
 10
124.3229831672
 20
114.4776315712
 11
124.4360024653
 21
114.6032060937
  0
LINE
  5
3B4
100
AcDbEntity
  8
0
100
AcDbLine
 62
7
  6
CONTINUOUS
 10
123.5959096322
 20
114.462974885
 11
123.5094523758
 21
114.3769538442
  0
LINE
  5
3B5
100
AcDbEntity
  8
0
100
AcDbLine
 62
7
  6
CONTINUOUS
 10
124.5206265789
 20
112.7379535802
 11
124.6471560805
 21
112.84990271
  0
LWPOLYLINE
  5
3B6
100
AcDbEntity
  8
RUNDUNGEN
100
AcDbPolyline
 62
7
  6
CONTINUOUS
 90
5
 70
0
 10
102.2424883028
 20
94.7698723866
 10
102.19891359
 20
94.7326753724
 10
102.1393288121
 20
94.6641141606
 10
102.0931110587
 20
94.5858149433
 10
102.0681783463
 20
94.5221383755
  0
LINE
  5
3B7
100
AcDbEntity
  8
RUNDUNGEN
100
AcDbLine
 62
7
  6
CONTINUOUS
 10
102.6182075039
 20
95.0606151537
 11
102.5139425576
 21
94.9762565549
  0
LINE
  5
3B8
100
AcDbEntity
  8
RUNDUNGEN
100
AcDbLine
 62
7
  6
CONTINUOUS
 10
102.5139420745
 20
94.9762571905
 11
102.2424615018
 21
94.7699076494
  0
LINE
  5
3B9
100
AcDbEntity
  8
0
100
AcDbLine
 62
7
  6
CONTINUOUS
 10
124.5098864233
 20
111.0850136453
 11
124.6484161956
 21
111.1817184777
  0
LINE
  5
3BA
100
AcDbEntity
  8
RUNDUNGEN
100
AcDbLine
 62
7
  6
CONTINUOUS
 10
128.8004669115
 20
110.1031792254
 11
128.4860227037
 21
109.9712449332
  0
LINE
  5
3BB
100
AcDbEntity
  8
0
100
AcDbLine
 62
7
  6
CONTINUOUS
 10
123.8878531115
 20
107.6986581981
 11
124.0452385759
 21
107.7600759318
  0
LWPOLYLINE
  5
3BC
100
AcDbEntity
  8
RUNDUNGEN
100
AcDbPolyline
 62
7
  6
CONTINUOUS
 90
5
 70
0
 10
128.486021145
 20
109.9712486497
 10
128.3671161239
 20
109.9253531666
 10
128.1293733483
 20
109.8559689634
 10
127.8779545673
 20
109.812185511
 10
127.7029501001
 20
109.7980887946
  0
LINE
  5
3BD
100
AcDbEntity
  8
0
100
AcDbLine
 62
7
  6
CONTINUOUS
 10
120.4459032203
 20
121.8083135322
 11
120.6871702298
 21
121.844206279
  0
LINE
  5
3BE
100
AcDbEntity
  8
0
100
AcDbLine
 62
7
  6
CONTINUOUS
 10
118.7074871731
 20
122.0647840758
 11
118.896828163
 21
122.0864660944
  0
LINE
  5
3BF
100
AcDbEntity
  8
0
100
AcDbLine
 62
7
  6
CONTINUOUS
 10
119.7409548661
 20
122.4565603888
 11
120.0502271884
 21
122.4902729763
  0
LINE
  5
3C0
100
AcDbEntity
  8
0
100
AcDbLine
 62
7
  6
CONTINUOUS
 10
120.2386321274
 20
122.6869271617
 11
119.9293598711
 21
122.6532146431
  0
LINE
  5
3C1
100
AcDbEntity
  8
0
100
AcDbLine
 62
7
  6
CONTINUOUS
 10
99.3321495378
 20
119.796381409
 11
98.4940273108
 21
119.7833112618
  0
LINE
  5
3C2
100
AcDbEntity
  8
0
100
AcDbLine
 62
7
  6
CONTINUOUS
 10
120.2166041381
 20
120.5795617709
 11
120.3593671745
 21
120.5725806474
  0
LINE
  5
3C3
100
AcDbEntity
  8
0
100
AcDbLine
 62
7
  6
CONTINUOUS
 10
122.9074254049
 20
118.4520373628
 11
123.0281899468
 21
118.434994969
  0
LINE
  5
3C4
100
AcDbEntity
  8
0
100
AcDbLine
 62
7
  6
CONTINUOUS
 10
123.1090735202
 20
118.5833195117
 11
122.9433403357
 21
118.6161041723
  0
LINE
  5
3C5
100
AcDbEntity
  8
0
100
AcDbLine
 62
7
  6
CONTINUOUS
 10
121.1516473693
 20
119.4520198145
 11
122.7323140831
 21
119.0975905864
  0
LINE
  5
3C6
100
AcDbEntity
  8
0
100
AcDbLine
 62
7
  6
CONTINUOUS
 10
122.7024812152
 20
119.2751388918
 11
121.1042698267
 21
119.6579104385
  0
LINE
  5
3C7
100
AcDbEntity
  8
0
100
AcDbLine
 62
7
  6
CONTINUOUS
 10
122.4141918025
 20
118.220957558
 11
122.5041292496
 21
118.189472679
  0
LWPOLYLINE
  5
3C8
100
AcDbEntity
  8
RUNDUNGEN
100
AcDbPolyline
 62
7
  6
CONTINUOUS
 90
5
 70
0
 10
128.8004840722
 20
113.8968616068
 10
128.8544849879
 20
113.8777233056
 10
128.943653128
 20
113.8604019802
 10
129.034571116
 20
113.8595258403
 10
129.1021829975
 20
113.8697717618
  0
LINE
  5
3C9
100
AcDbEntity
  8
RUNDUNGEN
100
AcDbLine
 62
7
  6
CONTINUOUS
 10
128.4860227033
 20
114.028755067
 11
128.8004669342
 21
113.896820765
  0
LINE
  5
3CA
100
AcDbEntity
  8
0
100
AcDbLine
 62
7
  6
CONTINUOUS
 10
124.0369204498
 20
112.7942733925
 11
124.1816067418
 21
112.7070484
  0
LINE
  5
3CB
100
AcDbEntity
  8
0
100
AcDbLine
 62
7
  6
CONTINUOUS
 10
123.1094578048
 20
114.293976292
 11
123.2698723321
 21
114.1910814393
  0
LINE
  5
3CC
100
AcDbEntity
  8
RUNDUNGEN
100
AcDbLine
 62
7
  6
CONTINUOUS
 10
102.2424615215
 20
129.2300923356
 11
102.5139420738
 21
129.0237428099
  0
LINE
  5
3CD
100
AcDbEntity
  8
0
100
AcDbLine
 62
7
  6
CONTINUOUS
 10
124.0358265352
 20
111.1964172498
 11
124.1695587918
 21
111.0931796309
  0
LWPOLYLINE
  5
3CE
100
AcDbEntity
  8
RUNDUNGEN
100
AcDbPolyline
 62
7
  6
CONTINUOUS
 90
3
 70
0
 10
102.5139391714
 20
129.0237389928
 10
102.6138872697
 20
128.9430624809
 10
102.636013807
 20
128.9238634447
  0
LINE
  5
3CF
100
AcDbEntity
  8
0
100
AcDbLine
 62
7
  6
CONTINUOUS
 10
124.1973519256
 20
112.9093130394
 11
124.1234956675
 21
112.9695238857
  0
LINE
  5
3D0
100
AcDbEntity
  8
0
100
AcDbLine
 62
7
  6
CONTINUOUS
 10
124.2083890611
 20
111.2923054839
 11
124.1419227014
 21
111.3605851473
  0
LINE
  5
3D1
100
AcDbEntity
  8
0
100
AcDbLine
 62
7
  6
CONTINUOUS
 10
123.453283034
 20
107.91841349
 11
123.5589888806
 21
107.7866235192
  0
LINE
  5
3D2
100
AcDbEntity
  8
0
100
AcDbLine
 62
7
  6
CONTINUOUS
 10
123.6435549123
 20
107.9710346941
 11
123.5950087552
 21
108.0530308129
  0
LINE
  5
3D3
100
AcDbEntity
  8
0
100
AcDbLine
 62
7
  6
CONTINUOUS
 10
122.8761406218
 20
105.4837913628
 11
122.9342107841
 21
105.3765420044
  0
LINE
  5
3D4
100
AcDbEntity
  8
0
100
AcDbLine
 62
7
  6
CONTINUOUS
 10
122.1922139611
 20
106.6629317982
 11
122.2692057479
 21
106.4885981165
  0
LINE
  5
3D5
100
AcDbEntity
  8
RUNDUNGEN
100
AcDbLine
 62
7
  6
CONTINUOUS
 10
121.0429723751
 20
96.6667339934
 11
121.0533985779
 21
96.610398678
  0
LINE
  5
3D6
100
AcDbEntity
  8
RUNDUNGEN
100
AcDbLine
 62
7
  6
CONTINUOUS
 10
120.9999647777
 20
97.0050122575
 11
121.0429284361
 21
96.6667284145
  0
LINE
  5
3D7
100
AcDbEntity
  8
0
100
AcDbLine
 62
7
  6
CONTINUOUS
 10
122.9342107841
 20
105.3765420044
 11
122.9464745035
 21
105.2561876036
  0
LINE
  5
3D8
100
AcDbEntity
  8
0
100
AcDbLine
 62
7
  6
CONTINUOUS
 10
119.3460911357
 20
123.1687373773
 11
119.3549369525
 21
123.0738596623
  0
LINE
  5
3D9
100
AcDbEntity
  8
0
100
AcDbLine
 62
7
  6
CONTINUOUS
 10
122.1784491256
 20
106.8120081319
 11
122.1922139611
 21
106.6629317982
  0
LINE
  5
3DA
100
AcDbEntity
  8
0
100
AcDbLine
 62
7
  6
CONTINUOUS
 10
121.6358580508
 20
104.3602672237
 11
121.6436338487
 21
104.1924958451
  0
LINE
  5
3DB
100
AcDbEntity
  8
0
100
AcDbLine
 62
7
  6
CONTINUOUS
 10
120.8729728786
 20
104.0379947336
 11
120.8741300003
 21
104.1589668034
  0
LINE
  5
3DC
100
AcDbEntity
  8
0
100
AcDbLine
 62
7
  6
CONTINUOUS
 10
120.7153328447
 20
104.2287301638
 11
120.704085689
 21
104.0335853278
  0
LINE
  5
3DD
100
AcDbEntity
  8
0
100
AcDbLine
 62
7
  6
CONTINUOUS
 10
121.8024309872
 20
104.1227324966
 11
121.8136781502
 21
104.3178773274
  0
LINE
  5
3DE
100
AcDbEntity
  8
0
100
AcDbLine
 62
7
  6
CONTINUOUS
 10
121.1994816922
 20
121.3183988505
 11
121.2094667362
 21
121.4609832715
  0
LINE
  5
3DF
100
AcDbEntity
  8
0
100
AcDbLine
 62
7
  6
CONTINUOUS
 10
121.906816663
 20
118.0200625104
 11
121.885043272
 21
117.8258109451
  0
LINE
  5
3E0
100
AcDbEntity
  8
0
100
AcDbLine
 62
7
  6
CONTINUOUS
 10
122.9385528153
 20
117.5831756567
 11
122.9603261982
 21
117.7774272182
  0
LINE
  5
3E1
100
AcDbEntity
  8
0
100
AcDbLine
 62
7
  6
CONTINUOUS
 10
122.0533204744
 20
117.8678382828
 11
122.0725498584
 21
117.9872778549
  0
LINE
  5
3E2
100
AcDbEntity
  8
0
100
AcDbLine
 62
7
  6
CONTINUOUS
 10
122.7920490147
 20
117.7353998894
 11
122.7728196307
 21
117.6159603172
  0
LINE
  5
3E3
100
AcDbEntity
  8
0
100
AcDbLine
 62
7
  6
CONTINUOUS
 10
123.3019680021
 20
118.0111072769
 11
123.2827386181
 21
117.8916677047
  0
LINE
  5
3E4
100
AcDbEntity
  8
0
100
AcDbLine
 62
7
  6
CONTINUOUS
 10
123.6537214026
 20
115.1898710431
 11
123.6141386502
 21
115.0454874155
  0
LINE
  5
3E5
100
AcDbEntity
  8
0
100
AcDbLine
 62
7
  6
CONTINUOUS
 10
122.9599807573
 20
115.1821291546
 11
122.8938359078
 21
114.9981920338
  0
LINE
  5
3E6
100
AcDbEntity
  8
0
100
AcDbLine
 62
7
  6
CONTINUOUS
 10
122.8884963366
 20
117.4492935992
 11
122.9385528153
 21
117.5831756567
  0
LINE
  5
3E7
100
AcDbEntity
  8
0
100
AcDbLine
 62
7
  6
CONTINUOUS
 10
123.8209065529
 20
115.054338239
 11
123.8672600949
 21
115.1660831707
  0
LINE
  5
3E8
100
AcDbEntity
  8
0
100
AcDbLine
 62
7
  6
CONTINUOUS
 10
123.6422631743
 20
114.5747198166
 11
123.5959096322
 21
114.462974885
  0
LINE
  5
3E9
100
AcDbEntity
  8
0
100
AcDbLine
 62
7
  6
CONTINUOUS
 10
124.4360024653
 20
114.6032060937
 11
124.5089180957
 21
114.7545045167
  0
LINE
  5
3EA
100
AcDbEntity
  8
0
100
AcDbLine
 62
7
  6
CONTINUOUS
 10
124.6471560805
 20
112.84990271
 11
124.736757453
 21
112.9919572628
  0
LINE
  5
3EB
100
AcDbEntity
  8
0
100
AcDbLine
 62
7
  6
CONTINUOUS
 10
124.3021500381
 20
114.7456544402
 11
124.2490258613
 21
114.6665474574
  0
LINE
  5
3EC
100
AcDbEntity
  8
0
100
AcDbLine
 62
7
  6
CONTINUOUS
 10
124.6484161956
 20
111.1817184777
 11
124.7537127881
 21
111.3125631418
  0
LINE
  5
3ED
100
AcDbEntity
  8
0
100
AcDbLine
 62
7
  6
CONTINUOUS
 10
124.5642214272
 20
113.0097006174
 11
124.5024697884
 21
112.9371277024
  0
LINE
  5
3EE
100
AcDbEntity
  8
0
100
AcDbLine
 62
7
  6
CONTINUOUS
 10
124.5843485938
 20
111.3499693668
 11
124.514683939
 21
111.2849560966
  0
LINE
  5
3EF
100
AcDbEntity
  8
0
100
AcDbLine
 62
7
  6
CONTINUOUS
 10
124.0452385759
 20
107.7600759318
 11
124.1783511589
 21
107.862492462
  0
LINE
  5
3F0
100
AcDbEntity
  8
0
100
AcDbLine
 62
7
  6
CONTINUOUS
 10
123.4237407535
 20
106.3504456068
 11
123.3234170722
 21
106.2828383618
  0
LINE
  5
3F1
100
AcDbEntity
  8
0
100
AcDbLine
 62
7
  6
CONTINUOUS
 10
124.0225322277
 20
107.9386759029
 11
123.9395327293
 21
107.8918659027
  0
LWPOLYLINE
  5
3F2
100
AcDbEntity
  8
RUNDUNGEN
100
AcDbPolyline
 62
7
  6
CONTINUOUS
 90
3
 70
0
 10
102.9070521931
 20
95.1384864792
 10
102.8352720261
 20
95.0985658474
 10
102.6201991298
 20
94.9588016066
  0
LINE
  5
3F3
100
AcDbEntity
  8
0
100
AcDbLine
 62
7
  6
CONTINUOUS
 10
122.7242959653
 20
104.8458054335
 11
122.6168126648
 21
104.7902813781
  0
LINE
  5
3F4
100
AcDbEntity
  8
0
100
AcDbLine
 62
7
  6
CONTINUOUS
 10
121.1986678688
 20
104.7452737851
 11
121.0196906403
 21
104.6666916166
  0
LINE
  5
3F5
100
AcDbEntity
  8
0
100
AcDbLine
 62
7
  6
CONTINUOUS
 10
121.3190959704
 20
103.6061888702
 11
121.4980731915
 21
103.6847710437
  0
LINE
  5
3F6
100
AcDbEntity
  8
0
100
AcDbLine
 62
7
  6
CONTINUOUS
 10
123.3124505555
 20
106.0718518312
 11
123.4883665743
 21
106.1451561209
  0
LINE
  5
3F7
100
AcDbEntity
  8
0
100
AcDbLine
 62
7
  6
CONTINUOUS
 10
121.1404436157
 20
104.5421838577
 11
121.2534207762
 21
104.5854474894
  0
LINE
  5
3F8
100
AcDbEntity
  8
0
100
AcDbLine
 62
7
  6
CONTINUOUS
 10
121.3773202333
 20
103.8092787907
 11
121.2643430728
 21
103.7660151591
  0
LINE
  5
3F9
100
AcDbEntity
  8
0
100
AcDbLine
 62
7
  6
CONTINUOUS
 10
122.5356594242
 20
104.5688813649
 11
122.718886649
 21
104.6213042183
  0
LINE
  5
3FA
100
AcDbEntity
  8
0
100
AcDbLine
 62
7
  6
CONTINUOUS
 10
118.9919717414
 20
123.6316119209
 11
118.8026308052
 21
123.6099298741
  0
LINE
  5
3FB
100
AcDbEntity
  8
0
100
AcDbLine
 62
7
  6
CONTINUOUS
 10
120.722613159
 20
122.0093913909
 11
120.5798500048
 21
122.016372665
  0
LINE
  5
3FC
100
AcDbEntity
  8
0
100
AcDbLine
 62
7
  6
CONTINUOUS
 10
118.7844661272
 20
122.2653804782
 11
118.6639165809
 21
122.2755486026
  0
LINE
  5
3FD
100
AcDbEntity
  8
0
100
AcDbLine
 62
7
  6
CONTINUOUS
 10
118.9149928469
 20
123.4310155162
 11
119.0355423966
 21
123.4208473583
  0
LINE
  5
3FE
100
AcDbEntity
  8
0
100
AcDbLine
 62
7
  6
CONTINUOUS
 10
118.5610585962
 20
122.0959613594
 11
118.7074871731
 21
122.0647840758
  0
LINE
  5
3FF
100
AcDbEntity
  8
0
100
AcDbLine
 62
7
  6
CONTINUOUS
 10
120.2520470763
 20
120.7447468907
 11
120.134741934
 21
120.7743287131
  0
LINE
  5
400
100
AcDbEntity
  8
0
100
AcDbLine
 62
7
  6
CONTINUOUS
 10
120.6871702298
 20
121.844206279
 11
120.804475372
 21
121.8146244566
  0
LINE
  5
401
100
AcDbEntity
  8
0
100
AcDbLine
 62
7
  6
CONTINUOUS
 10
120.0295814806
 20
120.6363984135
 11
120.2166041381
 21
120.5795617709
  0
LINE
  5
402
100
AcDbEntity
  8
0
100
AcDbLine
 62
7
  6
CONTINUOUS
 10
122.3412402395
 20
117.4137654931
 11
122.2371612444
 21
117.4754351242
  0
LINE
  5
403
100
AcDbEntity
  8
0
100
AcDbLine
 62
7
  6
CONTINUOUS
 10
122.5041292496
 20
118.189472679
 11
122.6082082447
 21
118.1278030479
  0
LINE
  5
404
100
AcDbEntity
  8
0
100
AcDbLine
 62
7
  6
CONTINUOUS
 10
122.7482020087
 20
118.2302005718
 11
122.5400440186
 21
118.353539834
  0
LINE
  5
405
100
AcDbEntity
  8
0
100
AcDbLine
 62
7
  6
CONTINUOUS
 10
123.0281899468
 20
118.434994969
 11
123.1322689418
 21
118.373325338
  0
LINE
  5
406
100
AcDbEntity
  8
0
100
AcDbLine
 62
7
  6
CONTINUOUS
 10
124.320379056
 20
115.3281669707
 11
124.1599645404
 21
115.4310618258
  0
LINE
  5
407
100
AcDbEntity
  8
0
100
AcDbLine
 62
7
  6
CONTINUOUS
 10
122.0971674615
 20
117.3730375915
 11
122.2603566552
 21
117.2654409453
  0
LINE
  5
408
100
AcDbEntity
  8
0
100
AcDbLine
 62
7
  6
CONTINUOUS
 10
123.2959136835
 20
114.4007417166
 11
123.2089356902
 21
114.4848274617
  0
LINE
  5
409
100
AcDbEntity
  8
0
100
AcDbLine
 62
7
  6
CONTINUOUS
 10
124.1339232123
 20
115.2214015533
 11
124.2209011823
 21
115.1373158034
  0
LINE
  5
40A
100
AcDbEntity
  8
0
100
AcDbLine
 62
7
  6
CONTINUOUS
 10
122.2371612444
 20
117.4754351242
 11
122.1639093441
 21
117.5515472405
  0
LINE
  5
40B
100
AcDbEntity
  8
0
100
AcDbLine
 62
7
  6
CONTINUOUS
 10
123.9231099771
 20
112.9177848424
 11
124.0369204498
 21
112.7942733925
  0
LINE
  5
40C
100
AcDbEntity
  8
0
100
AcDbLine
 62
7
  6
CONTINUOUS
 10
123.0157091914
 20
114.410699989
 11
123.1094578048
 21
114.293976292
  0
LINE
  5
40D
100
AcDbEntity
  8
0
100
AcDbLine
 62
7
  6
CONTINUOUS
 10
123.9709593596
 20
111.3313449056
 11
124.0358265352
 21
111.1964172498
  0
LINE
  5
40E
100
AcDbEntity
  8
0
100
AcDbLine
 62
7
  6
CONTINUOUS
 10
118.5628483094
 20
123.1030182484
 11
118.6234522248
 21
122.9661222232
  0
LINE
  5
40F
100
AcDbEntity
  8
0
100
AcDbLine
 62
7
  6
CONTINUOUS
 10
118.0302086232
 20
122.658461258
 11
118.0952354321
 21
122.4741263759
  0
LINE
  5
410
100
AcDbEntity
  8
0
100
AcDbLine
 62
7
  6
CONTINUOUS
 10
123.1156346613
 20
105.3541306721
 11
123.0593671201
 21
105.5362128743
  0
LINE
  5
411
100
AcDbEntity
  8
0
100
AcDbLine
 62
7
  6
CONTINUOUS
 10
118.7780683134
 20
123.1036911252
 11
118.743343438
 21
123.2195780028
  0
LINE
  5
412
100
AcDbEntity
  8
0
100
AcDbLine
 62
7
  6
CONTINUOUS
 10
118.9428468177
 20
122.6191344972
 11
118.9775716746
 21
122.5032476346
  0
LINE
  5
413
100
AcDbEntity
  8
0
100
AcDbLine
 62
7
  6
CONTINUOUS
 10
122.3473817865
 20
104.9361497005
 11
122.0433206528
 21
106.1621050749
  0
LINE
  5
414
100
AcDbEntity
  8
0
100
AcDbLine
 62
7
  6
CONTINUOUS
 10
121.9163609692
 20
105.9276000193
 11
122.1782216286
 21
104.838206632
  0
LINE
  5
415
100
AcDbEntity
  8
0
100
AcDbLine
 62
7
  6
CONTINUOUS
 10
119.5398549895
 20
123.1429805591
 11
119.5007072613
 21
123.3063062492
  0
LINE
  5
416
100
AcDbEntity
  8
0
100
AcDbLine
 62
7
  6
CONTINUOUS
 10
122.406626184
 20
106.6490699446
 11
122.3804959459
 21
106.7671918922
  0
LINE
  5
417
100
AcDbEntity
  8
0
100
AcDbLine
 62
7
  6
CONTINUOUS
 10
123.4219635476
 20
108.0648126684
 11
123.453283034
 21
107.91841349
  0
LINE
  5
418
100
AcDbEntity
  8
0
100
AcDbLine
 62
7
  6
CONTINUOUS
 10
119.7297505609
 20
121.1279698903
 11
119.764025007
 21
120.935530089
  0
LINE
  5
419
100
AcDbEntity
  8
0
100
AcDbLine
 62
7
  6
CONTINUOUS
 10
119.9134448305
 20
121.023605157
 11
119.8979717359
 21
121.1435891723
  0
LINE
  5
41A
100
AcDbEntity
  8
0
100
AcDbLine
 62
7
  6
CONTINUOUS
 10
121.0257724755
 20
121.5653480128
 11
121.0412455701
 21
121.4453639974
  0
LINE
  5
41B
100
AcDbEntity
  8
0
100
AcDbLine
 62
7
  6
CONTINUOUS
 10
123.0895086521
 20
113.8124681271
 11
123.1076654425
 21
113.6132940049
  0
LINE
  5
41C
100
AcDbEntity
  8
0
100
AcDbLine
 62
7
  6
CONTINUOUS
 10
123.8196069959
 20
113.6781948738
 11
123.8740773672
 21
113.0806725072
  0
LINE
  5
41D
100
AcDbEntity
  8
0
100
AcDbLine
 62
7
  6
CONTINUOUS
 10
124.080515298
 20
113.0660204296
 11
124.0230188411
 21
113.6967379768
  0
LINE
  5
41E
100
AcDbEntity
  8
0
100
AcDbLine
 62
7
  6
CONTINUOUS
 10
124.5315485492
 20
113.7430957428
 11
124.5890450061
 21
113.1123781956
  0
LINE
  5
41F
100
AcDbEntity
  8
0
100
AcDbLine
 62
7
  6
CONTINUOUS
 10
124.7555287916
 20
113.1610259619
 11
124.6829016298
 21
113.9577224508
  0
LINE
  5
420
100
AcDbEntity
  8
0
100
AcDbLine
 62
7
  6
CONTINUOUS
 10
123.5950087552
 20
108.0530308129
 11
123.5879621502
 21
108.1584311948
  0
LINE
  5
421
100
AcDbEntity
  8
0
100
AcDbLine
 62
7
  6
CONTINUOUS
 10
122.8938359078
 20
114.9981920338
 11
122.8943566651
 21
114.8280852522
  0
LINE
  5
422
100
AcDbEntity
  8
0
100
AcDbLine
 62
7
  6
CONTINUOUS
 10
123.8490312319
 20
114.5835698931
 11
123.8485103167
 21
114.7536774212
  0
LINE
  5
423
100
AcDbEntity
  8
0
100
AcDbLine
 62
7
  6
CONTINUOUS
 10
124.5089180957
 20
114.7545045167
 11
124.5083973355
 21
114.9246112978
  0
LINE
  5
424
100
AcDbEntity
  8
0
100
AcDbLine
 62
7
  6
CONTINUOUS
 10
123.2113939177
 20
112.3165149299
 11
123.206596402
 21
112.1165724785
  0
LINE
  5
425
100
AcDbEntity
  8
0
100
AcDbLine
 62
7
  6
CONTINUOUS
 10
123.186606747
 20
111.2834786771
 11
123.1810096575
 21
111.0502129924
  0
LINE
  5
426
100
AcDbEntity
  8
0
100
AcDbLine
 62
7
  6
CONTINUOUS
 10
123.1120286927
 20
105.2044636425
 11
123.1156346613
 21
105.3541306721
  0
LINE
  5
427
100
AcDbEntity
  8
0
100
AcDbLine
 62
7
  6
CONTINUOUS
 10
123.9212843233
 20
112.0994239114
 11
123.9076913681
 21
111.5329205535
  0
LINE
  5
428
100
AcDbEntity
  8
0
100
AcDbLine
 62
7
  6
CONTINUOUS
 10
124.1102887057
 20
111.4613729713
 11
124.1254808449
 21
112.0945243214
  0
LINE
  5
429
100
AcDbEntity
  8
0
100
AcDbLine
 62
7
  6
CONTINUOUS
 10
124.6359722445
 20
112.0822753442
 11
124.6207801052
 21
111.4491239941
  0
LINE
  5
42A
100
AcDbEntity
  8
0
100
AcDbLine
 62
7
  6
CONTINUOUS
 10
124.7917434837
 20
111.4783657614
 11
124.8109335283
 21
112.2781348039
  0
LINE
  5
42B
100
AcDbEntity
  8
0
100
AcDbLine
 62
7
  6
CONTINUOUS
 10
123.0943539564
 20
114.8695740295
 11
123.1006038309
 21
115.0070428617
  0
LINE
  5
42C
100
AcDbEntity
  8
0
100
AcDbLine
 62
7
  6
CONTINUOUS
 10
123.6141386502
 20
115.0454874155
 11
123.6078886208
 21
114.9080193304
  0
LINE
  5
42D
100
AcDbEntity
  8
0
100
AcDbLine
 62
7
  6
CONTINUOUS
 10
123.6485130487
 20
114.7121886487
 11
123.6422631743
 21
114.5747198166
  0
LINE
  5
42E
100
AcDbEntity
  8
0
100
AcDbLine
 62
7
  6
CONTINUOUS
 10
124.736757453
 20
112.9919572628
 11
124.7555287916
 21
113.1610259619
  0
LINE
  5
42F
100
AcDbEntity
  8
0
100
AcDbLine
 62
7
  6
CONTINUOUS
 10
123.4484718027
 20
117.8588830442
 11
123.4702451856
 21
118.0531346057
  0
LINE
  5
430
100
AcDbEntity
  8
0
100
AcDbLine
 62
7
  6
CONTINUOUS
 10
123.8078858888
 20
114.9495081028
 11
123.8209065529
 21
115.054338239
  0
LINE
  5
431
100
AcDbEntity
  8
0
100
AcDbLine
 62
7
  6
CONTINUOUS
 10
124.3151707021
 20
114.8504845764
 11
124.3021500381
 21
114.7456544402
  0
LINE
  5
432
100
AcDbEntity
  8
0
100
AcDbLine
 62
7
  6
CONTINUOUS
 10
122.3804959459
 20
106.7671918922
 11
122.3983445931
 21
106.9036395492
  0
LINE
  5
433
100
AcDbEntity
  8
RUNDUNGEN
100
AcDbLine
 62
7
  6
CONTINUOUS
 10
126.0874894345
 20
128.8205786121
 11
126.094409384
 21
128.8608799662
  0
LINE
  5
434
100
AcDbEntity
  8
0
100
AcDbLine
 62
7
  6
CONTINUOUS
 10
122.208663725
 20
106.9794115986
 11
122.1784491256
 21
106.8120081319
  0
LINE
  5
435
100
AcDbEntity
  8
RUNDUNGEN
100
AcDbLine
 62
7
  6
CONTINUOUS
 10
125.9990511583
 20
128.9023402358
 11
125.8817348073
 21
128.2677544981
  0
LINE
  5
436
100
AcDbEntity
  8
RUNDUNGEN
100
AcDbLine
 62
7
  6
CONTINUOUS
 10
126.0944030582
 20
128.8608811355
 11
126.098663174
 21
128.8839248862
  0
LINE
  5
437
100
AcDbEntity
  8
0
100
AcDbLine
 62
7
  6
CONTINUOUS
 10
124.7537127881
 20
111.3125631418
 11
124.7917434837
 21
111.4783657614
  0
LINE
  5
438
100
AcDbEntity
  8
0
100
AcDbLine
 62
7
  6
CONTINUOUS
 10
124.5890450061
 20
113.1123781956
 11
124.5642214272
 21
113.0097006174
  0
LINE
  5
439
100
AcDbEntity
  8
0
100
AcDbLine
 62
7
  6
CONTINUOUS
 10
122.9153604929
 20
109.2009691308
 11
122.863680875
 21
109.0077614263
  0
LINE
  5
43A
100
AcDbEntity
  8
0
100
AcDbLine
 62
7
  6
CONTINUOUS
 10
122.6483492656
 20
108.2027298153
 11
122.5880565096
 21
107.977321318
  0
LINE
  5
43B
100
AcDbEntity
  8
0
100
AcDbLine
 62
7
  6
CONTINUOUS
 10
123.5542956586
 20
108.8230342791
 11
123.4078703377
 21
108.2756134322
  0
LINE
  5
43C
100
AcDbEntity
  8
0
100
AcDbLine
 62
7
  6
CONTINUOUS
 10
123.5879621502
 20
108.1584311948
 11
123.7516141419
 21
108.7702551013
  0
LINE
  5
43D
100
AcDbEntity
  8
0
100
AcDbLine
 62
7
  6
CONTINUOUS
 10
124.2449104422
 20
108.638307132
 11
124.0812584505
 21
108.0264832256
  0
LINE
  5
43E
100
AcDbEntity
  8
0
100
AcDbLine
 62
7
  6
CONTINUOUS
 10
124.2543036581
 20
108.0147013701
 11
124.4610221294
 21
108.7875321883
  0
LINE
  5
43F
100
AcDbEntity
  8
0
100
AcDbLine
 62
7
  6
CONTINUOUS
 10
123.8094483246
 20
114.4391870126
 11
123.8490312319
 21
114.5835698931
  0
LINE
  5
440
100
AcDbEntity
  8
0
100
AcDbLine
 62
7
  6
CONTINUOUS
 10
122.9464745035
 20
105.2561876036
 11
122.8970620918
 21
105.0934155316
  0
LINE
  5
441
100
AcDbEntity
  8
0
100
AcDbLine
 62
7
  6
CONTINUOUS
 10
123.0308754521
 20
104.9830636293
 11
123.1120286927
 21
105.2044636425
  0
LINE
  5
442
100
AcDbEntity
  8
0
100
AcDbLine
 62
7
  6
CONTINUOUS
 10
124.6207801052
 20
111.4491239941
 11
124.5843485938
 21
111.3499693668
  0
LINE
  5
443
100
AcDbEntity
  8
0
100
AcDbLine
 62
7
  6
CONTINUOUS
 10
120.8741300003
 20
104.1589668034
 11
120.9222642218
 21
104.2878839629
  0
LINE
  5
444
100
AcDbEntity
  8
0
100
AcDbLine
 62
7
  6
CONTINUOUS
 10
121.6436338487
 20
104.1924958451
 11
121.5954987563
 21
104.0635774325
  0
LINE
  5
445
100
AcDbEntity
  8
0
100
AcDbLine
 62
7
  6
CONTINUOUS
 10
122.5054375862
 20
107.7223283338
 11
122.208663725
 21
106.9794115986
  0
LINE
  5
446
100
AcDbEntity
  8
0
100
AcDbLine
 62
7
  6
CONTINUOUS
 10
122.3983445931
 20
106.9036395492
 11
122.6209249889
 21
107.4608271005
  0
LINE
  5
447
100
AcDbEntity
  8
0
100
AcDbLine
 62
7
  6
CONTINUOUS
 10
123.7273967452
 20
107.0188234683
 11
123.5048163493
 21
106.4616359169
  0
LINE
  5
448
100
AcDbEntity
  8
0
100
AcDbLine
 62
7
  6
CONTINUOUS
 10
123.6944971952
 20
106.3858638763
 11
123.9912710564
 21
107.1287806114
  0
LINE
  5
449
100
AcDbEntity
  8
0
100
AcDbLine
 62
7
  6
CONTINUOUS
 10
120.7824891539
 20
104.3850195242
 11
120.7153328447
 21
104.2287301638
  0
LINE
  5
44A
100
AcDbEntity
  8
0
100
AcDbLine
 62
7
  6
CONTINUOUS
 10
121.7352738047
 20
103.9664418848
 11
121.8024309872
 21
104.1227324966
  0
LINE
  5
44B
100
AcDbEntity
  8
0
100
AcDbLine
 62
7
  6
CONTINUOUS
 10
124.1783511589
 20
107.862492462
 11
124.2543036581
 21
108.0147013701
  0
LINE
  5
44C
100
AcDbEntity
  8
0
100
AcDbLine
 62
7
  6
CONTINUOUS
 10
121.8936368571
 20
106.243143018
 11
121.3223193706
 21
105.1878722803
  0
LINE
  5
44D
100
AcDbEntity
  8
0
100
AcDbLine
 62
7
  6
CONTINUOUS
 10
121.4720031663
 20
105.1068343373
 11
121.9163609692
 21
105.9276000193
  0
LINE
  5
44E
100
AcDbEntity
  8
0
100
AcDbLine
 62
7
  6
CONTINUOUS
 10
122.9554905148
 20
105.6303571903
 11
122.8761406218
 21
105.4837913628
  0
LINE
  5
44F
100
AcDbEntity
  8
0
100
AcDbLine
 62
7
  6
CONTINUOUS
 10
122.8970620918
 20
105.0934155316
 11
122.8335818868
 21
104.9761623329
  0
LINE
  5
450
100
AcDbEntity
  8
0
100
AcDbLine
 62
7
  6
CONTINUOUS
 10
122.9673959735
 20
104.8658117724
 11
123.0308754521
 21
104.9830636293
  0
LINE
  5
451
100
AcDbEntity
  8
0
100
AcDbLine
 62
7
  6
CONTINUOUS
 10
123.6010556445
 20
106.2437177576
 11
123.6944971952
 21
106.3858638763
  0
LINE
  5
452
100
AcDbEntity
  8
0
100
AcDbLine
 62
7
  6
CONTINUOUS
 10
124.0812584505
 20
108.0264832256
 11
124.0225322277
 21
107.9386759029
  0
LINE
  5
453
100
AcDbEntity
  8
0
100
AcDbLine
 62
7
  6
CONTINUOUS
 10
120.8966234361
 20
104.5492552257
 11
120.7824891539
 21
104.3850195242
  0
LINE
  5
454
100
AcDbEntity
  8
0
100
AcDbLine
 62
7
  6
CONTINUOUS
 10
120.9222642218
 20
104.2878839629
 11
121.036398504
 21
104.4521196643
  0
LINE
  5
455
100
AcDbEntity
  8
0
100
AcDbLine
 62
7
  6
CONTINUOUS
 10
121.4032850147
 20
104.562483436
 11
121.5174192969
 21
104.7267191375
  0
LINE
  5
456
100
AcDbEntity
  8
0
100
AcDbLine
 62
7
  6
CONTINUOUS
 10
121.7690144231
 20
104.5518751243
 11
121.6358580508
 21
104.3602672237
  0
LINE
  5
457
100
AcDbEntity
  8
0
100
AcDbLine
 62
7
  6
CONTINUOUS
 10
121.5954987563
 20
104.0635774325
 11
121.4813644741
 21
103.8993417311
  0
LINE
  5
458
100
AcDbEntity
  8
0
100
AcDbLine
 62
7
  6
CONTINUOUS
 10
121.6211395225
 20
103.8022061834
 11
121.7352738047
 21
103.9664418848
  0
LINE
  5
459
100
AcDbEntity
  8
0
100
AcDbLine
 62
7
  6
CONTINUOUS
 10
122.2609583834
 20
104.0070435202
 11
121.7093090625
 21
103.2132372123
  0
LINE
  5
45A
100
AcDbEntity
  8
0
100
AcDbLine
 62
7
  6
CONTINUOUS
 10
121.8490841109
 20
103.1161016645
 11
122.4958447531
 21
104.0467702217
  0
LINE
  5
45B
100
AcDbEntity
  8
0
100
AcDbLine
 62
7
  6
CONTINUOUS
 10
123.5048163493
 20
106.4616359169
 11
123.4237407535
 21
106.3504456068
  0
LINE
  5
45C
100
AcDbEntity
  8
0
100
AcDbLine
 62
7
  6
CONTINUOUS
 10
122.8422396375
 20
104.7061409025
 11
122.9673959735
 21
104.8658117724
  0
LINE
  5
45D
100
AcDbEntity
  8
0
100
AcDbLine
 62
7
  6
CONTINUOUS
 10
122.8335818868
 20
104.9761623329
 11
122.7242959653
 21
104.8458054335
  0
LINE
  5
45E
100
AcDbEntity
  8
0
100
AcDbLine
 62
7
  6
CONTINUOUS
 10
120.3403042779
 20
103.7563292496
 11
120.2063968015
 21
103.6077735773
  0
LINE
  5
45F
100
AcDbEntity
  8
0
100
AcDbLine
 62
7
  6
CONTINUOUS
 10
119.8939456828
 20
103.2611432974
 11
119.7154020404
 21
103.0630686899
  0
LINE
  5
460
100
AcDbEntity
  8
0
100
AcDbLine
 62
7
  6
CONTINUOUS
 10
119.4029519434
 20
102.7164395434
 11
119.269044467
 21
102.5678838711
  0
LINE
  5
461
100
AcDbEntity
  8
0
100
AcDbLine
 62
7
  6
CONTINUOUS
 10
120.4574898455
 20
101.4966240602
 11
120.65835106
 21
101.7194575687
  0
LINE
  5
462
100
AcDbEntity
  8
0
100
AcDbLine
 62
7
  6
CONTINUOUS
 10
121.3278884418
 20
102.4622359303
 11
121.5287496563
 21
102.6850694387
  0
LINE
  5
463
100
AcDbEntity
  8
0
100
AcDbLine
 62
7
  6
CONTINUOUS
 10
121.0196906403
 20
104.6666916166
 11
120.8966234361
 21
104.5492552257
  0
LINE
  5
464
100
AcDbEntity
  8
0
100
AcDbLine
 62
7
  6
CONTINUOUS
 10
121.4980731915
 20
103.6847710437
 11
121.6211395225
 21
103.8022061834
  0
LINE
  5
465
100
AcDbEntity
  8
0
100
AcDbLine
 62
7
  6
CONTINUOUS
 10
123.4883665743
 20
106.1451561209
 11
123.6010556445
 21
106.2437177576
  0
LINE
  5
466
100
AcDbEntity
  8
0
100
AcDbLine
 62
7
  6
CONTINUOUS
 10
121.036398504
 20
104.4521196643
 11
121.1404436157
 21
104.5421838577
  0
LINE
  5
467
100
AcDbEntity
  8
0
100
AcDbLine
 62
7
  6
CONTINUOUS
 10
121.4813644741
 20
103.8993417311
 11
121.3773202333
 21
103.8092787907
  0
LINE
  5
468
100
AcDbEntity
  8
RUNDUNGEN
100
AcDbLine
 62
7
  6
CONTINUOUS
 10
103.8525787457
 20
90.1121369517
 11
103.3616695516
 21
89.6932451426
  0
LINE
  5
469
100
AcDbEntity
  8
RUNDUNGEN
100
AcDbLine
 62
7
  6
CONTINUOUS
 10
103.42742372
 20
89.6161862813
 11
103.4452501354
 21
89.631397525
  0
LINE
  5
46A
100
AcDbEntity
  8
RUNDUNGEN
100
AcDbLine
 62
7
  6
CONTINUOUS
 10
103.4452543084
 20
89.6313926344
 11
103.4687011843
 21
89.6510161647
  0
LINE
  5
46B
100
AcDbEntity
  8
0
100
AcDbLine
 62
7
  6
CONTINUOUS
 10
119.0751936075
 20
102.3812235193
 11
118.9216849108
 21
102.2530241432
  0
LINE
  5
46C
100
AcDbEntity
  8
0
100
AcDbLine
 62
7
  6
CONTINUOUS
 10
118.5634975613
 20
101.9538919397
 11
118.3588200798
 21
101.7829600903
  0
LINE
  5
46D
100
AcDbEntity
  8
0
100
AcDbLine
 62
7
  6
CONTINUOUS
 10
118.0006327303
 20
101.4838278868
 11
117.8471240336
 21
101.3556285107
  0
LINE
  5
46E
100
AcDbEntity
  8
0
100
AcDbLine
 62
7
  6
CONTINUOUS
 10
118.8727190421
 20
100.1275589368
 11
119.1029820872
 21
100.3198580009
  0
LINE
  5
46F
100
AcDbEntity
  8
0
100
AcDbLine
 62
7
  6
CONTINUOUS
 10
119.870525571
 20
100.9608548812
 11
120.1007886161
 21
101.1531539453
  0
LWPOLYLINE
  5
470
100
AcDbEntity
  8
RUNDUNGEN
100
AcDbPolyline
 62
7
  6
CONTINUOUS
 90
5
 70
0
 10
103.4687011843
 20
89.6510161647
 10
103.593377252
 20
89.7436187592
 10
103.7266584073
 20
89.8238175176
 10
103.867224813
 20
89.8907801415
 10
104.0130126172
 20
89.9435758498
  0
LINE
  5
471
100
AcDbEntity
  8
0
100
AcDbLine
 62
7
  6
CONTINUOUS
 10
122.718886649
 20
104.6213042183
 11
122.8422396375
 21
104.7061409025
  0
LINE
  5
472
100
AcDbEntity
  8
RUNDUNGEN
100
AcDbLine
 62
7
  6
CONTINUOUS
 10
132.6107931017
 20
106.4781147726
 11
132.6491550729
 21
106.4922725977
  0
LINE
  5
473
100
AcDbEntity
  8
RUNDUNGEN
100
AcDbLine
 62
7
  6
CONTINUOUS
 10
132.6373816067
 20
106.5955853783
 11
132.0291560615
 21
106.3798914498
  0
LINE
  5
474
100
AcDbEntity
  8
RUNDUNGEN
100
AcDbLine
 62
7
  6
CONTINUOUS
 10
132.6491529226
 20
106.4922786606
 11
132.671239454
 21
106.5001111674
  0
LINE
  5
475
100
AcDbEntity
  8
0
100
AcDbLine
 62
7
  6
CONTINUOUS
 10
119.1384003311
 20
123.6004346154
 11
118.9919717414
 21
123.6316119209
  0
LINE
  5
476
100
AcDbEntity
  8
0
100
AcDbLine
 62
7
  6
CONTINUOUS
 10
120.9096356832
 20
121.952554885
 11
120.722613159
 21
122.0093913909
  0
LINE
  5
477
100
AcDbEntity
  8
RUNDUNGEN
100
AcDbLine
 62
7
  6
CONTINUOUS
 10
132.0291560615
 20
117.6201085502
 11
132.6373816067
 21
117.4044146217
  0
LINE
  5
478
100
AcDbEntity
  8
RUNDUNGEN
100
AcDbLine
 62
7
  6
CONTINUOUS
 10
132.671239454
 20
117.4998888326
 11
132.6491529227
 21
117.5077213393
  0
LINE
  5
479
100
AcDbEntity
  8
RUNDUNGEN
100
AcDbLine
 62
7
  6
CONTINUOUS
 10
132.6491550716
 20
117.5077273985
 11
132.620437158
 21
117.5182212236
  0
LINE
  5
47A
100
AcDbEntity
  8
0
100
AcDbLine
 62
7
  6
CONTINUOUS
 10
119.0355423966
 20
123.4208473583
 11
119.1346357592
 21
123.3842495354
  0
LWPOLYLINE
  5
47B
100
AcDbEntity
  8
RUNDUNGEN
100
AcDbPolyline
 62
7
  6
CONTINUOUS
 90
4
 70
0
 10
132.620437158
 20
117.5182212236
 10
132.4779029248
 20
117.5798925682
 10
132.341808185
 20
117.6552180553
 10
132.2135336489
 20
117.7434708216
  0
LINE
  5
47C
100
AcDbEntity
  8
0
100
AcDbLine
 62
7
  6
CONTINUOUS
 10
118.6639165809
 20
122.2755486026
 11
118.5389441413
 21
122.3331556031
  0
LINE
  5
47D
100
AcDbEntity
  8
0
100
AcDbLine
 62
7
  6
CONTINUOUS
 10
119.2633727708
 20
123.542827615
 11
119.1384003311
 21
123.6004346154
  0
LINE
  5
47E
100
AcDbEntity
  8
0
100
AcDbLine
 62
7
  6
CONTINUOUS
 10
118.4102071147
 20
122.174577505
 11
118.5610585962
 21
122.0959613594
  0
LINE
  5
47F
100
AcDbEntity
  8
0
100
AcDbLine
 62
7
  6
CONTINUOUS
 10
123.2722627058
 20
118.4757228618
 11
123.1090735202
 21
118.5833195117
  0
LINE
  5
480
100
AcDbEntity
  8
0
100
AcDbLine
 62
7
  6
CONTINUOUS
 10
120.134741934
 20
120.7743287131
 11
119.998635307
 21
120.8763664581
  0
LINE
  5
481
100
AcDbEntity
  8
0
100
AcDbLine
 62
7
  6
CONTINUOUS
 10
120.804475372
 20
121.8146244566
 11
120.9405818723
 21
121.7125868543
  0
LINE
  5
482
100
AcDbEntity
  8
0
100
AcDbLine
 62
7
  6
CONTINUOUS
 10
119.8713452297
 20
120.763363701
 11
120.0295814806
 21
120.6363984135
  0
LINE
  5
483
100
AcDbEntity
  8
0
100
AcDbLine
 62
7
  6
CONTINUOUS
 10
121.0678719319
 20
121.8255895955
 11
120.9096356832
 21
121.952554885
  0
LINE
  5
484
100
AcDbEntity
  8
0
100
AcDbLine
 62
7
  6
CONTINUOUS
 10
118.2031745726
 20
122.3426508658
 11
118.4102071147
 21
122.174577505
  0
LINE
  5
485
100
AcDbEntity
  8
0
100
AcDbLine
 62
7
  6
CONTINUOUS
 10
118.5389441413
 20
122.3331556031
 11
118.3319115992
 21
122.5012289638
  0
LINE
  5
486
100
AcDbEntity
  8
0
100
AcDbLine
 62
7
  6
CONTINUOUS
 10
118.2750722893
 20
122.8543100724
 11
118.1197979013
 21
122.9803650779
  0
LINE
  5
487
100
AcDbEntity
  8
0
100
AcDbLine
 62
7
  6
CONTINUOUS
 10
118.7055123272
 20
122.855655863
 11
118.8607867153
 21
122.7296008574
  0
LINE
  5
488
100
AcDbEntity
  8
0
100
AcDbLine
 62
7
  6
CONTINUOUS
 10
118.9895237268
 20
122.888178937
 11
118.8342493388
 21
123.0142339425
  0
LINE
  5
489
100
AcDbEntity
  8
0
100
AcDbLine
 62
7
  6
CONTINUOUS
 10
119.3379036553
 20
122.9999911549
 11
119.4931780434
 21
122.8739361494
  0
LINE
  5
48A
100
AcDbEntity
  8
0
100
AcDbLine
 62
7
  6
CONTINUOUS
 10
119.1346357592
 20
123.3842495354
 11
119.2899101473
 21
123.2581945299
  0
LINE
  5
48B
100
AcDbEntity
  8
0
100
AcDbLine
 62
7
  6
CONTINUOUS
 10
119.3927680818
 20
123.4377817871
 11
119.2633727708
 21
123.542827615
  0
LINE
  5
48C
100
AcDbEntity
  8
RUNDUNGEN
100
AcDbLine
 62
7
  6
CONTINUOUS
 10
103.3616695516
 20
134.3067548574
 11
103.8525787457
 21
133.8878630483
  0
LINE
  5
48D
100
AcDbEntity
  8
RUNDUNGEN
100
AcDbLine
 62
7
  6
CONTINUOUS
 10
103.4452501355
 20
134.3686024749
 11
103.42742372
 21
134.3838137187
  0
LINE
  5
48E
100
AcDbEntity
  8
0
100
AcDbLine
 62
7
  6
CONTINUOUS
 10
119.1317529785
 20
121.5315836848
 11
119.2761709131
 21
121.3932237911
  0
LINE
  5
48F
100
AcDbEntity
  8
0
100
AcDbLine
 62
7
  6
CONTINUOUS
 10
120.383050062
 20
122.5485672681
 11
120.2386321274
 21
122.6869271617
  0
LINE
  5
490
100
AcDbEntity
  8
0
100
AcDbLine
 62
7
  6
CONTINUOUS
 10
122.6082082447
 20
118.1278030479
 11
122.6814599831
 21
118.051691277
  0
LINE
  5
491
100
AcDbEntity
  8
0
100
AcDbLine
 62
7
  6
CONTINUOUS
 10
123.1322689418
 20
118.373325338
 11
123.2055206802
 21
118.297213567
  0
LINE
  5
492
100
AcDbEntity
  8
0
100
AcDbLine
 62
7
  6
CONTINUOUS
 10
118.0952354321
 20
122.4741263759
 11
118.2031745726
 21
122.3426508658
  0
LINE
  5
493
100
AcDbEntity
  8
0
100
AcDbLine
 62
7
  6
CONTINUOUS
 10
119.0974628693
 20
122.7567034292
 11
118.9895237268
 21
122.888178937
  0
LINE
  5
494
100
AcDbEntity
  8
0
100
AcDbLine
 62
7
  6
CONTINUOUS
 10
119.5007072613
 20
123.3063062492
 11
119.3927680818
 21
123.4377817871
  0
LINE
  5
495
100
AcDbEntity
  8
0
100
AcDbLine
 62
7
  6
CONTINUOUS
 10
124.4141278156
 20
115.2114425248
 11
124.320379056
 21
115.3281669707
  0
LINE
  5
496
100
AcDbEntity
  8
0
100
AcDbLine
 62
7
  6
CONTINUOUS
 10
121.9956321391
 20
117.5095199016
 11
122.0971674615
 21
117.3730375915
  0
LINE
  5
497
100
AcDbEntity
  8
0
100
AcDbLine
 62
7
  6
CONTINUOUS
 10
122.8497371666
 20
118.0937186059
 11
122.7482020087
 21
118.2302005718
  0
LINE
  5
498
100
AcDbEntity
  8
0
100
AcDbLine
 62
7
  6
CONTINUOUS
 10
123.3737978637
 20
118.3392408959
 11
123.2722627058
 21
118.4757228618
  0
LINE
  5
499
100
AcDbEntity
  8
0
100
AcDbLine
 62
7
  6
CONTINUOUS
 10
120.8917393324
 20
120.4439108584
 11
121.1702112234
 21
120.0694361565
  0
LINE
  5
49A
100
AcDbEntity
  8
0
100
AcDbLine
 62
7
  6
CONTINUOUS
 10
121.3067977256
 20
120.1710064397
 11
121.0283258346
 21
120.5454811417
  0
LINE
  5
49B
100
AcDbEntity
  8
0
100
AcDbLine
 62
7
  6
CONTINUOUS
 10
118.3319115992
 20
122.5012289638
 11
118.2498515153
 21
122.611695309
  0
LINE
  5
49C
100
AcDbEntity
  8
0
100
AcDbLine
 62
7
  6
CONTINUOUS
 10
118.6234522248
 20
122.9661222232
 11
118.7055123272
 21
122.855655863
  0
LINE
  5
49D
100
AcDbEntity
  8
0
100
AcDbLine
 62
7
  6
CONTINUOUS
 10
118.8607867153
 20
122.7296008574
 11
118.9428468177
 21
122.6191344972
  0
LINE
  5
49E
100
AcDbEntity
  8
0
100
AcDbLine
 62
7
  6
CONTINUOUS
 10
118.8342493388
 20
123.0142339425
 11
118.7780683134
 21
123.1036911252
  0
LINE
  5
49F
100
AcDbEntity
  8
0
100
AcDbLine
 62
7
  6
CONTINUOUS
 10
119.2899101473
 20
123.2581945299
 11
119.3460911357
 21
123.1687373773
  0
LINE
  5
4A0
100
AcDbEntity
  8
0
100
AcDbLine
 62
7
  6
CONTINUOUS
 10
119.764025007
 20
120.935530089
 11
119.8713452297
 21
120.763363701
  0
LINE
  5
4A1
100
AcDbEntity
  8
0
100
AcDbLine
 62
7
  6
CONTINUOUS
 10
121.1751921568
 20
121.6534232095
 11
121.0678719319
 21
121.8255895955
  0
LINE
  5
4A2
100
AcDbEntity
  8
0
100
AcDbLine
 62
7
  6
CONTINUOUS
 10
120.8727061775
 20
119.5145661709
 11
121.5744957763
 21
118.3808692107
  0
LINE
  5
4A3
100
AcDbEntity
  8
0
100
AcDbLine
 62
7
  6
CONTINUOUS
 10
121.7481685183
 20
118.4883774145
 11
121.1516473693
 21
119.4520198145
  0
LINE
  5
4A4
100
AcDbEntity
  8
0
100
AcDbLine
 62
7
  6
CONTINUOUS
 10
122.0884153915
 20
120.2671236104
 11
122.7024812152
 21
119.2751388918
  0
LINE
  5
4A5
100
AcDbEntity
  8
0
100
AcDbLine
 62
7
  6
CONTINUOUS
 10
122.9349322584
 20
119.2230168095
 11
122.2331426596
 21
120.3567137698
  0
LINE
  5
4A6
100
AcDbEntity
  8
0
100
AcDbLine
 62
7
  6
CONTINUOUS
 10
124.2209011823
 20
115.1373158034
 11
124.2745462742
 21
115.046315258
  0
LINE
  5
4A7
100
AcDbEntity
  8
0
100
AcDbLine
 62
7
  6
CONTINUOUS
 10
119.998635307
 20
120.8763664581
 11
119.9134448305
 21
121.023605157
  0
LINE
  5
4A8
100
AcDbEntity
  8
0
100
AcDbLine
 62
7
  6
CONTINUOUS
 10
120.9405818723
 20
121.7125868543
 11
121.0257724755
 21
121.5653480128
  0
LINE
  5
4A9
100
AcDbEntity
  8
0
100
AcDbLine
 62
7
  6
CONTINUOUS
 10
123.2089356902
 20
114.4848274617
 11
123.1485198086
 21
114.608466703
  0
LINE
  5
4AA
100
AcDbEntity
  8
0
100
AcDbLine
 62
7
  6
CONTINUOUS
 10
124.4745435422
 20
115.0878040305
 11
124.4141278156
 21
115.2114425248
  0
LINE
  5
4AB
100
AcDbEntity
  8
0
100
AcDbLine
 62
7
  6
CONTINUOUS
 10
121.9249242377
 20
117.6604440073
 11
121.9956321391
 21
117.5095199016
  0
LINE
  5
4AC
100
AcDbEntity
  8
0
100
AcDbLine
 62
7
  6
CONTINUOUS
 10
122.1639093441
 20
117.5515472405
 11
122.0649180233
 21
117.7628415413
  0
LINE
  5
4AD
100
AcDbEntity
  8
0
100
AcDbLine
 62
7
  6
CONTINUOUS
 10
122.6814599831
 20
118.051691277
 11
122.7804513039
 21
117.8403969763
  0
LINE
  5
4AE
100
AcDbEntity
  8
0
100
AcDbLine
 62
7
  6
CONTINUOUS
 10
122.9204450679
 20
117.9427945001
 11
122.8497371666
 21
118.0937186059
  0
LINE
  5
4AF
100
AcDbEntity
  8
0
100
AcDbLine
 62
7
  6
CONTINUOUS
 10
123.2185407533
 20
117.7879700539
 11
123.2892486547
 21
117.6370459482
  0
LINE
  5
4B0
100
AcDbEntity
  8
0
100
AcDbLine
 62
7
  6
CONTINUOUS
 10
123.2055206802
 20
118.297213567
 11
123.2903702913
 21
118.1161043638
  0
LINE
  5
4B1
100
AcDbEntity
  8
0
100
AcDbLine
 62
7
  6
CONTINUOUS
 10
123.430364379
 20
118.2185011968
 11
123.3737978637
 21
118.3392408959
  0
LINE
  5
4B2
100
AcDbEntity
  8
0
100
AcDbLine
 62
7
  6
CONTINUOUS
 10
124.1234956675
 20
112.9695238857
 11
124.080515298
 21
113.0660204296
  0
LINE
  5
4B3
100
AcDbEntity
  8
0
100
AcDbLine
 62
7
  6
CONTINUOUS
 10
119.1580667661
 20
122.619807419
 11
119.0974628693
 21
122.7567034292
  0
LINE
  5
4B4
100
AcDbEntity
  8
0
100
AcDbLine
 62
7
  6
CONTINUOUS
 10
122.9485225173
 20
114.5669779257
 11
123.0157091914
 21
114.410699989
  0
LINE
  5
4B5
100
AcDbEntity
  8
0
100
AcDbLine
 62
7
  6
CONTINUOUS
 10
124.1419227014
 20
111.3605851473
 11
124.1102887057
 21
111.4613729713
  0
LINE
  5
4B6
100
AcDbEntity
  8
0
100
AcDbLine
 62
7
  6
CONTINUOUS
 10
123.8740773672
 20
113.0806725072
 11
123.9231099771
 21
112.9177848424
  0
LINE
  5
4B7
100
AcDbEntity
  8
0
100
AcDbLine
 62
7
  6
CONTINUOUS
 10
121.885043272
 20
117.8258109451
 11
121.9249242377
 21
117.6604440073
  0
LINE
  5
4B8
100
AcDbEntity
  8
0
100
AcDbLine
 62
7
  6
CONTINUOUS
 10
122.9603261982
 20
117.7774272182
 11
122.9204450679
 21
117.9427945001
  0
LINE
  5
4B9
100
AcDbEntity
  8
0
100
AcDbLine
 62
7
  6
CONTINUOUS
 10
123.4702451856
 20
118.0531346057
 11
123.430364379
 21
118.2185011968
  0
LINE
  5
4BA
100
AcDbEntity
  8
0
100
AcDbLine
 62
7
  6
CONTINUOUS
 10
122.8943566651
 20
114.8280852522
 11
122.9485225173
 21
114.5669779257
  0
LINE
  5
4BB
100
AcDbEntity
  8
0
100
AcDbLine
 62
7
  6
CONTINUOUS
 10
123.1485198086
 20
114.608466703
 11
123.0943539564
 21
114.8695740295
  0
LINE
  5
4BC
100
AcDbEntity
  8
0
100
AcDbLine
 62
7
  6
CONTINUOUS
 10
123.2735182736
 20
115.1790849287
 11
123.2328938457
 21
115.3749156103
  0
LINE
  5
4BD
100
AcDbEntity
  8
0
100
AcDbLine
 62
7
  6
CONTINUOUS
 10
123.6078886208
 20
114.9080193304
 11
123.6485130487
 21
114.7121886487
  0
LINE
  5
4BE
100
AcDbEntity
  8
0
100
AcDbLine
 62
7
  6
CONTINUOUS
 10
123.8485103167
 20
114.7536774212
 11
123.8078858888
 21
114.9495081028
  0
LINE
  5
4BF
100
AcDbEntity
  8
0
100
AcDbLine
 62
7
  6
CONTINUOUS
 10
124.18913074
 20
114.6200799177
 11
124.2297551679
 21
114.4242492361
  0
LINE
  5
4C0
100
AcDbEntity
  8
0
100
AcDbLine
 62
7
  6
CONTINUOUS
 10
124.2745462742
 20
115.046315258
 11
124.3151707021
 21
114.8504845764
  0
LINE
  5
4C1
100
AcDbEntity
  8
0
100
AcDbLine
 62
7
  6
CONTINUOUS
 10
124.5083973355
 20
114.9246112978
 11
124.4745435422
 21
115.0878040305
  0
LINE
  5
4C2
100
AcDbEntity
  8
RUNDUNGEN
100
AcDbLine
 62
7
  6
CONTINUOUS
 10
125.8817348073
 20
95.7322455019
 11
125.9990511583
 21
95.0976597642
  0
LINE
  5
4C3
100
AcDbEntity
  8
RUNDUNGEN
100
AcDbLine
 62
7
  6
CONTINUOUS
 10
126.098663174
 20
95.1160751138
 11
126.0944030582
 21
95.1391188644
  0
LINE
  5
4C4
100
AcDbEntity
  8
0
100
AcDbLine
 62
7
  6
CONTINUOUS
 10
121.2094667362
 20
121.4609832715
 11
121.1751921568
 21
121.6534232095
  0
LINE
  5
4C5
100
AcDbEntity
  8
RUNDUNGEN
100
AcDbLine
 62
7
  6
CONTINUOUS
 10
126.0944093801
 20
95.139120033
 11
126.0891383423
 21
95.1692373882
  0
LWPOLYLINE
  5
4C6
100
AcDbEntity
  8
RUNDUNGEN
100
AcDbPolyline
 62
7
  6
CONTINUOUS
 90
5
 70
0
 10
126.0891383423
 20
95.1692373882
 10
126.0712801768
 20
95.3235113274
 10
126.0684665924
 20
95.4790355729
 10
126.0807584618
 20
95.6342509631
 10
126.1079299393
 20
95.7869047593
  0
LINE
  5
4C7
100
AcDbEntity
  8
0
100
AcDbLine
 62
7
  6
CONTINUOUS
 10
122.0649180233
 20
117.7628415413
 11
122.0533204744
 21
117.8678382828
  0
LINE
  5
4C8
100
AcDbEntity
  8
0
100
AcDbLine
 62
7
  6
CONTINUOUS
 10
122.7804513039
 20
117.8403969763
 11
122.7920490147
 21
117.7353998894
  0
LINE
  5
4C9
100
AcDbEntity
  8
0
100
AcDbLine
 62
7
  6
CONTINUOUS
 10
123.2903702913
 20
118.1161043638
 11
123.3019680021
 21
118.0111072769
  0
LWPOLYLINE
  5
4CA
100
AcDbEntity
  8
RUNDUNGEN
100
AcDbPolyline
 62
7
  6
CONTINUOUS
 90
4
 70
0
 10
126.0821003915
 20
128.3555576711
 10
126.068813016
 20
128.5106656429
 10
126.0706257643
 20
128.6661846401
 10
126.0874894345
 20
128.8205786121
  0
LWPOLYLINE
  5
4CB
100
AcDbEntity
  8
RUNDUNGEN
100
AcDbPolyline
 62
7
  6
CONTINUOUS
 90
4
 70
0
 10
132.205378632
 20
106.2502713503
 10
132.3330623882
 20
106.3393325409
 10
132.4686521646
 20
106.4155221534
 10
132.6107931017
 20
106.4781147726
  0
LINE
  5
4CC
100
AcDbEntity
  8
0
100
AcDbLine
 62
7
  6
CONTINUOUS
 10
114.0
 20
128.25
 11
106.0
 21
128.25
  0
LWPOLYLINE
  5
4CD
100
AcDbEntity
  8
RUNDUNGEN
100
AcDbPolyline
 62
7
  6
CONTINUOUS
 90
5
 70
0
 10
103.8767217596
 20
134.1052863208
 10
103.7357506278
 20
134.171333102
 10
103.6019735997
 20
134.2506624866
 10
103.4766963329
 20
134.3424638394
 10
103.4452543111
 20
134.3686073685
  0
LINE
  5
4CE
100
AcDbEntity
  8
RUNDUNGEN
100
AcDbLine
 62
7
  6
CONTINUOUS
 10
126.9126908126
 20
98.9197680106
 11
126.1081488998
 21
95.790130933
  0
LINE
  5
4CF
100
AcDbEntity
  8
RUNDUNGEN
100
AcDbLine
 62
7
  6
CONTINUOUS
 10
132.0922332236
 20
106.1548687406
 11
129.7841585965
 21
103.8932961047
  0
LINE
  5
4D0
100
AcDbEntity
  8
RUNDUNGEN
100
AcDbLine
 62
7
  6
CONTINUOUS
 10
132.0947752479
 20
106.1565392682
 11
132.205378632
 21
106.2502713503
  0
LINE
  5
4D1
100
AcDbEntity
  8
RUNDUNGEN
100
AcDbLine
 62
7
  6
CONTINUOUS
 10
112.8714677839
 20
133.1869358848
 11
115.9840839542
 21
134.0550006887
  0
LINE
  5
4D2
100
AcDbEntity
  8
RUNDUNGEN
100
AcDbLine
 62
7
  6
CONTINUOUS
 10
104.0159155472
 20
134.0550008277
 11
107.1285322161
 21
133.1869358848
  0
LINE
  5
4D3
100
AcDbEntity
  8
RUNDUNGEN
100
AcDbLine
 62
7
  6
CONTINUOUS
 10
104.0131978158
 20
134.0563670215
 11
103.8767217596
 21
134.1052863208
  0
LINE
  5
4D4
100
AcDbEntity
  8
RUNDUNGEN
100
AcDbLine
 62
7
  6
CONTINUOUS
 10
132.2135336489
 20
117.7434708216
 11
132.0949173221
 21
117.8433289094
  0
LINE
  5
4D5
100
AcDbEntity
  8
RUNDUNGEN
100
AcDbLine
 62
7
  6
CONTINUOUS
 10
129.7841585965
 20
120.1067038953
 11
132.0922328539
 21
117.8451316217
  0
LINE
  5
4D6
100
AcDbEntity
  8
RUNDUNGEN
100
AcDbLine
 62
7
  6
CONTINUOUS
 10
126.1081487709
 20
128.2098695684
 11
126.9126908126
 21
125.0802319894
  0
LINE
  5
4D7
100
AcDbEntity
  8
RUNDUNGEN
100
AcDbLine
 62
7
  6
CONTINUOUS
 10
126.1079730637
 20
128.2129062897
 11
126.0821003915
 21
128.3555576711
  0
LINE
  5
4D8
100
AcDbEntity
  8
RUNDUNGEN
100
AcDbLine
 62
7
  6
CONTINUOUS
 10
133.2356273608
 20
116.5575097419
 11
133.2356273608
 21
115.7715552085
  0
LINE
  5
4D9
100
AcDbEntity
  8
RUNDUNGEN
100
AcDbLine
 62
7
  6
CONTINUOUS
 10
133.2356273608
 20
108.2284447915
 11
133.2356273608
 21
107.4424902581
  0
LINE
  5
4DA
100
AcDbEntity
  8
RUNDUNGEN
100
AcDbLine
 62
7
  6
CONTINUOUS
 10
133.3369273054
 20
107.4424902581
 11
133.3369273054
 21
108.2284447915
  0
LINE
  5
4DB
100
AcDbEntity
  8
RUNDUNGEN
100
AcDbLine
 62
7
  6
CONTINUOUS
 10
133.3369273054
 20
115.7715552085
 11
133.3369273054
 21
116.5575097419
  0
LINE
  5
4DC
100
AcDbEntity
  8
RUNDUNGEN
100
AcDbLine
 62
7
  6
CONTINUOUS
 10
125.5647328949
 20
94.1561113036
 11
124.8840763028
 21
93.7631340369
  0
LINE
  5
4DD
100
AcDbEntity
  8
RUNDUNGEN
100
AcDbLine
 62
7
  6
CONTINUOUS
 10
118.351551058
 20
89.9915788284
 11
117.6708944659
 21
89.5986015617
  0
LINE
  5
4DE
100
AcDbEntity
  8
RUNDUNGEN
100
AcDbLine
 62
7
  6
CONTINUOUS
 10
117.7215444382
 20
89.5108732363
 11
118.4022010303
 21
89.903850503
  0
LINE
  5
4DF
100
AcDbEntity
  8
RUNDUNGEN
100
AcDbLine
 62
7
  6
CONTINUOUS
 10
124.9347262751
 20
93.6754057116
 11
125.6153828672
 21
94.0683829782
  0
LINE
  5
4E0
100
AcDbEntity
  8
RUNDUNGEN
100
AcDbLine
 62
7
  6
CONTINUOUS
 10
117.6708944659
 20
134.4013984383
 11
118.351551058
 21
134.0084211716
  0
LINE
  5
4E1
100
AcDbEntity
  8
RUNDUNGEN
100
AcDbLine
 62
7
  6
CONTINUOUS
 10
124.8840763028
 20
130.2368659631
 11
125.5647328949
 21
129.8438886964
  0
LINE
  5
4E2
100
AcDbEntity
  8
RUNDUNGEN
100
AcDbLine
 62
7
  6
CONTINUOUS
 10
125.6153828672
 20
129.9316170218
 11
124.9347262751
 21
130.3245942884
  0
LINE
  5
4E3
100
AcDbEntity
  8
RUNDUNGEN
100
AcDbLine
 62
7
  6
CONTINUOUS
 10
118.4022010303
 20
134.096149497
 11
117.7215444382
 21
134.4891267637
  0
LWPOLYLINE
  5
4E4
100
AcDbEntity
  8
0
100
AcDbPolyline
 62
7
  6
CONTINUOUS
 90
3
 70
0
 10
206.4515800864
 20
130.156395426
 10
206.3811505485
 20
130.0768857873
 10
206.2971087519
 20
130.0038151491
  0
LINE
  5
4E5
100
AcDbEntity
  8
AUSFORMSCHRAEGEN
100
AcDbLine
 62
7
  6
CONTINUOUS
 10
219.9057174929
 20
89.3770323898
 11
233.0811434986
 21
89.4782143871
  0
LINE
  5
4E6
100
AcDbEntity
  8
0
100
AcDbLine
 62
7
  6
CONTINUOUS
 10
219.225
 20
89.09977786
 11
220.525
 21
89.09977786
  0
LINE
  5
4E7
100
AcDbEntity
  8
RUNDUNGEN
100
AcDbLine
 62
7
  6
CONTINUOUS
 10
219.8442825071
 20
89.3770323898
 11
219.9057174929
 21
89.3770323898
  0
LINE
  5
4E8
100
AcDbEntity
  8
AUSFORMSCHRAEGEN
100
AcDbLine
 62
7
  6
CONTINUOUS
 10
206.6688565014
 20
89.4782143871
 11
219.8442825071
 21
89.3770323898
  0
LINE
  5
4E9
100
AcDbEntity
  8
0
100
AcDbLine
 62
7
  6
CONTINUOUS
 10
206.5076275799
 20
130.238366178
 11
206.4515800864
 21
130.156395426
  0
LINE
  5
4EA
100
AcDbEntity
  8
AUSFORMSCHRAEGEN
100
AcDbLine
 62
7
  6
CONTINUOUS
 10
219.9057174929
 20
93.5147699458
 11
233.0811434986
 21
93.6159519431
  0
LINE
  5
4EB
100
AcDbEntity
  8
RUNDUNGEN
100
AcDbLine
 62
7
  6
CONTINUOUS
 10
219.8442825071
 20
93.5147699458
 11
219.9057174929
 21
93.5147699458
  0
LINE
  5
4EC
100
AcDbEntity
  8
AUSFORMSCHRAEGEN
100
AcDbLine
 62
7
  6
CONTINUOUS
 10
206.6688565014
 20
93.6159519431
 11
219.8442825071
 21
93.5147699458
  0
LWPOLYLINE
  5
4ED
100
AcDbEntity
  8
0
100
AcDbPolyline
 62
7
  6
CONTINUOUS
 90
4
 70
0
 10
217.9257687096
 20
133.2004836981
 10
217.8840237008
 20
133.156704947
 10
217.8557795266
 20
133.1324531255
 10
217.8523858293
 20
133.1299112087
  0
LWPOLYLINE
  5
4EE
100
AcDbEntity
  8
RUNDUNGEN
100
AcDbPolyline
 62
7
  6
CONTINUOUS
 90
11
 70
0
 10
205.8750297232
 20
107.1298214142
 10
205.8771208918
 20
107.0660065974
 10
205.9061636375
 20
106.873276584
 10
205.9710880335
 20
106.681049196
 10
206.0704667896
 20
106.4987018576
 10
206.2000539377
 20
106.3322658438
 10
206.3578240619
 20
106.1816679355
 10
206.5409655282
 20
106.0473547297
 10
206.7549226368
 20
105.9246994009
 10
207.008096579
 20
105.8110878823
 10
207.2203245985
 20
105.734561026
  0
LINE
  5
4EF
100
AcDbEntity
  8
0
100
AcDbLine
 62
7
  6
CONTINUOUS
 10
205.875
 20
133.7213975844
 11
205.875
 21
133.6982128534
  0
LINE
  5
4F0
100
AcDbEntity
  8
RUNDUNGEN
100
AcDbLine
 62
7
  6
CONTINUOUS
 10
205.875
 20
133.7217530911
 11
205.875
 21
132.5375040333
  0
LINE
  5
4F1
100
AcDbEntity
  8
0
100
AcDbLine
 62
7
  6
CONTINUOUS
 10
205.875
 20
133.2793210443
 11
205.875
 21
132.5375040333
  0
LINE
  5
4F2
100
AcDbEntity
  8
0
100
AcDbLine
 62
7
  6
CONTINUOUS
 10
205.875
 20
129.5840261673
 11
205.875
 21
129.4872010352
  0
LINE
  5
4F3
100
AcDbEntity
  8
RUNDUNGEN
100
AcDbLine
 62
7
  6
CONTINUOUS
 10
205.875
 20
129.5839623397
 11
205.875
 21
129.1874225238
  0
LINE
  5
4F4
100
AcDbEntity
  8
RUNDUNGEN
100
AcDbLine
 62
7
  6
CONTINUOUS
 10
205.875
 20
112.0000000006
 11
205.875
 21
96.5043437019
  0
LINE
  5
4F5
100
AcDbEntity
  8
RUNDUNGEN
100
AcDbLine
 62
7
  6
CONTINUOUS
 10
205.875
 20
95.5868175323
 11
205.875
 21
94.4160376603
  0
LINE
  5
4F6
100
AcDbEntity
  8
RUNDUNGEN
100
AcDbLine
 62
7
  6
CONTINUOUS
 10
205.875
 20
91.4624959667
 11
205.875
 21
90.2788360921
  0
LINE
  5
4F7
100
AcDbEntity
  8
0
100
AcDbLine
 62
7
  6
CONTINUOUS
 10
205.875
 20
112.0000000006
 11
205.875
 21
129.1874225238
  0
LINE
  5
4F8
100
AcDbEntity
  8
RUNDUNGEN
100
AcDbLine
 62
7
  6
CONTINUOUS
 10
217.9263733715
 20
133.2011874624
 11
217.9257687096
 21
133.2004836981
  0
LWPOLYLINE
  5
4F9
100
AcDbEntity
  8
0
100
AcDbPolyline
 62
7
  6
CONTINUOUS
 90
8
 70
0
 10
206.6063527915
 20
130.555922855
 10
206.6063706095
 20
130.5556039816
 10
206.6063344802
 20
130.5416090429
 10
206.6039289619
 20
130.5096447159
 10
206.5956693731
 20
130.4590116524
 10
206.5784555495
 20
130.3942072981
 10
206.5496915074
 20
130.3191788511
 10
206.5076275799
 20
130.238366178
  0
LWPOLYLINE
  5
4FA
100
AcDbEntity
  8
0
100
AcDbPolyline
 62
7
  6
CONTINUOUS
 90
6
 70
0
 10
205.875022546
 20
132.5374589808
 10
205.8846946655
 20
132.2934344006
 10
205.9343652685
 20
131.9344059185
 10
206.0255312388
 20
131.5839503416
 10
206.1567238755
 20
131.2465150039
 10
206.32616519
 20
130.9262894647
  0
LINE
  5
4FB
100
AcDbEntity
  8
RUNDUNGEN
100
AcDbLine
 62
7
  6
CONTINUOUS
 10
205.8851632808
 20
95.849569498
 11
205.8750182216
 21
95.5868281611
  0
LINE
  5
4FC
100
AcDbEntity
  8
0
100
AcDbLine
 62
7
  6
CONTINUOUS
 10
233.875
 20
100.1275589368
 11
234.125
 21
100.1275589368
  0
LINE
  5
4FD
100
AcDbEntity
  8
RUNDUNGEN
100
AcDbLine
 62
7
  6
CONTINUOUS
 10
205.8844590022
 20
91.7003482959
 11
205.8838813346
 21
91.6960644895
  0
LINE
  5
4FE
100
AcDbEntity
  8
0
100
AcDbLine
 62
7
  6
CONTINUOUS
 10
233.875
 20
101.3556285107
 11
234.125
 21
101.3556285107
  0
LINE
  5
4FF
100
AcDbEntity
  8
0
100
AcDbLine
 62
7
  6
CONTINUOUS
 10
233.875
 20
101.4838278868
 11
234.125
 21
101.4838278868
  0
LINE
  5
500
100
AcDbEntity
  8
0
100
AcDbLine
 62
7
  6
CONTINUOUS
 10
233.875
 20
101.7829600903
 11
234.125
 21
101.7829600903
  0
LINE
  5
501
100
AcDbEntity
  8
0
100
AcDbLine
 62
7
  6
CONTINUOUS
 10
233.875
 20
101.9538919397
 11
234.125
 21
101.9538919397
  0
LINE
  5
502
100
AcDbEntity
  8
0
100
AcDbLine
 62
7
  6
CONTINUOUS
 10
233.875
 20
102.2530241432
 11
234.125
 21
102.2530241432
  0
LINE
  5
503
100
AcDbEntity
  8
0
100
AcDbLine
 62
7
  6
CONTINUOUS
 10
233.875
 20
102.3812235193
 11
234.125
 21
102.3812235193
  0
LINE
  5
504
100
AcDbEntity
  8
RUNDUNGEN
100
AcDbLine
 62
7
  6
CONTINUOUS
 10
207.2201288493
 20
105.734618475
 11
207.9962191625
 21
105.4804823752
  0
LINE
  5
505
100
AcDbEntity
  8
0
100
AcDbLine
 62
7
  6
CONTINUOUS
 10
233.875
 20
102.5678838711
 11
234.125
 21
102.5678838711
  0
LINE
  5
506
100
AcDbEntity
  8
0
100
AcDbLine
 62
7
  6
CONTINUOUS
 10
233.875
 20
102.7164395434
 11
234.125
 21
102.7164395434
  0
LINE
  5
507
100
AcDbEntity
  8
0
100
AcDbLine
 62
7
  6
CONTINUOUS
 10
233.875
 20
103.0630686899
 11
234.125
 21
103.0630686899
  0
LINE
  5
508
100
AcDbEntity
  8
0
100
AcDbLine
 62
7
  6
CONTINUOUS
 10
233.875
 20
103.2611432974
 11
234.125
 21
103.2611432974
  0
LINE
  5
509
100
AcDbEntity
  8
0
100
AcDbLine
 62
7
  6
CONTINUOUS
 10
233.875
 20
103.6077735773
 11
234.125
 21
103.6077735773
  0
LINE
  5
50A
100
AcDbEntity
  8
0
100
AcDbLine
 62
7
  6
CONTINUOUS
 10
233.875
 20
103.7563292496
 11
234.125
 21
103.7563292496
  0
LINE
  5
50B
100
AcDbEntity
  8
0
100
AcDbLine
 62
7
  6
CONTINUOUS
 10
233.875
 20
103.8515095911
 11
234.125
 21
103.8515095911
  0
LWPOLYLINE
  5
50C
100
AcDbEntity
  8
RUNDUNGEN
100
AcDbPolyline
 62
7
  6
CONTINUOUS
 90
5
 70
0
 10
207.9962054518
 20
105.4804865365
 10
208.5589431279
 20
105.3183687779
 10
209.2311672086
 20
105.1799990058
 10
209.9152369208
 20
105.0975029579
 10
210.5076145409
 20
105.0719377145
  0
LWPOLYLINE
  5
50D
100
AcDbEntity
  8
RUNDUNGEN
100
AcDbPolyline
 62
7
  6
CONTINUOUS
 90
4
 70
0
 10
229.2425554901
 20
105.0719390773
 10
229.82603171
 20
105.096820037
 10
230.5102242577
 20
105.1786018868
 10
231.1827383076
 20
105.3162968262
  0
LINE
  5
50E
100
AcDbEntity
  8
AUSFORMSCHRAEGEN
100
AcDbLine
 62
7
  6
CONTINUOUS
 10
226.2717388323
 20
105.0491243935
 11
229.2422057407
 21
105.0719363902
  0
LINE
  5
50F
100
AcDbEntity
  8
RUNDUNGEN
100
AcDbLine
 62
7
  6
CONTINUOUS
 10
229.2421785609
 20
105.071936183
 11
229.242379674
 21
105.0719377262
  0
LINE
  5
510
100
AcDbEntity
  8
RUNDUNGEN
100
AcDbLine
 62
7
  6
CONTINUOUS
 10
226.2719298673
 20
105.0491258672
 11
226.272028234
 21
105.049126616
  0
LINE
  5
511
100
AcDbEntity
  8
0
100
AcDbLine
 62
7
  6
CONTINUOUS
 10
233.875
 20
104.4038576232
 11
234.125
 21
104.4038576232
  0
LINE
  5
512
100
AcDbEntity
  8
0
100
AcDbLine
 62
7
  6
CONTINUOUS
 10
233.875
 20
104.4889808252
 11
234.125
 21
104.4889808252
  0
LINE
  5
513
100
AcDbEntity
  8
0
100
AcDbLine
 62
7
  6
CONTINUOUS
 10
233.875
 20
104.5048834377
 11
234.125
 21
104.5048834377
  0
LINE
  5
514
100
AcDbEntity
  8
0
100
AcDbLine
 62
7
  6
CONTINUOUS
 10
233.875
 20
104.7274582712
 11
234.125
 21
104.7274582712
  0
LINE
  5
515
100
AcDbEntity
  8
0
100
AcDbLine
 62
7
  6
CONTINUOUS
 10
233.875
 20
104.9075380029
 11
234.125
 21
104.9075380029
  0
LINE
  5
516
100
AcDbEntity
  8
0
100
AcDbLine
 62
7
  6
CONTINUOUS
 10
233.875
 20
104.9892847492
 11
234.125
 21
104.9892847492
  0
LINE
  5
517
100
AcDbEntity
  8
0
100
AcDbLine
 62
7
  6
CONTINUOUS
 10
233.875
 20
105.4483190717
 11
234.125
 21
105.4483190717
  0
LINE
  5
518
100
AcDbEntity
  8
AUSFORMSCHRAEGEN
100
AcDbLine
 62
7
  6
CONTINUOUS
 10
210.5077944961
 20
105.0719363883
 11
213.4782016428
 21
105.0491248506
  0
LINE
  5
519
100
AcDbEntity
  8
RUNDUNGEN
100
AcDbLine
 62
7
  6
CONTINUOUS
 10
210.5077745268
 20
105.0719365423
 11
210.5078243676
 21
105.0719361605
  0
LINE
  5
51A
100
AcDbEntity
  8
RUNDUNGEN
100
AcDbLine
 62
7
  6
CONTINUOUS
 10
213.4779763188
 20
105.0491265811
 11
213.478066026
 21
105.0491258976
  0
LWPOLYLINE
  5
51B
100
AcDbEntity
  8
RUNDUNGEN
100
AcDbPolyline
 62
7
  6
CONTINUOUS
 90
14
 70
0
 10
213.4780521424
 20
105.0491265611
 10
213.5048415919
 20
105.048601413
 10
213.6163857443
 20
105.0398478545
 10
213.7449125825
 20
105.0171573812
 10
213.8872693197
 20
104.9763612256
 10
214.0406636163
 20
104.9129631914
 10
214.1982909884
 20
104.8241606956
 10
214.3543179336
 20
104.707566241
 10
214.4996868188
 20
104.5647315034
 10
214.6270349028
 20
104.3991391411
 10
214.7306518114
 20
104.2161395769
 10
214.806803193
 20
104.0227108785
 10
214.8541831525
 20
103.8266770294
 10
214.8739040091
 20
103.6378727999
  0
LINE
  5
51C
100
AcDbEntity
  8
RUNDUNGEN
100
AcDbLine
 62
7
  6
CONTINUOUS
 10
214.8739040091
 20
103.6378727999
 11
214.8749977114
 21
103.5846994525
  0
LINE
  5
51D
100
AcDbEntity
  8
RUNDUNGEN
100
AcDbLine
 62
7
  6
CONTINUOUS
 10
214.875
 20
102.5724585018
 11
214.8749969126
 21
103.5846994508
  0
LINE
  5
51E
100
AcDbEntity
  8
0
100
AcDbLine
 62
7
  6
CONTINUOUS
 10
233.875
 20
106.548616627
 11
234.125
 21
106.548616627
  0
LINE
  5
51F
100
AcDbEntity
  8
0
100
AcDbLine
 62
7
  6
CONTINUOUS
 10
233.875
 20
106.6466149318
 11
234.125
 21
106.6466149318
  0
LINE
  5
520
100
AcDbEntity
  8
0
100
AcDbLine
 62
7
  6
CONTINUOUS
 10
233.875
 20
107.3025416551
 11
234.125
 21
107.3025416551
  0
LINE
  5
521
100
AcDbEntity
  8
0
100
AcDbLine
 62
7
  6
CONTINUOUS
 10
233.875
 20
107.5969067182
 11
234.125
 21
107.5969067182
  0
LINE
  5
522
100
AcDbEntity
  8
0
100
AcDbLine
 62
7
  6
CONTINUOUS
 10
233.875
 20
107.8115832511
 11
234.125
 21
107.8115832511
  0
LINE
  5
523
100
AcDbEntity
  8
0
100
AcDbLine
 62
7
  6
CONTINUOUS
 10
233.875
 20
108.1590426073
 11
234.125
 21
108.1590426073
  0
LINE
  5
524
100
AcDbEntity
  8
0
100
AcDbLine
 62
7
  6
CONTINUOUS
 10
218.1251382785
 20
133.8176677056
 11
218.1223158669
 21
133.7504358115
  0
LWPOLYLINE
  5
525
100
AcDbEntity
  8
RUNDUNGEN
100
AcDbPolyline
 62
7
  6
CONTINUOUS
 90
11
 70
0
 10
206.6628780107
 20
109.6140853503
 10
206.5258144322
 20
109.5516360682
 10
206.4007928303
 20
109.4821400901
 10
206.2852162374
 20
109.4028466894
 10
206.1795365646
 20
109.3119340529
 10
206.0843141776
 20
109.2068471754
 10
206.0036227642
 20
109.0886447124
 10
205.9409384809
 20
108.9599164655
 10
205.8983184417
 20
108.8230877279
 10
205.8773443624
 20
108.6826232078
 10
205.8750297807
 20
108.6208204822
  0
LINE
  5
526
100
AcDbEntity
  8
RUNDUNGEN
100
AcDbLine
 62
7
  6
CONTINUOUS
 10
219.8442085132
 20
110.1420060206
 11
208.63389321
 21
110.0549683073
  0
LINE
  5
527
100
AcDbEntity
  8
0
100
AcDbLine
 62
7
  6
CONTINUOUS
 10
233.875
 20
108.5690669732
 11
234.125
 21
108.5690669732
  0
LINE
  5
528
100
AcDbEntity
  8
0
100
AcDbLine
 62
7
  6
CONTINUOUS
 10
233.875
 20
108.8721326291
 11
234.125
 21
108.8721326291
  0
LINE
  5
529
100
AcDbEntity
  8
0
100
AcDbLine
 62
7
  6
CONTINUOUS
 10
233.875
 20
108.9522179378
 11
234.125
 21
108.9522179378
  0
LINE
  5
52A
100
AcDbEntity
  8
0
100
AcDbLine
 62
7
  6
CONTINUOUS
 10
233.875
 20
108.9885724645
 11
234.125
 21
108.9885724645
  0
LINE
  5
52B
100
AcDbEntity
  8
0
100
AcDbLine
 62
7
  6
CONTINUOUS
 10
233.875
 20
109.2462153913
 11
234.125
 21
109.2462153913
  0
LINE
  5
52C
100
AcDbEntity
  8
0
100
AcDbLine
 62
7
  6
CONTINUOUS
 10
233.875
 20
109.3493234511
 11
234.125
 21
109.3493234511
  0
LINE
  5
52D
100
AcDbEntity
  8
0
100
AcDbLine
 62
7
  6
CONTINUOUS
 10
233.875
 20
109.6593046352
 11
234.125
 21
109.6593046352
  0
LINE
  5
52E
100
AcDbEntity
  8
0
100
AcDbLine
 62
7
  6
CONTINUOUS
 10
233.875
 20
109.7064063835
 11
234.125
 21
109.7064063835
  0
LINE
  5
52F
100
AcDbEntity
  8
RUNDUNGEN
100
AcDbLine
 62
7
  6
CONTINUOUS
 10
231.116106802
 20
110.0549683072
 11
219.905790539
 21
110.142006028
  0
LINE
  5
530
100
AcDbEntity
  8
RUNDUNGEN
100
AcDbLine
 62
7
  6
CONTINUOUS
 10
229.8803739733
 20
100.6474228729
 11
229.8804065204
 21
100.6473970551
  0
LINE
  5
531
100
AcDbEntity
  8
RUNDUNGEN
100
AcDbLine
 62
7
  6
CONTINUOUS
 10
233.2252245277
 20
93.3638951553
 11
233.0068970195
 21
93.6153817598
  0
LINE
  5
532
100
AcDbEntity
  8
RUNDUNGEN
100
AcDbLine
 62
7
  6
CONTINUOUS
 10
219.875
 20
112.0000000006
 11
219.874987539
 21
110.0985258813
  0
LWPOLYLINE
  5
533
100
AcDbEntity
  8
0
100
AcDbPolyline
 62
7
  6
CONTINUOUS
 90
3
 70
0
 10
233.1435924589
 20
130.5366425229
 10
233.2251113617
 20
130.6359578465
 10
233.4295550068
 20
130.9357763298
  0
LINE
  5
534
100
AcDbEntity
  8
RUNDUNGEN
100
AcDbLine
 62
7
  6
CONTINUOUS
 10
208.4781403187
 20
110.043950896
 11
208.4289669068
 21
110.0353388551
  0
LINE
  5
535
100
AcDbEntity
  8
RUNDUNGEN
100
AcDbLine
 62
7
  6
CONTINUOUS
 10
208.5629451819
 20
110.0525750298
 11
208.4781403187
 21
110.043950896
  0
LINE
  5
536
100
AcDbEntity
  8
RUNDUNGEN
100
AcDbLine
 62
7
  6
CONTINUOUS
 10
208.6338939553
 20
110.0549660877
 11
208.5629451819
 21
110.0525750298
  0
LINE
  5
537
100
AcDbEntity
  8
0
100
AcDbLine
 62
7
  6
CONTINUOUS
 10
233.875
 20
110.6181904223
 11
234.125
 21
110.6181904223
  0
LINE
  5
538
100
AcDbEntity
  8
0
100
AcDbLine
 62
7
  6
CONTINUOUS
 10
233.875
 20
110.8160651921
 11
234.125
 21
110.8160651921
  0
LINE
  5
539
100
AcDbEntity
  8
0
100
AcDbLine
 62
7
  6
CONTINUOUS
 10
233.875
 20
111.6531222626
 11
234.125
 21
111.6531222626
  0
LINE
  5
53A
100
AcDbEntity
  8
0
100
AcDbLine
 62
7
  6
CONTINUOUS
 10
233.875
 20
111.9661979582
 11
234.125
 21
111.9661979582
  0
LINE
  5
53B
100
AcDbEntity
  8
0
100
AcDbLine
 62
7
  6
CONTINUOUS
 10
234.125
 20
111.9997652305
 11
233.875
 21
111.9997652305
  0
LINE
  5
53C
100
AcDbEntity
  8
DEFAULT_1
100
AcDbLine
 62
7
  6
CENTER
 10
202.875
 20
112.0
 11
205.875
 21
112.0000000006
  0
LINE
  5
53D
100
AcDbEntity
  8
DEFAULT_1
100
AcDbLine
 62
7
  6
CENTER
 10
234.125
 20
111.9997652305
 11
237.125
 21
112.0
  0
LINE
  5
53E
100
AcDbEntity
  8
0
100
AcDbLine
 62
2
  6
CONTINUOUS
 10
205.875
 20
112.0000000006
 11
233.875
 21
112.0000000006
  0
LINE
  5
53F
100
AcDbEntity
  8
0
100
AcDbLine
 62
7
  6
CONTINUOUS
 10
233.875
 20
112.0994239114
 11
234.125
 21
112.0994239114
  0
LINE
  5
540
100
AcDbEntity
  8
0
100
AcDbLine
 62
7
  6
CONTINUOUS
 10
233.875
 20
112.1165724785
 11
234.125
 21
112.1165724785
  0
LWPOLYLINE
  5
541
100
AcDbEntity
  8
RUNDUNGEN
100
AcDbPolyline
 62
7
  6
CONTINUOUS
 90
3
 70
0
 10
231.2719003163
 20
110.0439448125
 10
231.1870860372
 20
110.0525731683
 10
231.1161060561
 20
110.0549660511
  0
LINE
  5
542
100
AcDbEntity
  8
RUNDUNGEN
100
AcDbLine
 62
7
  6
CONTINUOUS
 10
231.3210250232
 20
110.035340312
 11
231.2719003163
 21
110.0439448125
  0
LWPOLYLINE
  5
543
100
AcDbEntity
  8
RUNDUNGEN
100
AcDbPolyline
 62
7
  6
CONTINUOUS
 90
5
 70
0
 10
232.053832534
 20
98.7650243456
 10
231.5365030477
 20
99.2429890753
 10
230.9165267076
 20
99.7903818075
 10
230.2838969075
 20
100.32202763
 10
229.8803960148
 20
100.6474053929
  0
LINE
  5
544
100
AcDbEntity
  8
RUNDUNGEN
100
AcDbLine
 62
7
  6
CONTINUOUS
 10
232.8299221172
 20
98.0327827956
 11
232.0538318062
 21
98.7650249413
  0
LINE
  5
545
100
AcDbEntity
  8
0
100
AcDbLine
 62
7
  6
CONTINUOUS
 10
206.32616519
 20
130.9262894647
 11
206.5316411477
 21
130.6272188747
  0
LWPOLYLINE
  5
546
100
AcDbEntity
  8
0
100
AcDbPolyline
 62
7
  6
CONTINUOUS
 90
5
 70
0
 10
206.6062170849
 20
130.5400491039
 10
206.6015463629
 20
130.5473073088
 10
206.6006901582
 20
130.5487088096
 10
206.605610055
 20
130.5365223864
 10
206.6058815916
 20
130.5355910974
  0
LWPOLYLINE
  5
547
100
AcDbEntity
  8
RUNDUNGEN
100
AcDbPolyline
 62
7
  6
CONTINUOUS
 90
8
 70
0
 10
206.7424465217
 20
93.6153868012
 10
206.5315054907
 20
93.3726061823
 10
206.3261024426
 20
93.0736068784
 10
206.1567150383
 20
92.7534656679
 10
206.0255554721
 20
92.4161245969
 10
205.9344001893
 20
92.0657698665
 10
205.8847168017
 20
91.7068450801
 10
205.875022546
 20
91.4625409403
  0
LWPOLYLINE
  5
548
100
AcDbEntity
  8
RUNDUNGEN
100
AcDbPolyline
 62
7
  6
CONTINUOUS
 90
8
 70
0
 10
206.9200833608
 20
98.0327676404
 10
206.7561891474
 20
97.8666043379
 10
206.5231261179
 20
97.5825796818
 10
206.3220399062
 20
97.2727638113
 10
206.1555588412
 20
96.9407579073
 10
206.0259373152
 20
96.590198085
 10
205.9352119112
 20
96.2250476172
 10
205.884343311
 20
95.8387208419
  0
LINE
  5
549
100
AcDbEntity
  8
RUNDUNGEN
100
AcDbLine
 62
7
  6
CONTINUOUS
 10
207.6961681868
 20
98.7650249347
 11
206.9200781586
 21
98.0327830557
  0
LWPOLYLINE
  5
54A
100
AcDbEntity
  8
RUNDUNGEN
100
AcDbPolyline
 62
7
  6
CONTINUOUS
 90
5
 70
0
 10
207.3068571115
 20
109.8025187335
 10
207.1771052328
 20
109.7738909774
 10
206.9846787405
 20
109.7242336651
 10
206.8146057916
 20
109.6711902554
 10
206.6628780107
 20
109.6140853503
  0
LINE
  5
54B
100
AcDbEntity
  8
RUNDUNGEN
100
AcDbLine
 62
7
  6
CONTINUOUS
 10
208.4283534066
 20
110.0352121232
 11
207.3065632851
 21
109.8024621805
  0
LINE
  5
54C
100
AcDbEntity
  8
0
100
AcDbLine
 62
7
  6
CONTINUOUS
 10
233.875
 20
112.3165149299
 11
234.125
 21
112.3165149299
  0
LINE
  5
54D
100
AcDbEntity
  8
0
100
AcDbLine
 62
7
  6
CONTINUOUS
 10
233.875
 20
112.683124771
 11
234.125
 21
112.683124771
  0
LINE
  5
54E
100
AcDbEntity
  8
0
100
AcDbLine
 62
7
  6
CONTINUOUS
 10
233.875
 20
112.7070484
 11
234.125
 21
112.7070484
  0
LINE
  5
54F
100
AcDbEntity
  8
0
100
AcDbLine
 62
7
  6
CONTINUOUS
 10
233.875
 20
112.7942733925
 11
234.125
 21
112.7942733925
  0
LINE
  5
550
100
AcDbEntity
  8
0
100
AcDbLine
 62
7
  6
CONTINUOUS
 10
233.875
 20
112.9177848424
 11
234.125
 21
112.9177848424
  0
LINE
  5
551
100
AcDbEntity
  8
0
100
AcDbLine
 62
7
  6
CONTINUOUS
 10
233.875
 20
113.0806725072
 11
234.125
 21
113.0806725072
  0
LINE
  5
552
100
AcDbEntity
  8
0
100
AcDbLine
 62
7
  6
CONTINUOUS
 10
233.875
 20
113.6132940049
 11
234.125
 21
113.6132940049
  0
LINE
  5
553
100
AcDbEntity
  8
0
100
AcDbLine
 62
7
  6
CONTINUOUS
 10
233.875
 20
113.8124681271
 11
234.125
 21
113.8124681271
  0
LINE
  5
554
100
AcDbEntity
  8
0
100
AcDbLine
 62
7
  6
CONTINUOUS
 10
233.875
 20
113.9577224508
 11
234.125
 21
113.9577224508
  0
LINE
  5
555
100
AcDbEntity
  8
0
100
AcDbLine
 62
7
  6
CONTINUOUS
 10
233.875
 20
114.1534639809
 11
234.125
 21
114.1534639809
  0
LINE
  5
556
100
AcDbEntity
  8
0
100
AcDbLine
 62
7
  6
CONTINUOUS
 10
233.875
 20
114.1910814393
 11
234.125
 21
114.1910814393
  0
LINE
  5
557
100
AcDbEntity
  8
RUNDUNGEN
100
AcDbLine
 62
7
  6
CONTINUOUS
 10
232.4434367991
 20
109.8024621631
 11
231.3216572832
 21
110.0352099053
  0
LINE
  5
558
100
AcDbEntity
  8
0
100
AcDbLine
 62
7
  6
CONTINUOUS
 10
206.5316411477
 20
130.6272188747
 11
206.6059850397
 21
130.5369657068
  0
LINE
  5
559
100
AcDbEntity
  8
RUNDUNGEN
100
AcDbLine
 62
7
  6
CONTINUOUS
 10
233.4295988378
 20
93.0641506854
 11
233.2184945093
 21
93.3726061823
  0
LINE
  5
55A
100
AcDbEntity
  8
0
100
AcDbLine
 62
7
  6
CONTINUOUS
 10
221.6275021834
 20
133.7531689616
 11
221.6248616498
 21
133.8176677397
  0
LWPOLYLINE
  5
55B
100
AcDbEntity
  8
0
100
AcDbPolyline
 62
7
  6
CONTINUOUS
 90
6
 70
0
 10
233.4295550068
 20
130.9357763298
 10
233.5978647671
 20
131.2565980931
 10
233.7278450206
 20
131.5944549297
 10
233.817750364
 20
131.9451569785
 10
233.8661424741
 20
132.304250048
 10
233.8749774458
 20
132.5374576981
  0
LWPOLYLINE
  5
55C
100
AcDbEntity
  8
RUNDUNGEN
100
AcDbPolyline
 62
7
  6
CONTINUOUS
 90
5
 70
0
 10
209.8696013908
 20
100.647403583
 10
209.4739107413
 20
100.3284237087
 10
208.841202754
 20
99.7970385594
 10
208.2210436709
 20
99.2498150863
 10
207.6961675014
 20
98.7650243986
  0
LINE
  5
55D
100
AcDbEntity
  8
RUNDUNGEN
100
AcDbLine
 62
7
  6
CONTINUOUS
 10
209.8695909484
 20
100.6473952955
 11
209.86963435
 21
100.6474297235
  0
LINE
  5
55E
100
AcDbEntity
  8
0
100
AcDbLine
 62
7
  6
CONTINUOUS
 10
233.875
 20
114.293976292
 11
234.125
 21
114.293976292
  0
LINE
  5
55F
100
AcDbEntity
  8
0
100
AcDbLine
 62
7
  6
CONTINUOUS
 10
233.875
 20
114.410699989
 11
234.125
 21
114.410699989
  0
LINE
  5
560
100
AcDbEntity
  8
0
100
AcDbLine
 62
7
  6
CONTINUOUS
 10
233.875
 20
114.5669779257
 11
234.125
 21
114.5669779257
  0
LINE
  5
561
100
AcDbEntity
  8
0
100
AcDbLine
 62
7
  6
CONTINUOUS
 10
233.875
 20
114.8280852522
 11
234.125
 21
114.8280852522
  0
LINE
  5
562
100
AcDbEntity
  8
0
100
AcDbLine
 62
7
  6
CONTINUOUS
 10
233.875
 20
114.9981920338
 11
234.125
 21
114.9981920338
  0
LINE
  5
563
100
AcDbEntity
  8
0
100
AcDbLine
 62
7
  6
CONTINUOUS
 10
233.875
 20
115.1821291546
 11
234.125
 21
115.1821291546
  0
LINE
  5
564
100
AcDbEntity
  8
0
100
AcDbLine
 62
7
  6
CONTINUOUS
 10
233.875
 20
115.3146184797
 11
234.125
 21
115.3146184797
  0
LINE
  5
565
100
AcDbEntity
  8
0
100
AcDbLine
 62
7
  6
CONTINUOUS
 10
233.875
 20
115.3749156103
 11
234.125
 21
115.3749156103
  0
LINE
  5
566
100
AcDbEntity
  8
0
100
AcDbLine
 62
7
  6
CONTINUOUS
 10
233.875
 20
115.408381392
 11
234.125
 21
115.408381392
  0
LINE
  5
567
100
AcDbEntity
  8
0
100
AcDbLine
 62
7
  6
CONTINUOUS
 10
233.875
 20
115.436040593
 11
234.125
 21
115.436040593
  0
LWPOLYLINE
  5
568
100
AcDbEntity
  8
RUNDUNGEN
100
AcDbPolyline
 62
7
  6
CONTINUOUS
 90
6
 70
0
 10
233.2297814232
 20
109.548812673
 10
233.093048295
 20
109.6116237406
 10
232.9416792611
 20
109.6690284288
 10
232.7719752231
 20
109.7223374348
 10
232.5798830283
 20
109.7722470874
 10
232.4431596248
 20
109.802515266
  0
LINE
  5
569
100
AcDbEntity
  8
RUNDUNGEN
100
AcDbLine
 62
7
  6
CONTINUOUS
 10
233.5978586609
 20
92.7434153879
 11
233.4238975574
 21
93.0736068784
  0
LINE
  5
56A
100
AcDbEntity
  8
RUNDUNGEN
100
AcDbLine
 62
7
  6
CONTINUOUS
 10
224.875
 20
102.5724607282
 11
224.8750031296
 21
103.5847205304
  0
LINE
  5
56B
100
AcDbEntity
  8
RUNDUNGEN
100
AcDbLine
 62
7
  6
CONTINUOUS
 10
224.8750025318
 20
103.5847205317
 11
224.8761010192
 21
103.6379968838
  0
LWPOLYLINE
  5
56C
100
AcDbEntity
  8
RUNDUNGEN
100
AcDbPolyline
 62
7
  6
CONTINUOUS
 90
14
 70
0
 10
224.8761010192
 20
103.6379968838
 10
224.895859223
 20
103.8269257994
 10
224.943312016
 20
104.0230768805
 10
225.0195705815
 20
104.2166059061
 10
225.1233265763
 20
104.3996837103
 10
225.2508311603
 20
104.5653152716
 10
225.3963532048
 20
104.7081404684
 10
225.5525185189
 20
104.824685298
 10
225.7102608667
 20
104.9134096248
 10
225.8637278535
 20
104.9767057734
 10
226.006097124
 20
105.0173877008
 10
226.1345749654
 20
105.0399671845
 10
226.2460069935
 20
105.0486277395
 10
226.2719421067
 20
105.0491266201
  0
LINE
  5
56D
100
AcDbEntity
  8
0
100
AcDbLine
 62
7
  6
CONTINUOUS
 10
233.875
 20
117.2326562899
 11
234.125
 21
117.2326562899
  0
LINE
  5
56E
100
AcDbEntity
  8
0
100
AcDbLine
 62
7
  6
CONTINUOUS
 10
233.875
 20
117.2654409453
 11
234.125
 21
117.2654409453
  0
LINE
  5
56F
100
AcDbEntity
  8
0
100
AcDbLine
 62
7
  6
CONTINUOUS
 10
233.875
 20
117.3730375915
 11
234.125
 21
117.3730375915
  0
LINE
  5
570
100
AcDbEntity
  8
0
100
AcDbLine
 62
7
  6
CONTINUOUS
 10
233.875
 20
117.5095199016
 11
234.125
 21
117.5095199016
  0
LINE
  5
571
100
AcDbEntity
  8
0
100
AcDbLine
 62
7
  6
CONTINUOUS
 10
233.875
 20
117.6604440073
 11
234.125
 21
117.6604440073
  0
LINE
  5
572
100
AcDbEntity
  8
0
100
AcDbLine
 62
7
  6
CONTINUOUS
 10
233.875
 20
117.8258109451
 11
234.125
 21
117.8258109451
  0
LINE
  5
573
100
AcDbEntity
  8
0
100
AcDbLine
 62
7
  6
CONTINUOUS
 10
233.875
 20
118.0200625104
 11
234.125
 21
118.0200625104
  0
LINE
  5
574
100
AcDbEntity
  8
0
100
AcDbLine
 62
7
  6
CONTINUOUS
 10
233.875
 20
118.1683870582
 11
234.125
 21
118.1683870582
  0
LINE
  5
575
100
AcDbEntity
  8
RUNDUNGEN
100
AcDbLine
 62
7
  6
CONTINUOUS
 10
233.7278101344
 20
92.4056542687
 11
233.5932849617
 21
92.7534656679
  0
LINE
  5
576
100
AcDbEntity
  8
0
100
AcDbLine
 62
7
  6
CONTINUOUS
 10
233.875
 20
118.3009693442
 11
234.125
 21
118.3009693442
  0
LINE
  5
577
100
AcDbEntity
  8
0
100
AcDbLine
 62
7
  6
CONTINUOUS
 10
233.875
 20
118.3808692107
 11
234.125
 21
118.3808692107
  0
LINE
  5
578
100
AcDbEntity
  8
0
100
AcDbLine
 62
7
  6
CONTINUOUS
 10
233.875
 20
119.5145661709
 11
234.125
 21
119.5145661709
  0
LINE
  5
579
100
AcDbEntity
  8
0
100
AcDbLine
 62
7
  6
CONTINUOUS
 10
233.875
 20
119.6579104385
 11
234.125
 21
119.6579104385
  0
LINE
  5
57A
100
AcDbEntity
  8
0
100
AcDbLine
 62
7
  6
CONTINUOUS
 10
233.875
 20
120.0694361565
 11
234.125
 21
120.0694361565
  0
LWPOLYLINE
  5
57B
100
AcDbEntity
  8
RUNDUNGEN
100
AcDbPolyline
 62
7
  6
CONTINUOUS
 90
11
 70
0
 10
232.5296610111
 20
105.7345562913
 10
232.7346455594
 20
105.8082205605
 10
232.9881919831
 20
105.9212131714
 10
233.2025054582
 20
106.0431416539
 10
233.3860471395
 20
106.1765843647
 10
233.544338683
 20
106.3261283352
 10
233.674693793
 20
106.4914089414
 10
233.7751914785
 20
106.6726517655
 10
233.8415472565
 20
106.8639673566
 10
233.8722246804
 20
107.0561302646
 10
233.8749709881
 20
107.1299448051
  0
LINE
  5
57C
100
AcDbEntity
  8
RUNDUNGEN
100
AcDbLine
 62
7
  6
CONTINUOUS
 10
231.7537808467
 20
105.4804823783
 11
232.5298708413
 21
105.7346183737
  0
LINE
  5
57D
100
AcDbEntity
  8
RUNDUNGEN
100
AcDbLine
 62
7
  6
CONTINUOUS
 10
231.1827383076
 20
105.3162968262
 11
231.7537935751
 21
105.4804861404
  0
LINE
  5
57E
100
AcDbEntity
  8
0
100
AcDbLine
 62
7
  6
CONTINUOUS
 10
233.875
 20
120.4439108584
 11
234.125
 21
120.4439108584
  0
LINE
  5
57F
100
AcDbEntity
  8
0
100
AcDbLine
 62
7
  6
CONTINUOUS
 10
233.875
 20
120.5454811417
 11
234.125
 21
120.5454811417
  0
LINE
  5
580
100
AcDbEntity
  8
0
100
AcDbLine
 62
7
  6
CONTINUOUS
 10
233.875
 20
120.5725806474
 11
234.125
 21
120.5725806474
  0
LINE
  5
581
100
AcDbEntity
  8
0
100
AcDbLine
 62
7
  6
CONTINUOUS
 10
233.875
 20
120.5795617709
 11
234.125
 21
120.5795617709
  0
LINE
  5
582
100
AcDbEntity
  8
0
100
AcDbLine
 62
7
  6
CONTINUOUS
 10
233.875
 20
120.6363984135
 11
234.125
 21
120.6363984135
  0
LINE
  5
583
100
AcDbEntity
  8
0
100
AcDbLine
 62
7
  6
CONTINUOUS
 10
233.875
 20
120.763363701
 11
234.125
 21
120.763363701
  0
LINE
  5
584
100
AcDbEntity
  8
0
100
AcDbLine
 62
7
  6
CONTINUOUS
 10
233.875
 20
120.935530089
 11
234.125
 21
120.935530089
  0
LINE
  5
585
100
AcDbEntity
  8
0
100
AcDbLine
 62
7
  6
CONTINUOUS
 10
233.875
 20
121.1279698903
 11
234.125
 21
121.1279698903
  0
LINE
  5
586
100
AcDbEntity
  8
0
100
AcDbLine
 62
7
  6
CONTINUOUS
 10
233.875
 20
121.2705544619
 11
234.125
 21
121.2705544619
  0
LINE
  5
587
100
AcDbEntity
  8
0
100
AcDbLine
 62
7
  6
CONTINUOUS
 10
233.875
 20
121.3932237911
 11
234.125
 21
121.3932237911
  0
LINE
  5
588
100
AcDbEntity
  8
0
100
AcDbLine
 62
7
  6
CONTINUOUS
 10
233.875
 20
121.5315836848
 11
234.125
 21
121.5315836848
  0
LINE
  5
589
100
AcDbEntity
  8
0
100
AcDbLine
 62
7
  6
CONTINUOUS
 10
233.875
 20
122.0647840758
 11
234.125
 21
122.0647840758
  0
LINE
  5
58A
100
AcDbEntity
  8
0
100
AcDbLine
 62
7
  6
CONTINUOUS
 10
233.875
 20
122.0959613594
 11
234.125
 21
122.0959613594
  0
LINE
  5
58B
100
AcDbEntity
  8
RUNDUNGEN
100
AcDbLine
 62
7
  6
CONTINUOUS
 10
233.8177092613
 20
92.055053828
 11
233.7244445279
 21
92.4161245969
  0
LINE
  5
58C
100
AcDbEntity
  8
0
100
AcDbLine
 62
7
  6
CONTINUOUS
 10
233.875
 20
122.174577505
 11
234.125
 21
122.174577505
  0
LINE
  5
58D
100
AcDbEntity
  8
0
100
AcDbLine
 62
7
  6
CONTINUOUS
 10
233.875
 20
122.3426508658
 11
234.125
 21
122.3426508658
  0
LINE
  5
58E
100
AcDbEntity
  8
0
100
AcDbLine
 62
7
  6
CONTINUOUS
 10
233.875
 20
122.4741263759
 11
234.125
 21
122.4741263759
  0
LINE
  5
58F
100
AcDbEntity
  8
0
100
AcDbLine
 62
7
  6
CONTINUOUS
 10
233.875
 20
122.658461258
 11
234.125
 21
122.658461258
  0
LINE
  5
590
100
AcDbEntity
  8
0
100
AcDbLine
 62
7
  6
CONTINUOUS
 10
233.875
 20
122.85363719
 11
234.125
 21
122.85363719
  0
LINE
  5
591
100
AcDbEntity
  8
0
100
AcDbLine
 62
7
  6
CONTINUOUS
 10
233.875
 20
122.9803650779
 11
234.125
 21
122.9803650779
  0
LINE
  5
592
100
AcDbEntity
  8
0
100
AcDbLine
 62
7
  6
CONTINUOUS
 10
233.875
 20
123.1030182484
 11
234.125
 21
123.1030182484
  0
LINE
  5
593
100
AcDbEntity
  8
0
100
AcDbLine
 62
7
  6
CONTINUOUS
 10
233.875
 20
123.2927736409
 11
234.125
 21
123.2927736409
  0
LINE
  5
594
100
AcDbEntity
  8
0
100
AcDbLine
 62
7
  6
CONTINUOUS
 10
233.875
 20
123.4195015307
 11
234.125
 21
123.4195015307
  0
LINE
  5
595
100
AcDbEntity
  8
0
100
AcDbLine
 62
7
  6
CONTINUOUS
 10
233.875
 20
123.5252203245
 11
234.125
 21
123.5252203245
  0
LINE
  5
596
100
AcDbEntity
  8
0
100
AcDbLine
 62
7
  6
CONTINUOUS
 10
233.875
 20
123.6099298741
 11
234.125
 21
123.6099298741
  0
LINE
  5
597
100
AcDbEntity
  8
0
100
AcDbLine
 62
7
  6
CONTINUOUS
 10
233.875
 20
123.6316119209
 11
234.125
 21
123.6316119209
  0
LINE
  5
598
100
AcDbEntity
  8
0
100
AcDbLine
 62
7
  6
CONTINUOUS
 10
205.875
 20
123.8954823357
 11
233.875
 21
123.8954823357
  0
LINE
  5
599
100
AcDbEntity
  8
RUNDUNGEN
100
AcDbLine
 62
7
  6
CONTINUOUS
 10
233.8661186654
 20
91.6960644895
 11
233.8155998107
 21
92.0657698665
  0
LWPOLYLINE
  5
59A
100
AcDbEntity
  8
RUNDUNGEN
100
AcDbPolyline
 62
7
  6
CONTINUOUS
 90
8
 70
0
 10
233.865656689
 20
95.8387208419
 10
233.8168311269
 20
96.2142218817
 10
233.7273175568
 20
96.5795745694
 10
233.5988697756
 20
96.9305092313
 10
233.4334935136
 20
97.2630662156
 10
233.2334273701
 20
97.5735876663
 10
233.0012679509
 20
97.8584575257
 10
232.8299167825
 20
98.0327674249
  0
LINE
  5
59B
100
AcDbEntity
  8
RUNDUNGEN
100
AcDbLine
 62
7
  6
CONTINUOUS
 10
233.874977454
 20
91.4625409403
 11
233.8652831983
 21
91.7068450801
  0
LINE
  5
59C
100
AcDbEntity
  8
RUNDUNGEN
100
AcDbLine
 62
7
  6
CONTINUOUS
 10
233.8749817784
 20
95.5868281611
 11
233.8648367192
 21
95.849569498
  0
LWPOLYLINE
  5
59D
100
AcDbEntity
  8
RUNDUNGEN
100
AcDbPolyline
 62
7
  6
CONTINUOUS
 90
10
 70
0
 10
233.87496982
 20
108.6209091768
 10
233.8731153431
 20
108.6758110622
 10
233.8531603499
 20
108.8165208654
 10
233.8115110716
 20
108.9536887187
 10
233.7497030824
 20
109.0828865199
 10
233.6697379446
 20
109.2016938112
 10
233.5750789948
 20
109.3074345077
 10
233.469779022
 20
109.3990026741
 10
233.3544971517
 20
109.4788673469
 10
233.2297814232
 20
109.548812673
  0
LINE
  5
59E
100
AcDbEntity
  8
0
100
AcDbLine
 62
7
  6
CONTINUOUS
 10
233.875
 20
133.7213975844
 11
233.875
 21
133.6982128534
  0
LINE
  5
59F
100
AcDbEntity
  8
0
100
AcDbLine
 62
7
  6
CONTINUOUS
 10
233.875
 20
129.5840261673
 11
233.875
 21
129.4872010352
  0
LINE
  5
5A0
100
AcDbEntity
  8
RUNDUNGEN
100
AcDbLine
 62
7
  6
CONTINUOUS
 10
233.875
 20
90.2804842067
 11
233.875
 21
91.4624959667
  0
LINE
  5
5A1
100
AcDbEntity
  8
RUNDUNGEN
100
AcDbLine
 62
7
  6
CONTINUOUS
 10
233.875
 20
94.4159683256
 11
233.875
 21
95.5868175323
  0
LINE
  5
5A2
100
AcDbEntity
  8
RUNDUNGEN
100
AcDbLine
 62
7
  6
CONTINUOUS
 10
233.875
 20
96.5043437019
 11
233.875
 21
112.0000000006
  0
LINE
  5
5A3
100
AcDbEntity
  8
0
100
AcDbLine
 62
7
  6
CONTINUOUS
 10
233.875
 20
112.0000000006
 11
233.875
 21
129.1874225238
  0
LINE
  5
5A4
100
AcDbEntity
  8
RUNDUNGEN
100
AcDbLine
 62
7
  6
CONTINUOUS
 10
233.875
 20
129.1874225238
 11
233.875
 21
129.5839623397
  0
LINE
  5
5A5
100
AcDbEntity
  8
RUNDUNGEN
100
AcDbLine
 62
7
  6
CONTINUOUS
 10
233.875
 20
132.5375040333
 11
233.875
 21
133.7217530911
  0
LINE
  5
5A6
100
AcDbEntity
  8
0
100
AcDbLine
 62
7
  6
CONTINUOUS
 10
234.125
 20
123.6316119209
 11
234.125
 21
120.5725806474
  0
LINE
  5
5A7
100
AcDbEntity
  8
0
100
AcDbLine
 62
7
  6
CONTINUOUS
 10
234.125
 20
120.5454811417
 11
234.125
 21
117.2326562899
  0
LINE
  5
5A8
100
AcDbEntity
  8
0
100
AcDbLine
 62
7
  6
CONTINUOUS
 10
234.125
 20
115.436040593
 11
234.125
 21
114.1534639809
  0
LINE
  5
5A9
100
AcDbEntity
  8
0
100
AcDbLine
 62
7
  6
CONTINUOUS
 10
234.125
 20
113.9577224508
 11
234.125
 21
112.683124771
  0
LINE
  5
5AA
100
AcDbEntity
  8
0
100
AcDbLine
 62
7
  6
CONTINUOUS
 10
234.125
 20
112.3165149299
 11
234.125
 21
111.971307814
  0
LINE
  5
5AB
100
AcDbEntity
  8
0
100
AcDbLine
 62
7
  6
CONTINUOUS
 10
234.125
 20
111.9661979582
 11
234.125
 21
111.6531222626
  0
LINE
  5
5AC
100
AcDbEntity
  8
0
100
AcDbLine
 62
7
  6
CONTINUOUS
 10
234.125
 20
111.6470625438
 11
234.125
 21
110.8163970197
  0
LINE
  5
5AD
100
AcDbEntity
  8
0
100
AcDbLine
 62
7
  6
CONTINUOUS
 10
234.125
 20
110.6181904223
 11
234.125
 21
109.3493234511
  0
LINE
  5
5AE
100
AcDbEntity
  8
0
100
AcDbLine
 62
7
  6
CONTINUOUS
 10
234.125
 20
109.2462153913
 11
234.125
 21
100.1275589368
  0
LINE
  5
5AF
100
AcDbEntity
  8
RUNDUNGEN
100
AcDbLine
 62
7
  6
CONTINUOUS
 10
221.8237534167
 20
133.2009940647
 11
221.8239363612
 21
133.200781064
  0
LWPOLYLINE
  5
5B0
100
AcDbEntity
  8
0
100
AcDbPolyline
 62
7
  6
CONTINUOUS
 90
3
 70
0
 10
221.8237534167
 20
133.2009940647
 10
221.8181740394
 20
133.2076656928
 10
221.7933358383
 20
133.2410188776
  0
LINE
  5
5B1
100
AcDbEntity
  8
0
100
AcDbLine
 62
7
  6
CONTINUOUS
 10
233.875
 20
128.25
 11
205.875
 21
128.25
  0
LINE
  5
5B2
100
AcDbEntity
  8
0
100
AcDbLine
 62
7
  6
CONTINUOUS
 10
206.8592926827
 20
130.1872991563
 11
214.1883063503
 21
130.3024325033
  0
LINE
  5
5B3
100
AcDbEntity
  8
0
100
AcDbLine
 62
7
  6
CONTINUOUS
 10
225.5616936511
 20
130.3024325032
 11
232.8907073173
 21
130.1872991563
  0
LWPOLYLINE
  5
5B4
100
AcDbEntity
  8
0
100
AcDbPolyline
 62
7
  6
CONTINUOUS
 90
5
 70
0
 10
221.8935996006
 20
133.1312430046
 10
221.903006269
 20
133.1261124275
 10
221.8965166046
 20
133.1307219531
 10
221.8708526603
 20
133.1521944713
 10
221.8239450948
 20
133.2007885752
  0
LINE
  5
5B5
100
AcDbEntity
  8
0
100
AcDbLine
 62
7
  6
CONTINUOUS
 10
233.2975841128
 20
130.157491055
 11
233.2416395463
 21
130.2396051346
  0
LWPOLYLINE
  5
5B6
100
AcDbEntity
  8
0
100
AcDbPolyline
 62
7
  6
CONTINUOUS
 90
6
 70
0
 10
233.2416395463
 20
130.2396051346
 10
233.1997146092
 20
130.3205014541
 10
233.1711037578
 20
130.3955615252
 10
233.1540305913
 20
130.4604080042
 10
233.1459201106
 20
130.5109444042
 10
233.1438692452
 20
130.5364153342
  0
LINE
  5
5B7
100
AcDbEntity
  8
0
100
AcDbLine
 62
7
  6
CONTINUOUS
 10
206.6688565014
 20
134.5217856129
 11
218.4862399314
 21
134.6125383869
  0
LINE
  5
5B8
100
AcDbEntity
  8
0
100
AcDbLine
 62
7
  6
CONTINUOUS
 10
219.225
 20
134.90022214
 11
220.525
 21
134.90022214
  0
LINE
  5
5B9
100
AcDbEntity
  8
0
100
AcDbLine
 62
7
  6
CONTINUOUS
 10
221.2637601383
 20
134.6125383863
 11
233.0811434986
 21
134.5217856129
  0
LWPOLYLINE
  5
5BA
100
AcDbEntity
  8
0
100
AcDbPolyline
 62
7
  6
CONTINUOUS
 90
3
 70
0
 10
233.4523362599
 20
130.0042606047
 10
233.3680275027
 20
130.0777268237
 10
233.2975841128
 20
130.157491055
  0
ARC
  5
5BB
100
AcDbEntity
  8
RUNDUNGEN
100
AcDbCircle
 62
7
  6
CONTINUOUS
 10
91.9805121166
 20
98.0037923516
 40
1.2999784962
100
AcDbArc
 50
14.4169624671
 51
84.3337383255
  0
ARC
  5
5BC
100
AcDbEntity
  8
RUNDUNGEN
100
AcDbCircle
 62
7
  6
CONTINUOUS
 10
95.6652147496
 20
94.7145340477
 40
1.1998820492
100
AcDbArc
 50
240.0
 51
317.5
  0
ARC
  5
5BD
100
AcDbEntity
  8
RUNDUNGEN
100
AcDbCircle
 62
7
  6
CONTINUOUS
 10
95.6652147496
 20
94.7145340477
 40
1.0985821047
100
AcDbArc
 50
240.0
 51
317.5
  0
ARC
  5
5BE
100
AcDbEntity
  8
RUNDUNGEN
100
AcDbCircle
 62
7
  6
CONTINUOUS
 10
94.8845581574
 20
94.9343062337
 40
0.9998820492
100
AcDbArc
 50
169.5259415796
 51
240.0
  0
ARC
  5
5BF
100
AcDbEntity
  8
RUNDUNGEN
100
AcDbCircle
 62
7
  6
CONTINUOUS
 10
94.8845581574
 20
94.9343062337
 40
0.8985821047
100
AcDbArc
 50
169.5259415796
 51
240.0
  0
ARC
  5
5C0
100
AcDbEntity
  8
0
100
AcDbCircle
 62
7
  6
CONTINUOUS
 10
95.2174474264
 20
104.9821916528
 40
7.9121079963
100
AcDbArc
 50
84.0226206017
 51
86.8429988252
  0
ARC
  5
5C1
100
AcDbEntity
  8
0
100
AcDbCircle
 62
7
  6
CONTINUOUS
 10
93.9853649482
 20
111.4983805817
 40
7.2651478783
100
AcDbArc
 50
62.6248281014
 51
65.5466426884
  0
ARC
  5
5C2
100
AcDbEntity
  8
RUNDUNGEN
100
AcDbCircle
 62
7
  6
CONTINUOUS
 10
92.3586008059
 20
101.8147334264
 40
2.5296889928
100
AcDbArc
 50
155.6656413602
 51
264.3343586398
  0
ARC
  5
5C3
100
AcDbEntity
  8
RUNDUNGEN
100
AcDbCircle
 62
7
  6
CONTINUOUS
 10
88.8691890144
 20
103.3927653051
 40
1.2999753137
100
AcDbArc
 50
335.6663535563
 51
45.585111571
  0
ARC
  5
5C4
100
AcDbEntity
  8
RUNDUNGEN
100
AcDbCircle
 62
7
  6
CONTINUOUS
 10
87.8629547439
 20
108.2284447915
 40
1.1998820492
100
AcDbArc
 50
102.5
 51
180.0
  0
ARC
  5
5C5
100
AcDbEntity
  8
RUNDUNGEN
100
AcDbCircle
 62
7
  6
CONTINUOUS
 10
87.8629547439
 20
108.2284447915
 40
1.0985821047
100
AcDbArc
 50
102.5
 51
180.0
  0
ARC
  5
5C6
100
AcDbEntity
  8
RUNDUNGEN
100
AcDbCircle
 62
7
  6
CONTINUOUS
 10
92.3408365069
 20
110.7972140324
 40
1.000090483
100
AcDbArc
 50
267.4806745431
 51
3.8889629514
  0
ARC
  5
5C7
100
AcDbEntity
  8
RUNDUNGEN
100
AcDbCircle
 62
7
  6
CONTINUOUS
 10
87.6629547439
 20
107.4424902581
 40
0.9998820492
100
AcDbArc
 50
180.0
 51
250.4740584204
  0
ARC
  5
5C8
100
AcDbEntity
  8
RUNDUNGEN
100
AcDbCircle
 62
7
  6
CONTINUOUS
 10
87.6629547439
 20
107.4424902581
 40
0.8985821047
100
AcDbArc
 50
180.0
 51
250.4740584204
  0
ARC
  5
5C9
100
AcDbEntity
  8
RUNDUNGEN
100
AcDbCircle
 62
7
  6
CONTINUOUS
 10
106.8886784093
 20
89.3965635365
 40
1.2999753137
100
AcDbArc
 50
35.6663535563
 51
105.585111571
  0
ARC
  5
5CA
100
AcDbEntity
  8
RUNDUNGEN
100
AcDbCircle
 62
7
  6
CONTINUOUS
 10
102.1977399943
 20
90.9429788392
 40
1.1998820492
100
AcDbArc
 50
162.5
 51
240.0
  0
ARC
  5
5CB
100
AcDbEntity
  8
RUNDUNGEN
100
AcDbCircle
 62
7
  6
CONTINUOUS
 10
102.1977399943
 20
90.9429788392
 40
1.0985821047
100
AcDbArc
 50
162.5
 51
240.0
  0
ARC
  5
5CC
100
AcDbEntity
  8
RUNDUNGEN
100
AcDbCircle
 62
7
  6
CONTINUOUS
 10
100.1287709508
 20
97.3081109689
 40
1.0000907427
100
AcDbArc
 50
56.1110191827
 51
152.519615346
  0
ARC
  5
5CD
100
AcDbEntity
  8
RUNDUNGEN
100
AcDbCircle
 62
7
  6
CONTINUOUS
 10
102.2120614575
 20
96.1053228213
 40
1.0000904824
100
AcDbArc
 50
327.4806745314
 51
63.8889630018
  0
ARC
  5
5CE
100
AcDbEntity
  8
RUNDUNGEN
100
AcDbCircle
 62
7
  6
CONTINUOUS
 10
102.7783965864
 20
90.3767964918
 40
0.9998820492
100
AcDbArc
 50
240.0
 51
310.4740584204
  0
ARC
  5
5CF
100
AcDbEntity
  8
RUNDUNGEN
100
AcDbCircle
 62
7
  6
CONTINUOUS
 10
102.7783965864
 20
90.3767964918
 40
0.8985821047
100
AcDbArc
 50
240.0
 51
310.4740584204
  0
ARC
  5
5D0
100
AcDbEntity
  8
0
100
AcDbCircle
 62
7
  6
CONTINUOUS
 10
97.3041379414
 20
102.2247763312
 40
7.2664736563
100
AcDbArc
 50
98.4214331248
 51
101.3427145072
  0
ARC
  5
5D1
100
AcDbEntity
  8
RUNDUNGEN
100
AcDbCircle
 62
7
  6
CONTINUOUS
 10
92.3586008059
 20
122.1852665736
 40
2.5296889928
100
AcDbArc
 50
95.6656413602
 51
204.3343586398
  0
ARC
  5
5D2
100
AcDbEntity
  8
RUNDUNGEN
100
AcDbCircle
 62
7
  6
CONTINUOUS
 10
88.8691846782
 20
120.607230446
 40
1.2999784962
100
AcDbArc
 50
314.4169624671
 51
24.3337383255
  0
ARC
  5
5D3
100
AcDbEntity
  8
RUNDUNGEN
100
AcDbCircle
 62
7
  6
CONTINUOUS
 10
87.8629547439
 20
115.7715552085
 40
1.1998820492
100
AcDbArc
 50
180.0
 51
257.5
  0
ARC
  5
5D4
100
AcDbEntity
  8
RUNDUNGEN
100
AcDbCircle
 62
7
  6
CONTINUOUS
 10
87.8629547439
 20
115.7715552085
 40
1.0985821047
100
AcDbArc
 50
180.0
 51
257.5
  0
ARC
  5
5D5
100
AcDbEntity
  8
RUNDUNGEN
100
AcDbCircle
 62
7
  6
CONTINUOUS
 10
92.3408344071
 20
113.202793488
 40
1.0000901014
100
AcDbArc
 50
356.1108620955
 51
92.5195116915
  0
ARC
  5
5D6
100
AcDbEntity
  8
RUNDUNGEN
100
AcDbCircle
 62
7
  6
CONTINUOUS
 10
87.6629547439
 20
116.5575097419
 40
0.9998820492
100
AcDbArc
 50
109.5259415796
 51
180.0
  0
ARC
  5
5D7
100
AcDbEntity
  8
RUNDUNGEN
100
AcDbCircle
 62
7
  6
CONTINUOUS
 10
87.6629547439
 20
116.5575097419
 40
0.8985821047
100
AcDbArc
 50
109.5259415796
 51
180.0
  0
ARC
  5
5D8
100
AcDbEntity
  8
RUNDUNGEN
100
AcDbCircle
 62
7
  6
CONTINUOUS
 10
91.9805106051
 20
125.9962017686
 40
1.2999753137
100
AcDbArc
 50
275.6663535563
 51
345.585111571
  0
ARC
  5
5D9
100
AcDbEntity
  8
RUNDUNGEN
100
AcDbCircle
 62
7
  6
CONTINUOUS
 10
95.6652147496
 20
129.2854659523
 40
1.1998820492
100
AcDbArc
 50
42.5
 51
120.0
  0
ARC
  5
5DA
100
AcDbEntity
  8
RUNDUNGEN
100
AcDbCircle
 62
7
  6
CONTINUOUS
 10
95.6652147496
 20
129.2854659523
 40
1.0985821047
100
AcDbArc
 50
42.5
 51
120.0
  0
ARC
  5
5DB
100
AcDbEntity
  8
RUNDUNGEN
100
AcDbCircle
 62
7
  6
CONTINUOUS
 10
94.8845581574
 20
129.0656937663
 40
0.9998820492
100
AcDbArc
 50
120.0
 51
190.4740584204
  0
ARC
  5
5DC
100
AcDbEntity
  8
RUNDUNGEN
100
AcDbCircle
 62
7
  6
CONTINUOUS
 10
94.8845581574
 20
129.0656937663
 40
0.8985821047
100
AcDbArc
 50
120.0
 51
190.4740584204
  0
ARC
  5
5DD
100
AcDbEntity
  8
RUNDUNGEN
100
AcDbCircle
 62
7
  6
CONTINUOUS
 10
101.0
 20
128.3917662258
 40
2.0
100
AcDbArc
 50
298.7692579515
 51
347.3515649428
  0
ARC
  5
5DE
100
AcDbEntity
  8
RUNDUNGEN
100
AcDbCircle
 62
7
  6
CONTINUOUS
 10
106.8886725616
 20
134.6034380944
 40
1.2999784962
100
AcDbArc
 50
254.4169624671
 51
324.3337383255
  0
ARC
  5
5DF
100
AcDbEntity
  8
RUNDUNGEN
100
AcDbCircle
 62
7
  6
CONTINUOUS
 10
102.1977399943
 20
133.0570211608
 40
1.1998820492
100
AcDbArc
 50
120.0
 51
197.5
  0
ARC
  5
5E0
100
AcDbEntity
  8
RUNDUNGEN
100
AcDbCircle
 62
7
  6
CONTINUOUS
 10
102.1977399943
 20
133.0570211608
 40
1.0985821047
100
AcDbArc
 50
120.0
 51
197.5
  0
ARC
  5
5E1
100
AcDbEntity
  8
RUNDUNGEN
100
AcDbCircle
 62
7
  6
CONTINUOUS
 10
101.9753756713
 20
128.1727067947
 40
1.0003320746
100
AcDbArc
 50
347.3611366221
 51
48.6752992223
  0
ARC
  5
5E2
100
AcDbEntity
  8
RUNDUNGEN
100
AcDbCircle
 62
7
  6
CONTINUOUS
 10
100.1287648472
 20
126.6918849088
 40
1.0000907932
100
AcDbArc
 50
207.4940822336
 51
303.8890012596
  0
ARC
  5
5E3
100
AcDbEntity
  8
RUNDUNGEN
100
AcDbCircle
 62
7
  6
CONTINUOUS
 10
102.7783965864
 20
133.6232035082
 40
0.9998820492
100
AcDbArc
 50
49.5259415796
 51
120.0
  0
ARC
  5
5E4
100
AcDbEntity
  8
RUNDUNGEN
100
AcDbCircle
 62
7
  6
CONTINUOUS
 10
102.7783965864
 20
133.6232035082
 40
0.8985821047
100
AcDbArc
 50
49.5259415796
 51
120.0
  0
ARC
  5
5E5
100
AcDbEntity
  8
RUNDUNGEN
100
AcDbCircle
 62
7
  6
CONTINUOUS
 10
110.0
 20
91.6294668528
 40
2.5296889928
100
AcDbArc
 50
215.6656413602
 51
324.3343586398
  0
ARC
  5
5E6
100
AcDbEntity
  8
RUNDUNGEN
100
AcDbCircle
 62
7
  6
CONTINUOUS
 10
113.1113274384
 20
89.3965619056
 40
1.2999784962
100
AcDbArc
 50
74.4169624671
 51
144.3337383255
  0
ARC
  5
5E7
100
AcDbEntity
  8
RUNDUNGEN
100
AcDbCircle
 62
7
  6
CONTINUOUS
 10
117.8022600057
 20
90.9429788392
 40
1.1998820492
100
AcDbArc
 50
300.0
 51
17.5
  0
ARC
  5
5E8
100
AcDbEntity
  8
RUNDUNGEN
100
AcDbCircle
 62
7
  6
CONTINUOUS
 10
117.8022600057
 20
90.9429788392
 40
1.0985821047
100
AcDbArc
 50
300.0
 51
17.5
  0
ARC
  5
5E9
100
AcDbEntity
  8
RUNDUNGEN
100
AcDbCircle
 62
7
  6
CONTINUOUS
 10
117.7879320165
 20
96.1053190981
 40
1.0000907395
100
AcDbArc
 50
116.1110101351
 51
212.5190744282
  0
ARC
  5
5EA
100
AcDbEntity
  8
RUNDUNGEN
100
AcDbCircle
 62
7
  6
CONTINUOUS
 10
119.8712165146
 20
97.308102404
 40
1.0000906754
100
AcDbArc
 50
27.4871659205
 51
123.8889346478
  0
ARC
  5
5EB
100
AcDbEntity
  8
RUNDUNGEN
100
AcDbCircle
 62
7
  6
CONTINUOUS
 10
117.2216034136
 20
90.3767964918
 40
0.9998820492
100
AcDbArc
 50
229.5259415796
 51
300.0
  0
ARC
  5
5EC
100
AcDbEntity
  8
RUNDUNGEN
100
AcDbCircle
 62
7
  6
CONTINUOUS
 10
117.2216034136
 20
90.3767964918
 40
0.8985821047
100
AcDbArc
 50
229.5259415796
 51
300.0
  0
ARC
  5
5ED
100
AcDbEntity
  8
RUNDUNGEN
100
AcDbCircle
 62
7
  6
CONTINUOUS
 10
128.0194893949
 20
98.0037982314
 40
1.2999753137
100
AcDbArc
 50
95.6663535563
 51
165.585111571
  0
ARC
  5
5EE
100
AcDbEntity
  8
RUNDUNGEN
100
AcDbCircle
 62
7
  6
CONTINUOUS
 10
124.3347852504
 20
94.7145340477
 40
1.1998820492
100
AcDbArc
 50
222.5
 51
300.0
  0
ARC
  5
5EF
100
AcDbEntity
  8
RUNDUNGEN
100
AcDbCircle
 62
7
  6
CONTINUOUS
 10
124.3347852504
 20
94.7145340477
 40
1.0985821047
100
AcDbArc
 50
222.5
 51
300.0
  0
ARC
  5
5F0
100
AcDbEntity
  8
RUNDUNGEN
100
AcDbCircle
 62
7
  6
CONTINUOUS
 10
125.1154418426
 20
94.9343062337
 40
0.9998820492
100
AcDbArc
 50
300.0
 51
10.4740584204
  0
ARC
  5
5F1
100
AcDbEntity
  8
RUNDUNGEN
100
AcDbCircle
 62
7
  6
CONTINUOUS
 10
125.1154418426
 20
94.9343062337
 40
0.8985821047
100
AcDbArc
 50
300.0
 51
10.4740584204
  0
ARC
  5
5F2
100
AcDbEntity
  8
RUNDUNGEN
100
AcDbCircle
 62
7
  6
CONTINUOUS
 10
127.6413991941
 20
101.8147334264
 40
2.5296889928
100
AcDbArc
 50
275.6656413602
 51
24.3343586398
  0
ARC
  5
5F3
100
AcDbEntity
  8
RUNDUNGEN
100
AcDbCircle
 62
7
  6
CONTINUOUS
 10
131.1308153218
 20
103.392769554
 40
1.2999784962
100
AcDbArc
 50
134.4169624671
 51
204.3337383255
  0
ARC
  5
5F4
100
AcDbEntity
  8
RUNDUNGEN
100
AcDbCircle
 62
7
  6
CONTINUOUS
 10
132.1370452561
 20
108.2284447915
 40
1.1998820492
100
AcDbArc
 50
0.0
 51
77.5
  0
ARC
  5
5F5
100
AcDbEntity
  8
RUNDUNGEN
100
AcDbCircle
 62
7
  6
CONTINUOUS
 10
132.1370452561
 20
108.2284447915
 40
1.0985821047
100
AcDbArc
 50
0.0
 51
77.5
  0
ARC
  5
5F6
100
AcDbEntity
  8
RUNDUNGEN
100
AcDbCircle
 62
7
  6
CONTINUOUS
 10
127.6591644336
 20
110.79722072
 40
1.0000907479
100
AcDbArc
 50
176.1110553745
 51
272.5116999362
  0
ARC
  5
5F7
100
AcDbEntity
  8
RUNDUNGEN
100
AcDbCircle
 62
7
  6
CONTINUOUS
 10
132.3370452561
 20
107.4424902581
 40
0.9998820492
100
AcDbArc
 50
289.5259415796
 51
360.0
  0
ARC
  5
5F8
100
AcDbEntity
  8
RUNDUNGEN
100
AcDbCircle
 62
7
  6
CONTINUOUS
 10
132.3370452561
 20
107.4424902581
 40
0.8985821047
100
AcDbArc
 50
289.5259415796
 51
360.0
  0
ARC
  5
5F9
100
AcDbEntity
  8
RUNDUNGEN
100
AcDbCircle
 62
7
  6
CONTINUOUS
 10
110.0
 20
112.0
 40
16.7
100
AcDbArc
 50
56.1030867047
 51
61.2307420485
  0
ARC
  5
5FA
100
AcDbEntity
  8
RUNDUNGEN
100
AcDbCircle
 62
7
  6
CONTINUOUS
 10
110.0
 20
112.0
 40
16.7
100
AcDbArc
 50
118.7692579515
 51
123.8969515207
  0
ARC
  5
5FB
100
AcDbEntity
  8
RUNDUNGEN
100
AcDbCircle
 62
7
  6
CONTINUOUS
 10
110.0
 20
112.0
 40
16.7
100
AcDbArc
 50
176.1030734904
 51
183.8969126998
  0
ARC
  5
5FC
100
AcDbEntity
  8
RUNDUNGEN
100
AcDbCircle
 62
7
  6
CONTINUOUS
 10
110.0
 20
112.0
 40
16.7
100
AcDbArc
 50
236.1030724766
 51
243.8969126991
  0
ARC
  5
5FD
100
AcDbEntity
  8
RUNDUNGEN
100
AcDbCircle
 62
7
  6
CONTINUOUS
 10
110.0
 20
112.0
 40
16.7
100
AcDbArc
 50
296.1030631344
 51
303.8968781554
  0
ARC
  5
5FE
100
AcDbEntity
  8
RUNDUNGEN
100
AcDbCircle
 62
7
  6
CONTINUOUS
 10
110.0
 20
112.0
 40
16.7
100
AcDbArc
 50
356.1031092819
 51
3.8969738662
  0
ARC
  5
5FF
100
AcDbEntity
  8
0
100
AcDbCircle
 62
7
  6
CONTINUOUS
 10
110.0
 20
112.0
 40
12.55
100
AcDbArc
 50
108.5858418268
 51
71.4141581732
  0
ARC
  5
600
100
AcDbEntity
  8
RUNDUNGEN
100
AcDbCircle
 62
7
  6
CONTINUOUS
 10
115.8590983337
 20
131.141057052
 40
2.5925950877
100
AcDbArc
 50
304.7391579748
 51
307.5479428622
  0
ARC
  5
601
100
AcDbEntity
  8
RUNDUNGEN
100
AcDbCircle
 62
7
  6
CONTINUOUS
 10
110.0
 20
132.3705331472
 40
2.5296889928
100
AcDbArc
 50
35.6656413602
 51
144.3343586398
  0
ARC
  5
602
100
AcDbEntity
  8
RUNDUNGEN
100
AcDbCircle
 62
7
  6
CONTINUOUS
 10
115.9695658794
 20
130.9847432627
 40
2.4011951209
100
AcDbArc
 50
303.6885471798
 51
304.6985176534
  0
ARC
  5
603
100
AcDbEntity
  8
RUNDUNGEN
100
AcDbCircle
 62
7
  6
CONTINUOUS
 10
119.0
 20
128.3917662258
 40
2.0
100
AcDbArc
 50
192.6468353034
 51
241.2307420485
  0
ARC
  5
604
100
AcDbEntity
  8
RUNDUNGEN
100
AcDbCircle
 62
7
  6
CONTINUOUS
 10
113.1113215907
 20
134.6034364635
 40
1.2999753137
100
AcDbArc
 50
215.6663535563
 51
285.585111571
  0
ARC
  5
605
100
AcDbEntity
  8
RUNDUNGEN
100
AcDbCircle
 62
7
  6
CONTINUOUS
 10
117.8022600057
 20
133.0570211608
 40
1.1998820492
100
AcDbArc
 50
342.5
 51
60.0
  0
ARC
  5
606
100
AcDbEntity
  8
RUNDUNGEN
100
AcDbCircle
 62
7
  6
CONTINUOUS
 10
117.8022600057
 20
133.0570211608
 40
1.0985821047
100
AcDbArc
 50
342.5
 51
60.0
  0
ARC
  5
607
100
AcDbEntity
  8
RUNDUNGEN
100
AcDbCircle
 62
7
  6
CONTINUOUS
 10
118.0245633793
 20
128.1727578434
 40
1.0002694812
100
AcDbArc
 50
131.3194112871
 51
192.6392833408
  0
ARC
  5
608
100
AcDbEntity
  8
RUNDUNGEN
100
AcDbCircle
 62
7
  6
CONTINUOUS
 10
119.8712254276
 20
126.6918914847
 40
1.0000907555
100
AcDbArc
 50
236.1110324694
 51
332.5114248869
  0
ARC
  5
609
100
AcDbEntity
  8
RUNDUNGEN
100
AcDbCircle
 62
7
  6
CONTINUOUS
 10
117.2216034136
 20
133.6232035082
 40
0.9998820492
100
AcDbArc
 50
60.0
 51
130.4740584204
  0
ARC
  5
60A
100
AcDbEntity
  8
RUNDUNGEN
100
AcDbCircle
 62
7
  6
CONTINUOUS
 10
117.2216034136
 20
133.6232035082
 40
0.8985821047
100
AcDbArc
 50
60.0
 51
130.4740584204
  0
ARC
  5
60B
100
AcDbEntity
  8
RUNDUNGEN
100
AcDbCircle
 62
7
  6
CONTINUOUS
 10
127.6413991941
 20
122.1852665736
 40
2.5296889928
100
AcDbArc
 50
335.6656413602
 51
84.3343586398
  0
ARC
  5
60C
100
AcDbEntity
  8
RUNDUNGEN
100
AcDbCircle
 62
7
  6
CONTINUOUS
 10
131.1308109856
 20
120.6072346949
 40
1.2999753137
100
AcDbArc
 50
155.6663535563
 51
225.585111571
  0
ARC
  5
60D
100
AcDbEntity
  8
RUNDUNGEN
100
AcDbCircle
 62
7
  6
CONTINUOUS
 10
132.1370452561
 20
115.7715552085
 40
1.1998820492
100
AcDbArc
 50
282.5
 51
360.0
  0
ARC
  5
60E
100
AcDbEntity
  8
RUNDUNGEN
100
AcDbCircle
 62
7
  6
CONTINUOUS
 10
132.1370452561
 20
115.7715552085
 40
1.0985821047
100
AcDbArc
 50
282.5
 51
360.0
  0
ARC
  5
60F
100
AcDbEntity
  8
RUNDUNGEN
100
AcDbCircle
 62
7
  6
CONTINUOUS
 10
127.6591626503
 20
113.2028048025
 40
1.000090774
100
AcDbArc
 50
87.4767806525
 51
183.8890214098
  0
ARC
  5
610
100
AcDbEntity
  8
RUNDUNGEN
100
AcDbCircle
 62
7
  6
CONTINUOUS
 10
132.3370452561
 20
116.5575097419
 40
0.9998820492
100
AcDbArc
 50
0.0
 51
70.4740584204
  0
ARC
  5
611
100
AcDbEntity
  8
RUNDUNGEN
100
AcDbCircle
 62
7
  6
CONTINUOUS
 10
132.3370452561
 20
116.5575097419
 40
0.8985821047
100
AcDbArc
 50
0.0
 51
70.4740584204
  0
ARC
  5
612
100
AcDbEntity
  8
RUNDUNGEN
100
AcDbCircle
 62
7
  6
CONTINUOUS
 10
128.0194878834
 20
125.9962076484
 40
1.2999784962
100
AcDbArc
 50
194.4169624671
 51
264.3337383255
  0
ARC
  5
613
100
AcDbEntity
  8
RUNDUNGEN
100
AcDbCircle
 62
7
  6
CONTINUOUS
 10
124.3347852504
 20
129.2854659523
 40
1.1998820492
100
AcDbArc
 50
60.0
 51
137.5
  0
ARC
  5
614
100
AcDbEntity
  8
RUNDUNGEN
100
AcDbCircle
 62
7
  6
CONTINUOUS
 10
124.3347852504
 20
129.2854659523
 40
1.0985821047
100
AcDbArc
 50
60.0
 51
137.5
  0
ARC
  5
615
100
AcDbEntity
  8
RUNDUNGEN
100
AcDbCircle
 62
7
  6
CONTINUOUS
 10
125.1154418426
 20
129.0656937663
 40
0.9998820492
100
AcDbArc
 50
349.5259415796
 51
60.0
  0
ARC
  5
616
100
AcDbEntity
  8
RUNDUNGEN
100
AcDbCircle
 62
7
  6
CONTINUOUS
 10
125.1154418426
 20
129.0656937663
 40
0.8985821047
100
AcDbArc
 50
349.5259415796
 51
60.0
  0
ARC
  5
617
100
AcDbEntity
  8
RUNDUNGEN
100
AcDbCircle
 62
7
  6
CONTINUOUS
 10
219.875
 20
106.1420572163
 40
4.0000769259
100
AcDbArc
 50
89.5551667556
 51
89.9984800741
  0
ARC
  5
618
100
AcDbEntity
  8
0
100
AcDbCircle
 62
7
  6
CONTINUOUS
 10
222.075
 20
129.8272987214
 40
2.8
100
AcDbArc
 50
22.8366124087
 51
78.0391398948
  0
ARC
  5
619
100
AcDbEntity
  8
0
100
AcDbCircle
 62
7
  6
CONTINUOUS
 10
217.675
 20
129.8272987214
 40
2.8
100
AcDbArc
 50
101.9608631626
 51
157.1633881725
  0
ARC
  5
61A
100
AcDbEntity
  8
0
100
AcDbCircle
 62
7
  6
CONTINUOUS
 10
216.8253016873
 20
133.8382851944
 40
1.3000000941
100
AcDbArc
 50
281.9608613823
 51
356.1251596564
  0
ARC
  5
61B
100
AcDbEntity
  8
0
100
AcDbCircle
 62
7
  6
CONTINUOUS
 10
222.9246981448
 20
133.8382852667
 40
1.2999999985
100
AcDbArc
 50
183.7541160632
 51
258.0391399329
  0
ARC
  5
61C
100
AcDbEntity
  8
0
100
AcDbCircle
 62
7
  6
CONTINUOUS
 10
219.225
 20
133.80022214
 40
1.1
100
AcDbArc
 50
90.0
 51
179.0912735233
  0
ARC
  5
61D
100
AcDbEntity
  8
0
100
AcDbCircle
 62
7
  6
CONTINUOUS
 10
220.525
 20
133.80022214
 40
1.1
100
AcDbArc
 50
0.9087283128
 51
90.0
  0
ARC
  5
61E
100
AcDbEntity
  8
RUNDUNGEN
100
AcDbCircle
 62
7
  6
CONTINUOUS
 10
220.525
 20
90.19977786
 40
1.1
100
AcDbArc
 50
270.0
 51
312.2852635835
  0
ARC
  5
61F
100
AcDbEntity
  8
RUNDUNGEN
100
AcDbCircle
 62
7
  6
CONTINUOUS
 10
219.225
 20
90.19977786
 40
1.1
100
AcDbArc
 50
227.7148148443
 51
270.0
  0
ARC
  5
620
100
AcDbEntity
  8
0
100
AcDbCircle
 62
7
  6
CONTINUOUS
 10
206.875
 20
129.1874225238
 40
1.0
100
AcDbArc
 50
90.9
 51
180.0
  0
ARC
  5
621
100
AcDbEntity
  8
0
100
AcDbCircle
 62
7
  6
CONTINUOUS
 10
232.875
 20
129.1874225238
 40
1.0
100
AcDbArc
 50
0.0
 51
89.1
  0
ARC
  5
622
100
AcDbEntity
  8
0
100
AcDbCircle
 62
7
  6
CONTINUOUS
 10
214.1725990329
 20
131.3023091358
 40
1.0
100
AcDbArc
 50
270.9000000009
 51
337.1579795155
  0
ARC
  5
623
100
AcDbEntity
  8
0
100
AcDbCircle
 62
7
  6
CONTINUOUS
 10
225.5774009684
 20
131.3023091357
 40
1.0
100
AcDbArc
 50
202.8420188265
 51
269.0999999991
  0
ARC
  5
624
100
AcDbEntity
  8
RUNDUNGEN
100
AcDbCircle
 62
7
  6
CONTINUOUS
 10
232.875
 20
96.5043437019
 40
1.0
100
AcDbArc
 50
341.2470369267
 51
360.0
  0
ARC
  5
625
100
AcDbEntity
  8
RUNDUNGEN
100
AcDbCircle
 62
7
  6
CONTINUOUS
 10
206.875
 20
96.5043437019
 40
1.0
100
AcDbArc
 50
180.0
 51
198.8099232779
  0
ARC
  5
626
100
AcDbEntity
  8
0
100
AcDbCircle
 62
7
  6
CONTINUOUS
 10
206.675
 20
133.7218092024
 40
0.8
100
AcDbArc
 50
90.44
 51
180.0
  0
ARC
  5
627
100
AcDbEntity
  8
0
100
AcDbCircle
 62
7
  6
CONTINUOUS
 10
206.675
 20
129.5840716464
 40
0.8
100
AcDbArc
 50
97.4567670802
 51
180.0
  0
ARC
  5
628
100
AcDbEntity
  8
0
100
AcDbCircle
 62
7
  6
CONTINUOUS
 10
233.075
 20
129.5840716464
 40
0.8
100
AcDbArc
 50
0.0
 51
82.5406552694
  0
ARC
  5
629
100
AcDbEntity
  8
0
100
AcDbCircle
 62
7
  6
CONTINUOUS
 10
233.075
 20
133.7218092024
 40
0.8
100
AcDbArc
 50
0.0
 51
89.56
  0
ARC
  5
62A
100
AcDbEntity
  8
RUNDUNGEN
100
AcDbCircle
 62
7
  6
CONTINUOUS
 10
206.675
 20
90.2781907976
 40
0.8
100
AcDbArc
 50
180.0
 51
269.56
  0
ARC
  5
62B
100
AcDbEntity
  8
RUNDUNGEN
100
AcDbCircle
 62
7
  6
CONTINUOUS
 10
206.675
 20
94.4159283536
 40
0.8
100
AcDbArc
 50
180.0
 51
269.56
  0
ARC
  5
62C
100
AcDbEntity
  8
RUNDUNGEN
100
AcDbCircle
 62
7
  6
CONTINUOUS
 10
233.075
 20
94.4159283536
 40
0.8
100
AcDbArc
 50
270.44
 51
360.0
  0
ARC
  5
62D
100
AcDbEntity
  8
RUNDUNGEN
100
AcDbCircle
 62
7
  6
CONTINUOUS
 10
233.075
 20
90.2781907976
 40
0.8
100
AcDbArc
 50
270.44
 51
360.0
  0
SPLINE
  5
62E
100
AcDbEntity
  8
0
100
AcDbSpline
 62
7
  6
CONTINUOUS
 70
0
 71
3
 72
8
 73
4
 74
0
 42
0.0000001
 43
0.0000001
 44
0.0000000001
 40
0.0
 40
0.0
 40
0.0
 40
0.0
 40
1.0
 40
1.0
 40
1.0
 40
1.0
 10
98.2545818428
 20
119.6374560183
 30
0.0
 10
98.2770427851
 20
119.5854749123
 30
0.0
 10
98.3008178987
 20
119.5354712037
 30
0.0
 10
98.32524413
 20
119.4907362894
 30
0.0
  0
SPLINE
  5
62F
100
AcDbEntity
  8
0
100
AcDbSpline
 62
7
  6
CONTINUOUS
 70
0
 71
3
 72
8
 73
4
 74
0
 42
0.0000001
 43
0.0000001
 44
0.0000000001
 40
0.0
 40
0.0
 40
0.0
 40
0.0
 40
1.0
 40
1.0
 40
1.0
 40
1.0
 10
98.7973868898
 20
119.4420434162
 30
0.0
 10
99.0113781794
 20
119.4337951518
 30
0.0
 10
99.1271779381
 20
119.4879528725
 30
0.0
 10
99.2441162301
 20
119.6639143536
 30
0.0
  0
SPLINE
  5
630
100
AcDbEntity
  8
0
100
AcDbSpline
 62
7
  6
CONTINUOUS
 70
0
 71
3
 72
8
 73
4
 74
0
 42
0.0000001
 43
0.0000001
 44
0.0000000001
 40
0.0
 40
0.0
 40
0.0
 40
0.0
 40
1.0
 40
1.0
 40
1.0
 40
1.0
 10
97.5697574735
 20
118.9569275581
 30
0.0
 10
97.4473290358
 20
118.9377506534
 30
0.0
 10
97.3539310089
 20
118.8658249918
 30
0.0
 10
97.289511989
 20
118.7414581454
 30
0.0
  0
SPLINE
  5
631
100
AcDbEntity
  8
0
100
AcDbSpline
 62
7
  6
CONTINUOUS
 70
0
 71
3
 72
8
 73
4
 74
0
 42
0.0000001
 43
0.0000001
 44
0.0000000001
 40
0.0
 40
0.0
 40
0.0
 40
0.0
 40
1.0
 40
1.0
 40
1.0
 40
1.0
 10
97.289511989
 20
118.7414581454
 30
0.0
 10
97.2152669456
 20
118.5981212564
 30
0.0
 10
97.2154806338
 20
118.4643393518
 30
0.0
 10
97.2911683178
 20
118.3369109598
 30
0.0
  0
SPLINE
  5
632
100
AcDbEntity
  8
0
100
AcDbSpline
 62
7
  6
CONTINUOUS
 70
0
 71
3
 72
8
 73
4
 74
0
 42
0.0000001
 43
0.0000001
 44
0.0000000001
 40
0.0
 40
0.0
 40
0.0
 40
0.0
 40
1.0
 40
1.0
 40
1.0
 40
1.0
 10
97.5994513025
 20
118.2146551491
 30
0.0
 10
97.489840698
 20
118.2714307925
 30
0.0
 10
97.4330487261
 20
118.3837256384
 30
0.0
 10
97.4898243475
 20
118.4933362006
 30
0.0
  0
SPLINE
  5
633
100
AcDbEntity
  8
0
100
AcDbSpline
 62
7
  6
CONTINUOUS
 70
0
 71
3
 72
8
 73
4
 74
0
 42
0.0000001
 43
0.0000001
 44
0.0000000001
 40
0.0
 40
0.0
 40
0.0
 40
0.0
 40
1.0
 40
1.0
 40
1.0
 40
1.0
 10
97.4898243475
 20
118.4933362006
 30
0.0
 10
97.5455079546
 20
118.6008385286
 30
0.0
 10
97.6476724562
 20
118.6174301266
 30
0.0
 10
97.7973331161
 20
118.5399095227
 30
0.0
  0
SPLINE
  5
634
100
AcDbEntity
  8
0
100
AcDbSpline
 62
7
  6
CONTINUOUS
 70
0
 71
3
 72
8
 73
4
 74
0
 42
0.0000001
 43
0.0000001
 44
0.0000000001
 40
0.0
 40
0.0
 40
0.0
 40
0.0
 40
1.0
 40
1.0
 40
1.0
 40
1.0
 10
98.1472439051
 20
118.3586641928
 30
0.0
 10
98.2673939974
 20
118.2964293496
 30
0.0
 10
98.4209812967
 20
118.3452000367
 30
0.0
 10
98.4832155862
 20
118.4653490598
 30
0.0
  0
SPLINE
  5
635
100
AcDbEntity
  8
0
100
AcDbSpline
 62
7
  6
CONTINUOUS
 70
0
 71
3
 72
8
 73
4
 74
0
 42
0.0000001
 43
0.0000001
 44
0.0000000001
 40
0.0
 40
0.0
 40
0.0
 40
0.0
 40
1.0
 40
1.0
 40
1.0
 40
1.0
 10
97.925350465
 20
118.8799627492
 30
0.0
 10
97.7946609062
 20
118.9476567813
 30
0.0
 10
97.6771798648
 20
118.9737539507
 30
0.0
 10
97.5697574735
 20
118.9569275581
 30
0.0
  0
SPLINE
  5
636
100
AcDbEntity
  8
0
100
AcDbSpline
 62
7
  6
CONTINUOUS
 70
0
 71
3
 72
8
 73
4
 74
0
 42
0.0000001
 43
0.0000001
 44
0.0000000001
 40
0.0
 40
0.0
 40
0.0
 40
0.0
 40
1.0
 40
1.0
 40
1.0
 40
1.0
 10
96.321984176
 20
117.8731200327
 30
0.0
 10
96.2673191384
 20
117.7441678855
 30
0.0
 10
96.3252377265
 20
117.6010105967
 30
0.0
 10
96.4541889078
 20
117.5463459686
 30
0.0
  0
SPLINE
  5
637
100
AcDbEntity
  8
0
100
AcDbSpline
 62
7
  6
CONTINUOUS
 70
0
 71
3
 72
8
 73
4
 74
0
 42
0.0000001
 43
0.0000001
 44
0.0000000001
 40
0.0
 40
0.0
 40
0.0
 40
0.0
 40
1.0
 40
1.0
 40
1.0
 40
1.0
 10
97.311737336
 20
116.4635283505
 30
0.0
 10
97.4432245448
 20
116.4152817342
 30
0.0
 10
97.5833562376
 20
116.4801818458
 30
0.0
 10
97.6316026979
 20
116.6116686294
 30
0.0
  0
SPLINE
  5
638
100
AcDbEntity
  8
0
100
AcDbSpline
 62
7
  6
CONTINUOUS
 70
0
 71
3
 72
8
 73
4
 74
0
 42
0.0000001
 43
0.0000001
 44
0.0000000001
 40
0.0
 40
0.0
 40
0.0
 40
0.0
 40
1.0
 40
1.0
 40
1.0
 40
1.0
 10
97.0061258885
 20
115.8595478111
 30
0.0
 10
97.0728373205
 20
115.7987803628
 30
0.0
 10
97.0955506635
 20
115.7307006613
 30
0.0
 10
97.0729764367
 20
115.6507405051
 30
0.0
  0
SPLINE
  5
639
100
AcDbEntity
  8
0
100
AcDbSpline
 62
7
  6
CONTINUOUS
 70
0
 71
3
 72
8
 73
4
 74
0
 42
0.0000001
 43
0.0000001
 44
0.0000000001
 40
0.0
 40
0.0
 40
0.0
 40
0.0
 40
1.0
 40
1.0
 40
1.0
 40
1.0
 10
97.0729764367
 20
115.6507405051
 30
0.0
 10
97.0504020025
 20
115.5707796147
 30
0.0
 10
96.9964342405
 20
115.5194158435
 30
0.0
 10
96.910229115
 20
115.5011658662
 30
0.0
  0
SPLINE
  5
63A
100
AcDbEntity
  8
0
100
AcDbSpline
 62
7
  6
CONTINUOUS
 70
0
 71
3
 72
8
 73
4
 74
0
 42
0.0000001
 43
0.0000001
 44
0.0000000001
 40
0.0
 40
0.0
 40
0.0
 40
0.0
 40
1.0
 40
1.0
 40
1.0
 40
1.0
 10
96.910229115
 20
115.5011658662
 30
0.0
 10
96.8416490646
 20
115.4866471894
 30
0.0
 10
96.7640274921
 20
115.4912948527
 30
0.0
 10
96.6749285773
 20
115.5164491196
 30
0.0
  0
SPLINE
  5
63B
100
AcDbEntity
  8
0
100
AcDbSpline
 62
7
  6
CONTINUOUS
 70
0
 71
3
 72
8
 73
4
 74
0
 42
0.0000001
 43
0.0000001
 44
0.0000000001
 40
0.0
 40
0.0
 40
0.0
 40
0.0
 40
1.0
 40
1.0
 40
1.0
 40
1.0
 10
96.6749285773
 20
115.5164491196
 30
0.0
 10
96.5858296626
 20
115.5416033866
 30
0.0
 10
96.5172376608
 20
115.578234512
 30
0.0
 10
96.466380088
 20
115.6264695078
 30
0.0
  0
SPLINE
  5
63C
100
AcDbEntity
  8
0
100
AcDbSpline
 62
7
  6
CONTINUOUS
 70
0
 71
3
 72
8
 73
4
 74
0
 42
0.0000001
 43
0.0000001
 44
0.0000000001
 40
0.0
 40
0.0
 40
0.0
 40
0.0
 40
1.0
 40
1.0
 40
1.0
 40
1.0
 10
96.466380088
 20
115.6264695078
 30
0.0
 10
96.4024415291
 20
115.6871109413
 30
0.0
 10
96.3810178488
 20
115.7597591072
 30
0.0
 10
96.4035922829
 20
115.8397199976
 30
0.0
  0
SPLINE
  5
63D
100
AcDbEntity
  8
0
100
AcDbSpline
 62
7
  6
CONTINUOUS
 70
0
 71
3
 72
8
 73
4
 74
0
 42
0.0000001
 43
0.0000001
 44
0.0000000001
 40
0.0
 40
0.0
 40
0.0
 40
0.0
 40
1.0
 40
1.0
 40
1.0
 40
1.0
 10
96.4035922829
 20
115.8397199976
 30
0.0
 10
96.4255216325
 20
115.9173959346
 30
0.0
 10
96.4811291954
 20
115.9658304797
 30
0.0
 10
96.5676765283
 20
115.9823397837
 30
0.0
  0
SPLINE
  5
63E
100
AcDbEntity
  8
0
100
AcDbSpline
 62
7
  6
CONTINUOUS
 70
0
 71
3
 72
8
 73
4
 74
0
 42
0.0000001
 43
0.0000001
 44
0.0000000001
 40
0.0
 40
0.0
 40
0.0
 40
0.0
 40
1.0
 40
1.0
 40
1.0
 40
1.0
 10
96.5676765283
 20
115.9823397837
 30
0.0
 10
96.6375538503
 20
115.9956692059
 30
0.0
 10
96.7151755843
 20
115.9910222898
 30
0.0
 10
96.7997053262
 20
115.9671579846
 30
0.0
  0
SPLINE
  5
63F
100
AcDbEntity
  8
0
100
AcDbSpline
 62
7
  6
CONTINUOUS
 70
0
 71
3
 72
8
 73
4
 74
0
 42
0.0000001
 43
0.0000001
 44
0.0000000001
 40
0.0
 40
0.0
 40
0.0
 40
0.0
 40
1.0
 40
1.0
 40
1.0
 40
1.0
 10
96.7997053262
 20
115.9671579846
 30
0.0
 10
96.8865196546
 20
115.9426486986
 30
0.0
 10
96.9551114949
 20
115.9060168259
 30
0.0
 10
97.0061258885
 20
115.8595478111
 30
0.0
  0
SPLINE
  5
640
100
AcDbEntity
  8
0
100
AcDbSpline
 62
7
  6
CONTINUOUS
 70
0
 71
3
 72
8
 73
4
 74
0
 42
0.0000001
 43
0.0000001
 44
0.0000000001
 40
0.0
 40
0.0
 40
0.0
 40
0.0
 40
1.0
 40
1.0
 40
1.0
 40
1.0
 10
96.4340580572
 20
116.2905390425
 30
0.0
 10
96.2974150844
 20
116.2150304718
 30
0.0
 10
96.2061707453
 20
116.092789849
 30
0.0
 10
96.1584421609
 20
115.9237304568
 30
0.0
  0
SPLINE
  5
641
100
AcDbEntity
  8
0
100
AcDbSpline
 62
7
  6
CONTINUOUS
 70
0
 71
3
 72
8
 73
4
 74
0
 42
0.0000001
 43
0.0000001
 44
0.0000000001
 40
0.0
 40
0.0
 40
0.0
 40
0.0
 40
1.0
 40
1.0
 40
1.0
 40
1.0
 10
96.1584421609
 20
115.9237304568
 30
0.0
 10
96.1074885684
 20
115.7432477656
 30
0.0
 10
96.1187552794
 20
115.5821996772
 30
0.0
 10
96.1959015222
 20
115.4426312538
 30
0.0
  0
SPLINE
  5
642
100
AcDbEntity
  8
0
100
AcDbSpline
 62
7
  6
CONTINUOUS
 70
0
 71
3
 72
8
 73
4
 74
0
 42
0.0000001
 43
0.0000001
 44
0.0000000001
 40
0.0
 40
0.0
 40
0.0
 40
0.0
 40
1.0
 40
1.0
 40
1.0
 40
1.0
 10
96.1959015222
 20
115.4426312538
 30
0.0
 10
96.2722334118
 20
115.3045361103
 30
0.0
 10
96.4006829047
 20
115.2090722164
 30
0.0
 10
96.5811653205
 20
115.1581187016
 30
0.0
  0
SPLINE
  5
643
100
AcDbEntity
  8
0
100
AcDbSpline
 62
7
  6
CONTINUOUS
 70
0
 71
3
 72
8
 73
4
 74
0
 42
0.0000001
 43
0.0000001
 44
0.0000000001
 40
0.0
 40
0.0
 40
0.0
 40
0.0
 40
1.0
 40
1.0
 40
1.0
 40
1.0
 10
96.5811653205
 20
115.1581187016
 30
0.0
 10
96.7525093909
 20
115.1097451103
 30
0.0
 10
96.9067036853
 20
115.1229463774
 30
0.0
 10
97.0439756284
 20
115.2007409144
 30
0.0
  0
SPLINE
  5
644
100
AcDbEntity
  8
0
100
AcDbSpline
 62
7
  6
CONTINUOUS
 70
0
 71
3
 72
8
 73
4
 74
0
 42
0.0000001
 43
0.0000001
 44
0.0000000001
 40
0.0
 40
0.0
 40
0.0
 40
0.0
 40
1.0
 40
1.0
 40
1.0
 40
1.0
 10
97.0439756284
 20
115.2007409144
 30
0.0
 10
97.179798521
 20
115.2777142478
 30
0.0
 10
97.2716879704
 20
115.4022398168
 30
0.0
 10
97.3200614321
 20
115.5735834283
 30
0.0
  0
SPLINE
  5
645
100
AcDbEntity
  8
0
100
AcDbSpline
 62
7
  6
CONTINUOUS
 70
0
 71
3
 72
8
 73
4
 74
0
 42
0.0000001
 43
0.0000001
 44
0.0000000001
 40
0.0
 40
0.0
 40
0.0
 40
0.0
 40
1.0
 40
1.0
 40
1.0
 40
1.0
 10
97.3200614321
 20
115.5735834283
 30
0.0
 10
97.3703701474
 20
115.7517819002
 30
0.0
 10
97.3555288624
 20
115.908905804
 30
0.0
 10
97.2777422218
 20
116.0461817727
 30
0.0
  0
SPLINE
  5
646
100
AcDbEntity
  8
0
100
AcDbSpline
 62
7
  6
CONTINUOUS
 70
0
 71
3
 72
8
 73
4
 74
0
 42
0.0000001
 43
0.0000001
 44
0.0000000001
 40
0.0
 40
0.0
 40
0.0
 40
0.0
 40
1.0
 40
1.0
 40
1.0
 40
1.0
 10
97.2777422218
 20
116.0461817727
 30
0.0
 10
97.1991212578
 20
116.1849301349
 30
0.0
 10
97.0706717879
 20
116.2803940224
 30
0.0
 10
96.8924739584
 20
116.3307025563
 30
0.0
  0
SPLINE
  5
647
100
AcDbEntity
  8
0
100
AcDbSpline
 62
7
  6
CONTINUOUS
 70
0
 71
3
 72
8
 73
4
 74
0
 42
0.0000001
 43
0.0000001
 44
0.0000000001
 40
0.0
 40
0.0
 40
0.0
 40
0.0
 40
1.0
 40
1.0
 40
1.0
 40
1.0
 10
96.8924739584
 20
116.3307025563
 30
0.0
 10
96.721129888
 20
116.3790761475
 30
0.0
 10
96.5692199497
 20
116.3652291719
 30
0.0
 10
96.4340580572
 20
116.2905390425
 30
0.0
  0
SPLINE
  5
648
100
AcDbEntity
  8
0
100
AcDbSpline
 62
7
  6
CONTINUOUS
 70
0
 71
3
 72
8
 73
4
 74
0
 42
0.0000001
 43
0.0000001
 44
0.0000000001
 40
0.0
 40
0.0
 40
0.0
 40
0.0
 40
1.0
 40
1.0
 40
1.0
 40
1.0
 10
95.9338982049
 20
115.034810707
 30
0.0
 10
95.9061664011
 20
114.8926835103
 30
0.0
 10
95.9812933799
 20
114.7570921183
 30
0.0
 10
96.111543338
 20
114.6808864744
 30
0.0
  0
SPLINE
  5
649
100
AcDbEntity
  8
0
100
AcDbSpline
 62
7
  6
CONTINUOUS
 70
0
 71
3
 72
8
 73
4
 74
0
 42
0.0000001
 43
0.0000001
 44
0.0000000001
 40
0.0
 40
0.0
 40
0.0
 40
0.0
 40
1.0
 40
1.0
 40
1.0
 40
1.0
 10
95.8358713898
 20
114.3960640728
 30
0.0
 10
95.9020192618
 20
114.3879946313
 30
0.0
 10
96.0282909942
 20
114.3657748038
 30
0.0
 10
96.2123569723
 20
114.3298599212
 30
0.0
  0
SPLINE
  5
64A
100
AcDbEntity
  8
0
100
AcDbSpline
 62
7
  6
CONTINUOUS
 70
0
 71
3
 72
8
 73
4
 74
0
 42
0.0000001
 43
0.0000001
 44
0.0000000001
 40
0.0
 40
0.0
 40
0.0
 40
0.0
 40
1.0
 40
1.0
 40
1.0
 40
1.0
 10
96.4701848639
 20
114.647187883
 30
0.0
 10
96.2977686253
 20
114.680829673
 30
0.0
 10
96.2279268201
 20
114.7815286835
 30
0.0
 10
96.2602048093
 20
114.9469553591
 30
0.0
  0
SPLINE
  5
64B
100
AcDbEntity
  8
0
100
AcDbSpline
 62
7
  6
CONTINUOUS
 70
0
 71
3
 72
8
 73
4
 74
0
 42
0.0000001
 43
0.0000001
 44
0.0000000001
 40
0.0
 40
0.0
 40
0.0
 40
0.0
 40
1.0
 40
1.0
 40
1.0
 40
1.0
 10
96.2602048093
 20
114.9469553591
 30
0.0
 10
96.2652055402
 20
114.9725844117
 30
0.0
 10
96.2739001476
 20
115.0047490638
 30
0.0
 10
96.2886185795
 20
115.042994697
 30
0.0
  0
SPLINE
  5
64C
100
AcDbEntity
  8
0
100
AcDbSpline
 62
7
  6
CONTINUOUS
 70
0
 71
3
 72
8
 73
4
 74
0
 42
0.0000001
 43
0.0000001
 44
0.0000000001
 40
0.0
 40
0.0
 40
0.0
 40
0.0
 40
1.0
 40
1.0
 40
1.0
 40
1.0
 10
95.9554358418
 20
115.1080051843
 30
0.0
 10
95.945775069
 20
115.08328462
 30
0.0
 10
95.9388989358
 20
115.0604397595
 30
0.0
 10
95.9338982049
 20
115.034810707
 30
0.0
  0
SPLINE
  5
64D
100
AcDbEntity
  8
0
100
AcDbSpline
 62
7
  6
CONTINUOUS
 70
0
 71
3
 72
8
 73
4
 74
0
 42
0.0000001
 43
0.0000001
 44
0.0000000001
 40
0.0
 40
0.0
 40
0.0
 40
0.0
 40
1.0
 40
1.0
 40
1.0
 40
1.0
 10
96.5340471454
 20
113.5766512203
 30
0.0
 10
96.5987606086
 20
113.5257996879
 30
0.0
 10
96.6275161018
 20
113.4583520471
 30
0.0
 10
96.6186359636
 20
113.3733547669
 30
0.0
  0
SPLINE
  5
64E
100
AcDbEntity
  8
0
100
AcDbSpline
 62
7
  6
CONTINUOUS
 70
0
 71
3
 72
8
 73
4
 74
0
 42
0.0000001
 43
0.0000001
 44
0.0000000001
 40
0.0
 40
0.0
 40
0.0
 40
0.0
 40
1.0
 40
1.0
 40
1.0
 40
1.0
 10
96.6186359636
 20
113.3733547669
 30
0.0
 10
96.6134558433
 20
113.3237726407
 30
0.0
 10
96.5922418152
 20
113.2806392792
 30
0.0
 10
96.554962023
 20
113.2439879233
 30
0.0
  0
SPLINE
  5
64F
100
AcDbEntity
  8
0
100
AcDbSpline
 62
7
  6
CONTINUOUS
 70
0
 71
3
 72
8
 73
4
 74
0
 42
0.0000001
 43
0.0000001
 44
0.0000000001
 40
0.0
 40
0.0
 40
0.0
 40
0.0
 40
1.0
 40
1.0
 40
1.0
 40
1.0
 10
96.554962023
 20
113.2439879233
 30
0.0
 10
96.504460774
 20
113.1943379884
 30
0.0
 10
96.4377527441
 20
113.1726656678
 30
0.0
 10
96.350394381
 20
113.1817924815
 30
0.0
  0
SPLINE
  5
650
100
AcDbEntity
  8
0
100
AcDbSpline
 62
7
  6
CONTINUOUS
 70
0
 71
3
 72
8
 73
4
 74
0
 42
0.0000001
 43
0.0000001
 44
0.0000000001
 40
0.0
 40
0.0
 40
0.0
 40
0.0
 40
1.0
 40
1.0
 40
1.0
 40
1.0
 10
96.1922049036
 20
113.1983194152
 30
0.0
 10
96.0599868648
 20
113.2121329685
 30
0.0
 10
95.9562772524
 20
113.3160539289
 30
0.0
 10
95.9698441698
 20
113.4459112641
 30
0.0
  0
SPLINE
  5
651
100
AcDbEntity
  8
0
100
AcDbSpline
 62
7
  6
CONTINUOUS
 70
0
 71
3
 72
8
 73
4
 74
0
 42
0.0000001
 43
0.0000001
 44
0.0000000001
 40
0.0
 40
0.0
 40
0.0
 40
0.0
 40
1.0
 40
1.0
 40
1.0
 40
1.0
 10
95.9698441698
 20
113.4459112641
 30
0.0
 10
95.9784775978
 20
113.5285471293
 30
0.0
 10
96.0205533694
 20
113.5885954014
 30
0.0
 10
96.0937034083
 20
113.6234314414
 30
0.0
  0
SPLINE
  5
652
100
AcDbEntity
  8
0
100
AcDbSpline
 62
7
  6
CONTINUOUS
 70
0
 71
3
 72
8
 73
4
 74
0
 42
0.0000001
 43
0.0000001
 44
0.0000000001
 40
0.0
 40
0.0
 40
0.0
 40
0.0
 40
1.0
 40
1.0
 40
1.0
 40
1.0
 10
96.0937034083
 20
113.6234314414
 30
0.0
 10
96.1561894241
 20
113.6531889832
 30
0.0
 10
96.2313548905
 20
113.6644304821
 30
0.0
 10
96.3187132536
 20
113.6553036684
 30
0.0
  0
SPLINE
  5
653
100
AcDbEntity
  8
0
100
AcDbSpline
 62
7
  6
CONTINUOUS
 70
0
 71
3
 72
8
 73
4
 74
0
 42
0.0000001
 43
0.0000001
 44
0.0000000001
 40
0.0
 40
0.0
 40
0.0
 40
0.0
 40
1.0
 40
1.0
 40
1.0
 40
1.0
 10
96.3187132536
 20
113.6553036684
 30
0.0
 10
96.4084326524
 20
113.6459301843
 30
0.0
 10
96.4796514381
 20
113.6193951092
 30
0.0
 10
96.5340471454
 20
113.5766512203
 30
0.0
  0
SPLINE
  5
654
100
AcDbEntity
  8
0
100
AcDbSpline
 62
7
  6
CONTINUOUS
 70
0
 71
3
 72
8
 73
4
 74
0
 42
0.0000001
 43
0.0000001
 44
0.0000000001
 40
0.0
 40
0.0
 40
0.0
 40
0.0
 40
1.0
 40
1.0
 40
1.0
 40
1.0
 10
95.9256223421
 20
113.943215946
 30
0.0
 10
95.7919550435
 20
113.8678662613
 30
0.0
 10
95.7179879628
 20
113.7538672603
 30
0.0
 10
95.7022010505
 20
113.6027609844
 30
0.0
  0
SPLINE
  5
655
100
AcDbEntity
  8
0
100
AcDbSpline
 62
7
  6
CONTINUOUS
 70
0
 71
3
 72
8
 73
4
 74
0
 42
0.0000001
 43
0.0000001
 44
0.0000000001
 40
0.0
 40
0.0
 40
0.0
 40
0.0
 40
1.0
 40
1.0
 40
1.0
 40
1.0
 10
95.7022010505
 20
113.6027609844
 30
0.0
 10
95.684687405
 20
113.4351270802
 30
0.0
 10
95.7325074122
 20
113.2988563118
 30
0.0
 10
95.8485156227
 20
113.1984248288
 30
0.0
  0
SPLINE
  5
656
100
AcDbEntity
  8
0
100
AcDbSpline
 62
7
  6
CONTINUOUS
 70
0
 71
3
 72
8
 73
4
 74
0
 42
0.0000001
 43
0.0000001
 44
0.0000000001
 40
0.0
 40
0.0
 40
0.0
 40
0.0
 40
1.0
 40
1.0
 40
1.0
 40
1.0
 10
97.028294571
 20
112.7481738786
 30
0.0
 10
97.1675957402
 20
112.7336203113
 30
0.0
 10
97.2875502903
 20
112.8308810964
 30
0.0
 10
97.3021038898
 20
112.9701825739
 30
0.0
  0
SPLINE
  5
657
100
AcDbEntity
  8
0
100
AcDbSpline
 62
7
  6
CONTINUOUS
 70
0
 71
3
 72
8
 73
4
 74
0
 42
0.0000001
 43
0.0000001
 44
0.0000000001
 40
0.0
 40
0.0
 40
0.0
 40
0.0
 40
1.0
 40
1.0
 40
1.0
 40
1.0
 10
96.7399654381
 20
113.1410918283
 30
0.0
 10
96.8342305666
 20
113.1980740113
 30
0.0
 10
96.8894504242
 20
113.2925507631
 30
0.0
 10
96.9040040236
 20
113.4318522405
 30
0.0
  0
SPLINE
  5
658
100
AcDbEntity
  8
0
100
AcDbSpline
 62
7
  6
CONTINUOUS
 70
0
 71
3
 72
8
 73
4
 74
0
 42
0.0000001
 43
0.0000001
 44
0.0000000001
 40
0.0
 40
0.0
 40
0.0
 40
0.0
 40
1.0
 40
1.0
 40
1.0
 40
1.0
 10
96.9040040236
 20
113.4318522405
 30
0.0
 10
96.921270959
 20
113.5971247298
 30
0.0
 10
96.8710898866
 20
113.7336421717
 30
0.0
 10
96.755461181
 20
113.8428710794
 30
0.0
  0
SPLINE
  5
659
100
AcDbEntity
  8
0
100
AcDbSpline
 62
7
  6
CONTINUOUS
 70
0
 71
3
 72
8
 73
4
 74
0
 42
0.0000001
 43
0.0000001
 44
0.0000000001
 40
0.0
 40
0.0
 40
0.0
 40
0.0
 40
1.0
 40
1.0
 40
1.0
 40
1.0
 10
96.755461181
 20
113.8428710794
 30
0.0
 10
96.6495044344
 20
113.94296335
 30
0.0
 10
96.5125289533
 20
114.0026228815
 30
0.0
 10
96.3401732625
 20
114.0206298382
 30
0.0
  0
SPLINE
  5
65A
100
AcDbEntity
  8
0
100
AcDbSpline
 62
7
  6
CONTINUOUS
 70
0
 71
3
 72
8
 73
4
 74
0
 42
0.0000001
 43
0.0000001
 44
0.0000000001
 40
0.0
 40
0.0
 40
0.0
 40
0.0
 40
1.0
 40
1.0
 40
1.0
 40
1.0
 10
96.3401732625
 20
114.0206298382
 30
0.0
 10
96.1819837851
 20
114.037156772
 30
0.0
 10
96.0455724348
 20
114.0108330952
 30
0.0
 10
95.9256223421
 20
113.943215946
 30
0.0
  0
SPLINE
  5
65B
100
AcDbEntity
  8
0
100
AcDbSpline
 62
7
  6
CONTINUOUS
 70
0
 71
3
 72
8
 73
4
 74
0
 42
0.0000001
 43
0.0000001
 44
0.0000000001
 40
0.0
 40
0.0
 40
0.0
 40
0.0
 40
1.0
 40
1.0
 40
1.0
 40
1.0
 10
96.5367098522
 20
111.4295187542
 30
0.0
 10
96.5400091506
 20
111.351250402
 30
0.0
 10
96.5093037301
 20
111.2905558167
 30
0.0
 10
96.4444306221
 20
111.2454451555
 30
0.0
  0
SPLINE
  5
65C
100
AcDbEntity
  8
0
100
AcDbSpline
 62
7
  6
CONTINUOUS
 70
0
 71
3
 72
8
 73
4
 74
0
 42
0.0000001
 43
0.0000001
 44
0.0000000001
 40
0.0
 40
0.0
 40
0.0
 40
0.0
 40
1.0
 40
1.0
 40
1.0
 40
1.0
 10
96.4444306221
 20
111.2454451555
 30
0.0
 10
96.3892704314
 20
111.2070885428
 30
0.0
 10
96.3212886034
 20
111.1852149048
 30
0.0
 10
96.2382762628
 20
111.1817156299
 30
0.0
  0
SPLINE
  5
65D
100
AcDbEntity
  8
0
100
AcDbSpline
 62
7
  6
CONTINUOUS
 70
0
 71
3
 72
8
 73
4
 74
0
 42
0.0000001
 43
0.0000001
 44
0.0000000001
 40
0.0
 40
0.0
 40
0.0
 40
0.0
 40
1.0
 40
1.0
 40
1.0
 40
1.0
 10
96.2382762628
 20
111.1817156299
 30
0.0
 10
96.1528921425
 20
111.1781163758
 30
0.0
 10
96.0786671302
 20
111.1916190972
 30
0.0
 10
96.0155512735
 20
111.224692309
 30
0.0
  0
SPLINE
  5
65E
100
AcDbEntity
  8
0
100
AcDbSpline
 62
7
  6
CONTINUOUS
 70
0
 71
3
 72
8
 73
4
 74
0
 42
0.0000001
 43
0.0000001
 44
0.0000000001
 40
0.0
 40
0.0
 40
0.0
 40
0.0
 40
1.0
 40
1.0
 40
1.0
 40
1.0
 10
96.0155512735
 20
111.224692309
 30
0.0
 10
95.9401763036
 20
111.2641893938
 30
0.0
 10
95.9020000514
 20
111.3243559761
 30
0.0
 10
95.8986007577
 20
111.4049964893
 30
0.0
  0
SPLINE
  5
65F
100
AcDbEntity
  8
0
100
AcDbSpline
 62
7
  6
CONTINUOUS
 70
0
 71
3
 72
8
 73
4
 74
0
 42
0.0000001
 43
0.0000001
 44
0.0000000001
 40
0.0
 40
0.0
 40
0.0
 40
0.0
 40
1.0
 40
1.0
 40
1.0
 40
1.0
 10
95.8986007577
 20
111.4049964893
 30
0.0
 10
95.893401838
 20
111.5283290387
 30
0.0
 10
95.9897173864
 20
111.6107965225
 30
0.0
 10
96.1154217633
 20
111.6160954234
 30
0.0
  0
SPLINE
  5
660
100
AcDbEntity
  8
0
100
AcDbSpline
 62
7
  6
CONTINUOUS
 70
0
 71
3
 72
8
 73
4
 74
0
 42
0.0000001
 43
0.0000001
 44
0.0000000001
 40
0.0
 40
0.0
 40
0.0
 40
0.0
 40
1.0
 40
1.0
 40
1.0
 40
1.0
 10
96.2861900041
 20
111.6232939317
 30
0.0
 10
96.4474711018
 20
111.6300925221
 30
0.0
 10
96.5310110202
 20
111.5647105838
 30
0.0
 10
96.5367098522
 20
111.4295187542
 30
0.0
  0
SPLINE
  5
661
100
AcDbEntity
  8
0
100
AcDbSpline
 62
7
  6
CONTINUOUS
 70
0
 71
3
 72
8
 73
4
 74
0
 42
0.0000001
 43
0.0000001
 44
0.0000000001
 40
0.0
 40
0.0
 40
0.0
 40
0.0
 40
1.0
 40
1.0
 40
1.0
 40
1.0
 10
95.7791010475
 20
111.6470625438
 30
0.0
 10
95.6730984536
 20
111.5689379406
 30
0.0
 10
95.6229466042
 20
111.4622801073
 30
0.0
 10
95.6290453209
 20
111.3176019207
 30
0.0
  0
SPLINE
  5
662
100
AcDbEntity
  8
0
100
AcDbSpline
 62
7
  6
CONTINUOUS
 70
0
 71
3
 72
8
 73
4
 74
0
 42
0.0000001
 43
0.0000001
 44
0.0000000001
 40
0.0
 40
0.0
 40
0.0
 40
0.0
 40
1.0
 40
1.0
 40
1.0
 40
1.0
 10
95.6290453209
 20
111.3176019207
 30
0.0
 10
95.6358439083
 20
111.1563208944
 30
0.0
 10
95.7053808363
 20
111.0285720635
 30
0.0
 10
95.8357527222
 20
110.9349119002
 30
0.0
  0
SPLINE
  5
663
100
AcDbEntity
  8
0
100
AcDbSpline
 62
7
  6
CONTINUOUS
 70
0
 71
3
 72
8
 73
4
 74
0
 42
0.0000001
 43
0.0000001
 44
0.0000000001
 40
0.0
 40
0.0
 40
0.0
 40
0.0
 40
1.0
 40
1.0
 40
1.0
 40
1.0
 10
95.8357527222
 20
110.9349119002
 30
0.0
 10
95.9553009044
 20
110.8490275688
 30
0.0
 10
96.0971355815
 20
110.8098621478
 30
0.0
 10
96.263160215
 20
110.8168606957
 30
0.0
  0
SPLINE
  5
664
100
AcDbEntity
  8
0
100
AcDbSpline
 62
7
  6
CONTINUOUS
 70
0
 71
3
 72
8
 73
4
 74
0
 42
0.0000001
 43
0.0000001
 44
0.0000000001
 40
0.0
 40
0.0
 40
0.0
 40
0.0
 40
1.0
 40
1.0
 40
1.0
 40
1.0
 10
96.263160215
 20
110.8168606957
 30
0.0
 10
96.4196977769
 20
110.8234593286
 30
0.0
 10
96.5483460874
 20
110.8716502244
 30
0.0
 10
96.6511845455
 20
110.9596187806
 30
0.0
  0
SPLINE
  5
665
100
AcDbEntity
  8
0
100
AcDbSpline
 62
7
  6
CONTINUOUS
 70
0
 71
3
 72
8
 73
4
 74
0
 42
0.0000001
 43
0.0000001
 44
0.0000000001
 40
0.0
 40
0.0
 40
0.0
 40
0.0
 40
1.0
 40
1.0
 40
1.0
 40
1.0
 10
96.6511845455
 20
110.9596187806
 30
0.0
 10
96.7616232222
 20
111.0540886036
 30
0.0
 10
96.813447006
 20
111.1774492569
 30
0.0
 10
96.8069483724
 20
111.3316145626
 30
0.0
  0
SPLINE
  5
666
100
AcDbEntity
  8
0
100
AcDbSpline
 62
7
  6
CONTINUOUS
 70
0
 71
3
 72
8
 73
4
 74
0
 42
0.0000001
 43
0.0000001
 44
0.0000000001
 40
0.0
 40
0.0
 40
0.0
 40
0.0
 40
1.0
 40
1.0
 40
1.0
 40
1.0
 10
96.8069483724
 20
111.3316145626
 30
0.0
 10
96.8012495405
 20
111.4668063922
 30
0.0
 10
96.7470430534
 20
111.5690651385
 30
0.0
 10
96.6443289203
 20
111.6383908019
 30
0.0
  0
SPLINE
  5
667
100
AcDbEntity
  8
0
100
AcDbSpline
 62
7
  6
CONTINUOUS
 70
0
 71
3
 72
8
 73
4
 74
0
 42
0.0000001
 43
0.0000001
 44
0.0000000001
 40
0.0
 40
0.0
 40
0.0
 40
0.0
 40
1.0
 40
1.0
 40
1.0
 40
1.0
 10
96.7176541654
 20
111.6462337188
 30
0.0
 10
96.9216273292
 20
111.6548319365
 30
0.0
 10
97.0278130238
 20
111.5595162932
 30
0.0
 10
97.0363112419
 20
111.3579153915
 30
0.0
  0
SPLINE
  5
668
100
AcDbEntity
  8
0
100
AcDbSpline
 62
7
  6
CONTINUOUS
 70
0
 71
3
 72
8
 73
4
 74
0
 42
0.0000001
 43
0.0000001
 44
0.0000000001
 40
0.0
 40
0.0
 40
0.0
 40
0.0
 40
1.0
 40
1.0
 40
1.0
 40
1.0
 10
97.0363112419
 20
111.3579153915
 30
0.0
 10
97.0415101617
 20
111.234582842
 30
0.0
 10
97.0177478438
 20
111.1219090596
 30
0.0
 10
96.9627524037
 20
111.0174234273
 30
0.0
  0
SPLINE
  5
669
100
AcDbEntity
  8
0
100
AcDbSpline
 62
7
  6
CONTINUOUS
 70
0
 71
3
 72
8
 73
4
 74
0
 42
0.0000001
 43
0.0000001
 44
0.0000000001
 40
0.0
 40
0.0
 40
0.0
 40
0.0
 40
1.0
 40
1.0
 40
1.0
 40
1.0
 10
97.2408784002
 20
110.9578668668
 30
0.0
 10
97.2956738616
 20
111.0670968215
 30
0.0
 10
97.3182364288
 20
111.2082319615
 30
0.0
 10
97.3110379245
 20
111.3790001069
 30
0.0
  0
SPLINE
  5
66A
100
AcDbEntity
  8
0
100
AcDbSpline
 62
7
  6
CONTINUOUS
 70
0
 71
3
 72
8
 73
4
 74
0
 42
0.0000001
 43
0.0000001
 44
0.0000000001
 40
0.0
 40
0.0
 40
0.0
 40
0.0
 40
1.0
 40
1.0
 40
1.0
 40
1.0
 10
97.3110379245
 20
111.3790001069
 30
0.0
 10
97.29224183
 20
111.8248947089
 30
0.0
 10
97.0679115228
 20
112.0173982593
 30
0.0
 10
96.6196449147
 20
111.998502176
 30
0.0
  0
SPLINE
  5
66B
100
AcDbEntity
  8
0
100
AcDbSpline
 62
7
  6
CONTINUOUS
 70
0
 71
3
 72
8
 73
4
 74
0
 42
0.0000001
 43
0.0000001
 44
0.0000000001
 40
0.0
 40
0.0
 40
0.0
 40
0.0
 40
1.0
 40
1.0
 40
1.0
 40
1.0
 10
95.9745205119
 20
111.971307814
 30
0.0
 10
95.8440725277
 20
111.9658089526
 30
0.0
 10
95.7301271343
 20
111.9633813484
 30
0.0
 10
95.6278405539
 20
111.9661979582
 30
0.0
  0
SPLINE
  5
66C
100
AcDbEntity
  8
0
100
AcDbSpline
 62
7
  6
CONTINUOUS
 70
0
 71
3
 72
8
 73
4
 74
0
 42
0.0000001
 43
0.0000001
 44
0.0000000001
 40
0.0
 40
0.0
 40
0.0
 40
0.0
 40
1.0
 40
1.0
 40
1.0
 40
1.0
 10
95.84866725
 20
110.3722508994
 30
0.0
 10
95.7605824946
 20
110.2850882508
 30
0.0
 10
95.7268972058
 20
110.1721186994
 30
0.0
 10
95.747389533
 20
110.0335670495
 30
0.0
  0
SPLINE
  5
66D
100
AcDbEntity
  8
0
100
AcDbSpline
 62
7
  6
CONTINUOUS
 70
0
 71
3
 72
8
 73
4
 74
0
 42
0.0000001
 43
0.0000001
 44
0.0000000001
 40
0.0
 40
0.0
 40
0.0
 40
0.0
 40
1.0
 40
1.0
 40
1.0
 40
1.0
 10
95.747389533
 20
110.0335670495
 30
0.0
 10
95.7710079287
 20
109.8738795898
 30
0.0
 10
95.8494311806
 20
109.7654931593
 30
0.0
 10
95.985355107
 20
109.7064063835
 30
0.0
  0
SPLINE
  5
66E
100
AcDbEntity
  8
RUNDUNGEN
100
AcDbSpline
 62
7
  6
CONTINUOUS
 70
0
 71
3
 72
9
 73
5
 74
0
 42
0.0000001
 43
0.0000001
 44
0.0000000001
 40
0.0
 40
0.0
 40
0.0
 40
0.0
 40
0.5048486353
 40
1.0
 40
1.0
 40
1.0
 40
1.0
 10
121.0645018331
 20
126.442083914
 30
0.0
 10
121.0570743184
 20
126.5333425976
 30
0.0
 10
121.0505445451
 20
126.7149789206
 30
0.0
 10
121.0651901914
 20
126.8961819044
 30
0.0
 10
121.0769614141
 20
126.9852088031
 30
0.0
  0
SPLINE
  5
66F
100
AcDbEntity
  8
0
100
AcDbSpline
 62
7
  6
CONTINUOUS
 70
0
 71
3
 72
8
 73
4
 74
0
 42
0.0000001
 43
0.0000001
 44
0.0000000001
 40
0.0
 40
0.0
 40
0.0
 40
0.0
 40
1.0
 40
1.0
 40
1.0
 40
1.0
 10
96.306911832
 20
109.7875618219
 30
0.0
 10
96.1847981337
 20
109.7695007315
 30
0.0
 10
96.0730523532
 20
109.8273641277
 30
0.0
 10
96.0549912698
 20
109.9494777788
 30
0.0
  0
SPLINE
  5
670
100
AcDbEntity
  8
0
100
AcDbSpline
 62
7
  6
CONTINUOUS
 70
0
 71
3
 72
8
 73
4
 74
0
 42
0.0000001
 43
0.0000001
 44
0.0000000001
 40
0.0
 40
0.0
 40
0.0
 40
0.0
 40
1.0
 40
1.0
 40
1.0
 40
1.0
 10
96.0549912698
 20
109.9494777788
 30
0.0
 10
96.0372775149
 20
110.0692430905
 30
0.0
 10
96.1104388538
 20
110.1424564145
 30
0.0
 10
96.2771710487
 20
110.1671167539
 30
0.0
  0
SPLINE
  5
671
100
AcDbEntity
  8
0
100
AcDbSpline
 62
7
  6
CONTINUOUS
 70
0
 71
3
 72
8
 73
4
 74
0
 42
0.0000001
 43
0.0000001
 44
0.0000000001
 40
0.0
 40
0.0
 40
0.0
 40
0.0
 40
1.0
 40
1.0
 40
1.0
 40
1.0
 10
96.6669955617
 20
110.2247733139
 30
0.0
 10
96.800850969
 20
110.2445710486
 30
0.0
 10
96.8968995521
 20
110.37396312
 30
0.0
 10
96.8771017702
 20
110.5078188458
 30
0.0
  0
SPLINE
  5
672
100
AcDbEntity
  8
0
100
AcDbSpline
 62
7
  6
CONTINUOUS
 70
0
 71
3
 72
8
 73
4
 74
0
 42
0.0000001
 43
0.0000001
 44
0.0000000001
 40
0.0
 40
0.0
 40
0.0
 40
0.0
 40
1.0
 40
1.0
 40
1.0
 40
1.0
 10
96.1821069554
 20
110.5178124291
 30
0.0
 10
96.0365098626
 20
110.4962780535
 30
0.0
 10
95.9259563505
 20
110.4487309063
 30
0.0
 10
95.84866725
 20
110.3722508994
 30
0.0
  0
SPLINE
  5
673
100
AcDbEntity
  8
0
100
AcDbSpline
 62
7
  6
CONTINUOUS
 70
0
 71
3
 72
8
 73
4
 74
0
 42
0.0000001
 43
0.0000001
 44
0.0000000001
 40
0.0
 40
0.0
 40
0.0
 40
0.0
 40
1.0
 40
1.0
 40
1.0
 40
1.0
 10
95.4705228728
 20
108.7633427453
 30
0.0
 10
95.5016086094
 20
108.626776721
 30
0.0
 10
95.6323202365
 20
108.5445374806
 30
0.0
 10
95.7688863538
 20
108.5756232384
 30
0.0
  0
SPLINE
  5
674
100
AcDbEntity
  8
0
100
AcDbSpline
 62
7
  6
CONTINUOUS
 70
0
 71
3
 72
8
 73
4
 74
0
 42
0.0000001
 43
0.0000001
 44
0.0000000001
 40
0.0
 40
0.0
 40
0.0
 40
0.0
 40
1.0
 40
1.0
 40
1.0
 40
1.0
 10
97.0977910668
 20
108.1989344376
 30
0.0
 10
97.2326602278
 20
108.2367091838
 30
0.0
 10
97.3083609654
 20
108.3713128522
 30
0.0
 10
97.2705862385
 20
108.5061819444
 30
0.0
  0
SPLINE
  5
675
100
AcDbEntity
  8
0
100
AcDbSpline
 62
7
  6
CONTINUOUS
 70
0
 71
3
 72
8
 73
4
 74
0
 42
0.0000001
 43
0.0000001
 44
0.0000000001
 40
0.0
 40
0.0
 40
0.0
 40
0.0
 40
1.0
 40
1.0
 40
1.0
 40
1.0
 10
97.3483703717
 20
107.3607835488
 30
0.0
 10
97.3752257756
 20
107.2871919247
 30
0.0
 10
97.3643501424
 20
107.2200478196
 30
0.0
 10
97.3161916313
 20
107.1574039846
 30
0.0
  0
SPLINE
  5
676
100
AcDbEntity
  8
0
100
AcDbSpline
 62
7
  6
CONTINUOUS
 70
0
 71
3
 72
8
 73
4
 74
0
 42
0.0000001
 43
0.0000001
 44
0.0000000001
 40
0.0
 40
0.0
 40
0.0
 40
0.0
 40
1.0
 40
1.0
 40
1.0
 40
1.0
 10
97.3161916313
 20
107.1574039846
 30
0.0
 10
97.2752433762
 20
107.1041391374
 30
0.0
 10
97.2170825883
 20
107.0626987257
 30
0.0
 10
97.139031201
 20
107.0342158439
 30
0.0
  0
SPLINE
  5
677
100
AcDbEntity
  8
0
100
AcDbSpline
 62
7
  6
CONTINUOUS
 70
0
 71
3
 72
8
 73
4
 74
0
 42
0.0000001
 43
0.0000001
 44
0.0000000001
 40
0.0
 40
0.0
 40
0.0
 40
0.0
 40
1.0
 40
1.0
 40
1.0
 40
1.0
 10
97.139031201
 20
107.0342158439
 30
0.0
 10
97.0587497754
 20
107.004919166
 30
0.0
 10
96.9839220132
 20
106.9953017537
 30
0.0
 10
96.9137529126
 20
107.0077000917
 30
0.0
  0
SPLINE
  5
678
100
AcDbEntity
  8
0
100
AcDbSpline
 62
7
  6
CONTINUOUS
 70
0
 71
3
 72
8
 73
4
 74
0
 42
0.0000001
 43
0.0000001
 44
0.0000000001
 40
0.0
 40
0.0
 40
0.0
 40
0.0
 40
1.0
 40
1.0
 40
1.0
 40
1.0
 10
96.9137529126
 20
107.0077000917
 30
0.0
 10
96.829954509
 20
107.0225066223
 30
0.0
 10
96.775345144
 20
107.0682806445
 30
0.0
 10
96.7476759439
 20
107.144102307
 30
0.0
  0
SPLINE
  5
679
100
AcDbEntity
  8
0
100
AcDbSpline
 62
7
  6
CONTINUOUS
 70
0
 71
3
 72
8
 73
4
 74
0
 42
0.0000001
 43
0.0000001
 44
0.0000000001
 40
0.0
 40
0.0
 40
0.0
 40
0.0
 40
1.0
 40
1.0
 40
1.0
 40
1.0
 10
96.7476759439
 20
107.144102307
 30
0.0
 10
96.7053585439
 20
107.2600643016
 30
0.0
 10
96.7721649713
 20
107.3678350386
 30
0.0
 10
96.890357049
 20
107.4109662511
 30
0.0
  0
SPLINE
  5
67A
100
AcDbEntity
  8
0
100
AcDbSpline
 62
7
  6
CONTINUOUS
 70
0
 71
3
 72
8
 73
4
 74
0
 42
0.0000001
 43
0.0000001
 44
0.0000000001
 40
0.0
 40
0.0
 40
0.0
 40
0.0
 40
1.0
 40
1.0
 40
1.0
 40
1.0
 10
97.0509199003
 20
107.469559607
 30
0.0
 10
97.2025625758
 20
107.5248977701
 30
0.0
 10
97.3019839908
 20
107.4878957352
 30
0.0
 10
97.3483703717
 20
107.3607835488
 30
0.0
  0
SPLINE
  5
67B
100
AcDbEntity
  8
0
100
AcDbSpline
 62
7
  6
CONTINUOUS
 70
0
 71
3
 72
8
 73
4
 74
0
 42
0.0000001
 43
0.0000001
 44
0.0000000001
 40
0.0
 40
0.0
 40
0.0
 40
0.0
 40
1.0
 40
1.0
 40
1.0
 40
1.0
 10
96.5604593794
 20
107.338591673
 30
0.0
 10
96.4831052062
 20
107.2320258281
 30
0.0
 10
96.4676213548
 20
107.1151868288
 30
0.0
 10
96.517263051
 20
106.9791541307
 30
0.0
  0
SPLINE
  5
67C
100
AcDbEntity
  8
0
100
AcDbSpline
 62
7
  6
CONTINUOUS
 70
0
 71
3
 72
8
 73
4
 74
0
 42
0.0000001
 43
0.0000001
 44
0.0000000001
 40
0.0
 40
0.0
 40
0.0
 40
0.0
 40
1.0
 40
1.0
 40
1.0
 40
1.0
 10
96.517263051
 20
106.9791541307
 30
0.0
 10
96.5726011896
 20
106.8275115224
 30
0.0
 10
96.6775710137
 20
106.726831909
 30
0.0
 10
96.8301902654
 20
106.6770682792
 30
0.0
  0
SPLINE
  5
67D
100
AcDbEntity
  8
0
100
AcDbSpline
 62
7
  6
CONTINUOUS
 70
0
 71
3
 72
8
 73
4
 74
0
 42
0.0000001
 43
0.0000001
 44
0.0000000001
 40
0.0
 40
0.0
 40
0.0
 40
0.0
 40
1.0
 40
1.0
 40
1.0
 40
1.0
 10
96.8301902654
 20
106.6770682792
 30
0.0
 10
96.9701387977
 20
106.6314361136
 30
0.0
 10
97.1171732325
 20
106.6370793744
 30
0.0
 10
97.2732759623
 20
106.6940451216
 30
0.0
  0
SPLINE
  5
67E
100
AcDbEntity
  8
0
100
AcDbSpline
 62
7
  6
CONTINUOUS
 70
0
 71
3
 72
8
 73
4
 74
0
 42
0.0000001
 43
0.0000001
 44
0.0000000001
 40
0.0
 40
0.0
 40
0.0
 40
0.0
 40
1.0
 40
1.0
 40
1.0
 40
1.0
 10
97.2732759623
 20
106.6940451216
 30
0.0
 10
97.4204585835
 20
106.7477557005
 30
0.0
 10
97.5284624071
 20
106.8326551958
 30
0.0
 10
97.599818839
 20
106.9476439397
 30
0.0
  0
SPLINE
  5
67F
100
AcDbEntity
  8
0
100
AcDbSpline
 62
7
  6
CONTINUOUS
 70
0
 71
3
 72
8
 73
4
 74
0
 42
0.0000001
 43
0.0000001
 44
0.0000000001
 40
0.0
 40
0.0
 40
0.0
 40
0.0
 40
1.0
 40
1.0
 40
1.0
 40
1.0
 10
97.599818839
 20
106.9476439397
 30
0.0
 10
97.6764489614
 20
107.0711310771
 30
0.0
 10
97.6884663018
 20
107.2043941497
 30
0.0
 10
97.6355695517
 20
107.3493466429
 30
0.0
  0
SPLINE
  5
680
100
AcDbEntity
  8
0
100
AcDbSpline
 62
7
  6
CONTINUOUS
 70
0
 71
3
 72
8
 73
4
 74
0
 42
0.0000001
 43
0.0000001
 44
0.0000000001
 40
0.0
 40
0.0
 40
0.0
 40
0.0
 40
1.0
 40
1.0
 40
1.0
 40
1.0
 10
97.6355695517
 20
107.3493466429
 30
0.0
 10
97.5891830401
 20
107.4764591876
 30
0.0
 10
97.50654518
 20
107.5574911474
 30
0.0
 10
97.387655849
 20
107.5924428836
 30
0.0
  0
SPLINE
  5
681
100
AcDbEntity
  8
0
100
AcDbSpline
 62
7
  6
CONTINUOUS
 70
0
 71
3
 72
8
 73
4
 74
0
 42
0.0000001
 43
0.0000001
 44
0.0000000001
 40
0.0
 40
0.0
 40
0.0
 40
0.0
 40
1.0
 40
1.0
 40
1.0
 40
1.0
 10
97.4551594738
 20
107.6221306514
 30
0.0
 10
97.6469428677
 20
107.6921171554
 30
0.0
 10
97.7770139891
 20
107.6334487914
 30
0.0
 10
97.8461867931
 20
107.4438951727
 30
0.0
  0
SPLINE
  5
682
100
AcDbEntity
  8
0
100
AcDbSpline
 62
7
  6
CONTINUOUS
 70
0
 71
3
 72
8
 73
4
 74
0
 42
0.0000001
 43
0.0000001
 44
0.0000000001
 40
0.0
 40
0.0
 40
0.0
 40
0.0
 40
1.0
 40
1.0
 40
1.0
 40
1.0
 10
97.8461867931
 20
107.4438951727
 30
0.0
 10
97.8885041931
 20
107.3279331781
 30
0.0
 10
97.8999921521
 20
107.2133558215
 30
0.0
 10
97.8792343943
 20
107.097119256
 30
0.0
  0
SPLINE
  5
683
100
AcDbEntity
  8
0
100
AcDbSpline
 62
7
  6
CONTINUOUS
 70
0
 71
3
 72
8
 73
4
 74
0
 42
0.0000001
 43
0.0000001
 44
0.0000000001
 40
0.0
 40
0.0
 40
0.0
 40
0.0
 40
1.0
 40
1.0
 40
1.0
 40
1.0
 10
98.1623328515
 20
107.1246185042
 30
0.0
 10
98.1814630283
 20
107.2453151505
 30
0.0
 10
98.1602095154
 20
107.3866529674
 30
0.0
 10
98.1016161922
 20
107.5472157291
 30
0.0
  0
SPLINE
  5
684
100
AcDbEntity
  8
0
100
AcDbSpline
 62
7
  6
CONTINUOUS
 70
0
 71
3
 72
8
 73
4
 74
0
 42
0.0000001
 43
0.0000001
 44
0.0000000001
 40
0.0
 40
0.0
 40
0.0
 40
0.0
 40
1.0
 40
1.0
 40
1.0
 40
1.0
 10
98.1016161922
 20
107.5472157291
 30
0.0
 10
97.9486223843
 20
107.9664632986
 30
0.0
 10
97.676516131
 20
108.0819610761
 30
0.0
 10
97.2550386688
 20
107.9281535252
 30
0.0
  0
SPLINE
  5
685
100
AcDbEntity
  8
0
100
AcDbSpline
 62
7
  6
CONTINUOUS
 70
0
 71
3
 72
8
 73
4
 74
0
 42
0.0000001
 43
0.0000001
 44
0.0000000001
 40
0.0
 40
0.0
 40
0.0
 40
0.0
 40
1.0
 40
1.0
 40
1.0
 40
1.0
 10
96.6484679557
 20
107.7068008688
 30
0.0
 10
96.5258157565
 20
107.6620420476
 30
0.0
 10
96.4179601192
 20
107.6252098705
 30
0.0
 10
96.3196269918
 20
107.5969067182
 30
0.0
  0
SPLINE
  5
686
100
AcDbEntity
  8
0
100
AcDbSpline
 62
7
  6
CONTINUOUS
 70
0
 71
3
 72
8
 73
4
 74
0
 42
0.0000001
 43
0.0000001
 44
0.0000000001
 40
0.0
 40
0.0
 40
0.0
 40
0.0
 40
1.0
 40
1.0
 40
1.0
 40
1.0
 10
97.2487996443
 20
105.8667277665
 30
0.0
 10
97.1920781955
 20
105.9843269433
 30
0.0
 10
97.253080484
 20
106.0928178503
 30
0.0
 10
97.3728178707
 20
106.1505706188
 30
0.0
  0
SPLINE
  5
687
100
AcDbEntity
  8
0
100
AcDbSpline
 62
7
  6
CONTINUOUS
 70
0
 71
3
 72
8
 73
4
 74
0
 42
0.0000001
 43
0.0000001
 44
0.0000000001
 40
0.0
 40
0.0
 40
0.0
 40
0.0
 40
1.0
 40
1.0
 40
1.0
 40
1.0
 10
97.5584517858
 20
105.7657004136
 30
0.0
 10
97.4314953057
 20
105.722914813
 30
0.0
 10
97.305521093
 20
105.7491285896
 30
0.0
 10
97.2487996443
 20
105.8667277665
 30
0.0
  0
SPLINE
  5
688
100
AcDbEntity
  8
0
100
AcDbSpline
 62
7
  6
CONTINUOUS
 70
0
 71
3
 72
8
 73
4
 74
0
 42
0.0000001
 43
0.0000001
 44
0.0000000001
 40
0.0
 40
0.0
 40
0.0
 40
0.0
 40
1.0
 40
1.0
 40
1.0
 40
1.0
 10
97.0078832533
 20
106.2016062933
 30
0.0
 10
96.9480291509
 20
106.0695558931
 30
0.0
 10
96.952403379
 20
105.9293435336
 30
0.0
 10
97.0245943137
 20
105.779671854
 30
0.0
  0
SPLINE
  5
689
100
AcDbEntity
  8
0
100
AcDbSpline
 62
7
  6
CONTINUOUS
 70
0
 71
3
 72
8
 73
4
 74
0
 42
0.0000001
 43
0.0000001
 44
0.0000000001
 40
0.0
 40
0.0
 40
0.0
 40
0.0
 40
1.0
 40
1.0
 40
1.0
 40
1.0
 10
97.0245943137
 20
105.779671854
 30
0.0
 10
97.1009105277
 20
105.6214473351
 30
0.0
 10
97.2162426431
 20
105.5189398007
 30
0.0
 10
97.3693305051
 20
105.4735224129
 30
0.0
  0
SPLINE
  5
68A
100
AcDbEntity
  8
0
100
AcDbSpline
 62
7
  6
CONTINUOUS
 70
0
 71
3
 72
8
 73
4
 74
0
 42
0.0000001
 43
0.0000001
 44
0.0000000001
 40
0.0
 40
0.0
 40
0.0
 40
0.0
 40
1.0
 40
1.0
 40
1.0
 40
1.0
 10
97.3693305051
 20
105.4735224129
 30
0.0
 10
97.5207382493
 20
105.4286034746
 30
0.0
 10
97.6770245986
 20
105.4433660281
 30
0.0
 10
97.8373871554
 20
105.520713479
 30
0.0
  0
SPLINE
  5
68B
100
AcDbEntity
  8
0
100
AcDbSpline
 62
7
  6
CONTINUOUS
 70
0
 71
3
 72
8
 73
4
 74
0
 42
0.0000001
 43
0.0000001
 44
0.0000000001
 40
0.0
 40
0.0
 40
0.0
 40
0.0
 40
1.0
 40
1.0
 40
1.0
 40
1.0
 10
97.8373871554
 20
105.520713479
 30
0.0
 10
98.1794940236
 20
105.6857214128
 30
0.0
 10
98.2687991472
 20
105.9923552325
 30
0.0
 10
98.1027599144
 20
106.3366002675
 30
0.0
  0
SPLINE
  5
68C
100
AcDbEntity
  8
0
100
AcDbSpline
 62
7
  6
CONTINUOUS
 70
0
 71
3
 72
8
 73
4
 74
0
 42
0.0000001
 43
0.0000001
 44
0.0000000001
 40
0.0
 40
0.0
 40
0.0
 40
0.0
 40
1.0
 40
1.0
 40
1.0
 40
1.0
 10
98.1027599144
 20
106.3366002675
 30
0.0
 10
98.0316002787
 20
106.4841337803
 30
0.0
 10
97.9493718715
 20
106.5999728005
 30
0.0
 10
97.8539366918
 20
106.6830856855
 30
0.0
  0
SPLINE
  5
68D
100
AcDbEntity
  8
0
100
AcDbSpline
 62
7
  6
CONTINUOUS
 70
0
 71
3
 72
8
 73
4
 74
0
 42
0.0000001
 43
0.0000001
 44
0.0000000001
 40
0.0
 40
0.0
 40
0.0
 40
0.0
 40
1.0
 40
1.0
 40
1.0
 40
1.0
 10
97.65433138
 20
106.5340984926
 30
0.0
 10
97.7265489992
 20
106.460871849
 30
0.0
 10
97.7879247081
 20
106.3718732623
 30
0.0
 10
97.8384583625
 20
106.2671030866
 30
0.0
  0
SPLINE
  5
68E
100
AcDbEntity
  8
0
100
AcDbSpline
 62
7
  6
CONTINUOUS
 70
0
 71
3
 72
8
 73
4
 74
0
 42
0.0000001
 43
0.0000001
 44
0.0000000001
 40
0.0
 40
0.0
 40
0.0
 40
0.0
 40
1.0
 40
1.0
 40
1.0
 40
1.0
 10
97.8384583625
 20
106.2671030866
 30
0.0
 10
97.8745538298
 20
106.1922672467
 30
0.0
 10
97.8905256339
 20
106.1209031477
 30
0.0
 10
97.8866716841
 20
106.0541697106
 30
0.0
  0
SPLINE
  5
68F
100
AcDbEntity
  8
0
100
AcDbSpline
 62
7
  6
CONTINUOUS
 70
0
 71
3
 72
8
 73
4
 74
0
 42
0.0000001
 43
0.0000001
 44
0.0000000001
 40
0.0
 40
0.0
 40
0.0
 40
0.0
 40
1.0
 40
1.0
 40
1.0
 40
1.0
 10
97.8866716841
 20
106.0541697106
 30
0.0
 10
97.882070818
 20
105.9745029731
 30
0.0
 10
97.8472555771
 20
105.9155411155
 30
0.0
 10
97.7797899253
 20
105.875093725
 30
0.0
  0
SPLINE
  5
690
100
AcDbEntity
  8
0
100
AcDbSpline
 62
7
  6
CONTINUOUS
 70
0
 71
3
 72
8
 73
4
 74
0
 42
0.0000001
 43
0.0000001
 44
0.0000000001
 40
0.0
 40
0.0
 40
0.0
 40
0.0
 40
1.0
 40
1.0
 40
1.0
 40
1.0
 10
97.454930553
 20
106.548616627
 30
0.0
 10
97.4090733188
 20
106.5344051462
 30
0.0
 10
97.3642473407
 20
106.5180554778
 30
0.0
 10
97.3214840036
 20
106.4974294965
 30
0.0
  0
SPLINE
  5
691
100
AcDbEntity
  8
0
100
AcDbSpline
 62
7
  6
CONTINUOUS
 70
0
 71
3
 72
8
 73
4
 74
0
 42
0.0000001
 43
0.0000001
 44
0.0000000001
 40
0.0
 40
0.0
 40
0.0
 40
0.0
 40
1.0
 40
1.0
 40
1.0
 40
1.0
 10
97.3214840036
 20
106.4974294965
 30
0.0
 10
97.1696740712
 20
106.4242072212
 30
0.0
 10
97.0642236911
 20
106.3259048305
 30
0.0
 10
97.0078832533
 20
106.2016062933
 30
0.0
  0
SPLINE
  5
692
100
AcDbEntity
  8
0
100
AcDbSpline
 62
7
  6
CONTINUOUS
 70
0
 71
3
 72
8
 73
4
 74
0
 42
0.0000001
 43
0.0000001
 44
0.0000000001
 40
0.0
 40
0.0
 40
0.0
 40
0.0
 40
1.0
 40
1.0
 40
1.0
 40
1.0
 10
97.0664715598
 20
104.6307735931
 30
0.0
 10
97.1363709585
 20
104.5094034864
 30
0.0
 10
97.285496234
 20
104.4692738092
 30
0.0
 10
97.4068663408
 20
104.5391732078
 30
0.0
  0
SPLINE
  5
693
100
AcDbEntity
  8
0
100
AcDbSpline
 62
7
  6
CONTINUOUS
 70
0
 71
3
 72
8
 73
4
 74
0
 42
0.0000001
 43
0.0000001
 44
0.0000000001
 40
0.0
 40
0.0
 40
0.0
 40
0.0
 40
1.0
 40
1.0
 40
1.0
 40
1.0
 10
98.322651828
 20
104.6162718163
 30
0.0
 10
98.3206640786
 20
104.5721597448
 30
0.0
 10
98.332346647
 20
104.4858866052
 30
0.0
 10
98.3588757292
 20
104.3522720282
 30
0.0
  0
SPLINE
  5
694
100
AcDbEntity
  8
0
100
AcDbSpline
 62
7
  6
CONTINUOUS
 70
0
 71
3
 72
8
 73
4
 74
0
 42
0.0000001
 43
0.0000001
 44
0.0000000001
 40
0.0
 40
0.0
 40
0.0
 40
0.0
 40
1.0
 40
1.0
 40
1.0
 40
1.0
 10
98.3588757292
 20
104.3522720282
 30
0.0
 10
98.3773333955
 20
104.2593093974
 30
0.0
 10
98.369321988
 20
104.2027027564
 30
0.0
 10
98.3357000311
 20
104.1803829019
 30
0.0
  0
SPLINE
  5
695
100
AcDbEntity
  8
0
100
AcDbSpline
 62
7
  6
CONTINUOUS
 70
0
 71
3
 72
8
 73
4
 74
0
 42
0.0000001
 43
0.0000001
 44
0.0000000001
 40
0.0
 40
0.0
 40
0.0
 40
0.0
 40
1.0
 40
1.0
 40
1.0
 40
1.0
 10
98.3357000311
 20
104.1803829019
 30
0.0
 10
98.2842781353
 20
104.1462466011
 30
0.0
 10
98.2336215073
 20
104.1667559582
 30
0.0
 10
98.1824171088
 20
104.2438887225
 30
0.0
  0
SPLINE
  5
696
100
AcDbEntity
  8
0
100
AcDbSpline
 62
7
  6
CONTINUOUS
 70
0
 71
3
 72
8
 73
4
 74
0
 42
0.0000001
 43
0.0000001
 44
0.0000000001
 40
0.0
 40
0.0
 40
0.0
 40
0.0
 40
1.0
 40
1.0
 40
1.0
 40
1.0
 10
98.1824171088
 20
104.2438887225
 30
0.0
 10
98.1364644408
 20
104.3131104381
 30
0.0
 10
98.1083116322
 20
104.3941485473
 30
0.0
 10
98.0966458564
 20
104.4889808252
 30
0.0
  0
SPLINE
  5
697
100
AcDbEntity
  8
0
100
AcDbSpline
 62
7
  6
CONTINUOUS
 70
0
 71
3
 72
8
 73
4
 74
0
 42
0.0000001
 43
0.0000001
 44
0.0000000001
 40
0.0
 40
0.0
 40
0.0
 40
0.0
 40
1.0
 40
1.0
 40
1.0
 40
1.0
 10
97.8568221312
 20
104.4038576232
 30
0.0
 10
97.8704490749
 20
104.3017790994
 30
0.0
 10
97.9097534475
 20
104.1996504359
 30
0.0
 10
97.9793389026
 20
104.0948290013
 30
0.0
  0
SPLINE
  5
698
100
AcDbEntity
  8
0
100
AcDbSpline
 62
7
  6
CONTINUOUS
 70
0
 71
3
 72
8
 73
4
 74
0
 42
0.0000001
 43
0.0000001
 44
0.0000000001
 40
0.0
 40
0.0
 40
0.0
 40
0.0
 40
1.0
 40
1.0
 40
1.0
 40
1.0
 10
97.9793389026
 20
104.0948290013
 30
0.0
 10
98.0489243578
 20
103.9900075666
 30
0.0
 10
98.1350302061
 20
103.9160985714
 30
0.0
 10
98.2351886662
 20
103.8774695879
 30
0.0
  0
SPLINE
  5
699
100
AcDbEntity
  8
0
100
AcDbSpline
 62
7
  6
CONTINUOUS
 70
0
 71
3
 72
8
 73
4
 74
0
 42
0.0000001
 43
0.0000001
 44
0.0000000001
 40
0.0
 40
0.0
 40
0.0
 40
0.0
 40
1.0
 40
1.0
 40
1.0
 40
1.0
 10
98.2351886662
 20
103.8774695879
 30
0.0
 10
98.3495066966
 20
103.8333795601
 30
0.0
 10
98.4581665437
 20
103.8456767721
 30
0.0
 10
98.5590324937
 20
103.9126363884
 30
0.0
  0
SPLINE
  5
69A
100
AcDbEntity
  8
0
100
AcDbSpline
 62
7
  6
CONTINUOUS
 70
0
 71
3
 72
8
 73
4
 74
0
 42
0.0000001
 43
0.0000001
 44
0.0000000001
 40
0.0
 40
0.0
 40
0.0
 40
0.0
 40
1.0
 40
1.0
 40
1.0
 40
1.0
 10
98.5590324937
 20
103.9126363884
 30
0.0
 10
98.6460540688
 20
103.97040545
 30
0.0
 10
98.6916429841
 20
104.0519578569
 30
0.0
 10
98.6933640738
 20
104.1579331708
 30
0.0
  0
SPLINE
  5
69B
100
AcDbEntity
  8
0
100
AcDbSpline
 62
7
  6
CONTINUOUS
 70
0
 71
3
 72
8
 73
4
 74
0
 42
0.0000001
 43
0.0000001
 44
0.0000000001
 40
0.0
 40
0.0
 40
0.0
 40
0.0
 40
1.0
 40
1.0
 40
1.0
 40
1.0
 10
98.6933640738
 20
104.1579331708
 30
0.0
 10
98.6938883833
 20
104.1902172835
 30
0.0
 10
98.6808928425
 20
104.2784681589
 30
0.0
 10
98.6537263684
 20
104.4205144423
 30
0.0
  0
SPLINE
  5
69C
100
AcDbEntity
  8
0
100
AcDbSpline
 62
7
  6
CONTINUOUS
 70
0
 71
3
 72
8
 73
4
 74
0
 42
0.0000001
 43
0.0000001
 44
0.0000000001
 40
0.0
 40
0.0
 40
0.0
 40
0.0
 40
1.0
 40
1.0
 40
1.0
 40
1.0
 10
98.6537263684
 20
104.4205144423
 30
0.0
 10
98.6359228073
 20
104.5136045383
 30
0.0
 10
98.6459119969
 20
104.5715241251
 30
0.0
 10
98.6834894979
 20
104.596469858
 30
0.0
  0
SPLINE
  5
69D
100
AcDbEntity
  8
0
100
AcDbSpline
 62
7
  6
CONTINUOUS
 70
0
 71
3
 72
8
 73
4
 74
0
 42
0.0000001
 43
0.0000001
 44
0.0000000001
 40
0.0
 40
0.0
 40
0.0
 40
0.0
 40
1.0
 40
1.0
 40
1.0
 40
1.0
 10
98.6834894979
 20
104.596469858
 30
0.0
 10
98.7368890963
 20
104.6319190519
 30
0.0
 10
98.7914845221
 20
104.6054764083
 30
0.0
 10
98.8479406511
 20
104.5204325953
 30
0.0
  0
SPLINE
  5
69E
100
AcDbEntity
  8
0
100
AcDbSpline
 62
7
  6
CONTINUOUS
 70
0
 71
3
 72
8
 73
4
 74
0
 42
0.0000001
 43
0.0000001
 44
0.0000000001
 40
0.0
 40
0.0
 40
0.0
 40
0.0
 40
1.0
 40
1.0
 40
1.0
 40
1.0
 10
98.8479406511
 20
104.5204325953
 30
0.0
 10
98.9109614564
 20
104.4254999517
 30
0.0
 10
98.944997372
 20
104.3227231851
 30
0.0
 10
98.9487354586
 20
104.2140800248
 30
0.0
  0
SPLINE
  5
69F
100
AcDbEntity
  8
0
100
AcDbSpline
 62
7
  6
CONTINUOUS
 70
0
 71
3
 72
8
 73
4
 74
0
 42
0.0000001
 43
0.0000001
 44
0.0000000001
 40
0.0
 40
0.0
 40
0.0
 40
0.0
 40
1.0
 40
1.0
 40
1.0
 40
1.0
 10
99.1977830676
 20
104.302477202
 30
0.0
 10
99.1868154924
 20
104.417718481
 30
0.0
 10
99.1409631875
 20
104.5382951242
 30
0.0
 10
99.0595613123
 20
104.6609164581
 30
0.0
  0
SPLINE
  5
6A0
100
AcDbEntity
  8
0
100
AcDbSpline
 62
7
  6
CONTINUOUS
 70
0
 71
3
 72
8
 73
4
 74
0
 42
0.0000001
 43
0.0000001
 44
0.0000000001
 40
0.0
 40
0.0
 40
0.0
 40
0.0
 40
1.0
 40
1.0
 40
1.0
 40
1.0
 10
99.0595613123
 20
104.6609164581
 30
0.0
 10
98.9820982614
 20
104.7776044657
 30
0.0
 10
98.8953443125
 20
104.8567818909
 30
0.0
 10
98.8016568519
 20
104.9005664596
 30
0.0
  0
SPLINE
  5
6A1
100
AcDbEntity
  8
0
100
AcDbSpline
 62
7
  6
CONTINUOUS
 70
0
 71
3
 72
8
 73
4
 74
0
 42
0.0000001
 43
0.0000001
 44
0.0000000001
 40
0.0
 40
0.0
 40
0.0
 40
0.0
 40
1.0
 40
1.0
 40
1.0
 40
1.0
 10
98.8016568519
 20
104.9005664596
 30
0.0
 10
98.6887956015
 20
104.9533118445
 30
0.0
 10
98.576845043
 20
104.9416794224
 30
0.0
 10
98.4680680641
 20
104.8694680888
 30
0.0
  0
SPLINE
  5
6A2
100
AcDbEntity
  8
0
100
AcDbSpline
 62
7
  6
CONTINUOUS
 70
0
 71
3
 72
8
 73
4
 74
0
 42
0.0000001
 43
0.0000001
 44
0.0000000001
 40
0.0
 40
0.0
 40
0.0
 40
0.0
 40
1.0
 40
1.0
 40
1.0
 40
1.0
 10
98.4680680641
 20
104.8694680888
 30
0.0
 10
98.3770909448
 20
104.8090731488
 30
0.0
 10
98.3275465318
 20
104.7248949229
 30
0.0
 10
98.322651828
 20
104.6162718163
 30
0.0
  0
ENDSEC
  0
SECTION
  2
OBJECTS
  0
DICTIONARY
  5
C
100
AcDbDictionary
280
0
281
1
  3
ACAD_GROUP
350
D
  3
ACAD_MLINESTYLE
350
17
  3
ACAD_LAYOUT
350
1A
  3
ACAD_PLOTSETTINGS
350
19
  3
ACAD_PLOTSTYLENAME
350
E
  0
DICTIONARY
  5
D
102
{ACAD_REACTORS
330
C
102
}
100
AcDbDictionary
280
0
281
1
  0
ACDBDICTIONARYWDFLT
  5
E
102
{ACAD_REACTORS
330
C
102
}
100
AcDbDictionary
281
1
  3
Normal
350
F
100
AcDbDictionaryWithDefault
340
F
  0
DICTIONARY
  5
17
102
{ACAD_REACTORS
330
C
102
}
100
AcDbDictionary
280
0
281
1
  3
Standard
350
18
  0
DICTIONARY
  5
19
102
{ACAD_REACTORS
330
C
102
}
100
AcDbDictionary
281
1
  0
DICTIONARY
  5
1A
102
{ACAD_REACTORS
330
C
102
}
100
AcDbDictionary
281
1
  3
Model
350
6A3
  3
Layout1
350
6A4
  0
ACDBPLACEHOLDER
  5
F
102
{ACAD_REACTORS
330
E
102
}
  0
MLINESTYLE
  5
18
102
{ACAD_REACTORS
330
17
102
}
100
AcDbMlineStyle
  2
STANDARD
 70
0
  3

 62
256
 51
90.0
 52
90.0
 71
2
 49
0.5
 62
256
  6
BYLAYER
 49
-0.5
 62
256
  6
BYLAYER
  0
LAYOUT
  5
6A3
102
{ACAD_REACTORS
330
1A
102
}
100
AcDbPlotSettings
  1

  2
none_device
  4
ISO_A4_(297.00_x_210.00_MM)
  6

 40
0.0
 41
0.0
 42
0.0
 43
0.0
 44
297.0
 45
210.0
 46
0.0
 47
0.0
 48
0.0
 49
0.0
140
0.0
141
0.0
142
1.0
143
1.0
 70
1024
 72
1
 73
0
 74
0
  7

 75
0
147
1.0
148
0.0
149
0.0
100
AcDbLayout
  1
Model
 70
0
 71
0
 10
0.0
 20
0.0
 11
297.0
 21
210.0
 12
0.0
 22
0.0
 32
0.0
 14
0.0
 24
0.0
 34
0.0
 15
0.0
 25
0.0
 35
0.0
146
0.0
 13
0.0
 23
0.0
 33
0.0
 16
1.0
 26
0.0
 36
0.0
 17
0.0
 27
1.0
 37
0.0
 76
0
330
212
345
0
346
0
  0
LAYOUT
  5
6A4
102
{ACAD_REACTORS
330
1A
102
}
100
AcDbPlotSettings
  1

  2
none_device
  4
ISO_A4_(297.00_x_210.00_MM)
  6

 40
0.0
 41
0.0
 42
0.0
 43
0.0
 44
297.0
 45
210.0
 46
0.0
 47
0.0
 48
0.0
 49
0.0
140
0.0
141
0.0
142
1.0
143
1.0
 70
0
 72
1
 73
0
 74
0
  7

 75
0
147
1.0
148
0.0
149
0.0
100
AcDbLayout
  1
Layout1
 70
0
 71
1
 10
0.0
 20
0.0
 11
297.0
 21
210.0
 12
0.0
 22
0.0
 32
0.0
 14
0.0
 24
0.0
 34
0.0
 15
0.0
 25
0.0
 35
0.0
146
0.0
 13
0.0
 23
0.0
 33
0.0
 16
1.0
 26
0.0
 36
0.0
 17
0.0
 27
1.0
 37
0.0
 76
0
330
213
345
0
346
0
  0
ENDSEC
  0
EOF
