999
DXF file: S10-Z06-RD1in.dxf
999
Pro/ENGINEER 2012230 by Parametric Technology Corporation
  0
SECTION
  2
HEADER
  9
$ACADVER
  1
AC1021
  9
$DWGCODEPAGE
  3
ANSI_1252
  9
$EXTMAX
 10
297.0
 20
210.0
 30
0.0
  9
$EXTMIN
 10
0.0
 20
0.0
 30
0.0
  9
$LIMMIN
 10
0.0
 20
0.0
  9
$LIMMAX
 10
297.0
 20
210.0
  9
$VIEWCTR
 10
148.5
 20
105.0
  9
$VIEWSIZE
 40
210.0
  9
$CLAYER
  8
0
  9
$LTSCALE
 40
16.335
  9
$CELTYPE
  6
BYLAYER
  9
$DIMSCALE
 40
1.0
  9
$DIMASZ
 40
3.5
  9
$DIMEXO
 40
0.0
  9
$DIMDLI
 40
11.286
  9
$DIMEXE
 40
1.5
  9
$DIMCEN
 40
2.673
  9
$DIMLFAC
 40
1.0
  9
$DIMBLK
  1
_FILLED
  9
$DIMTXT
 40
3.5
  9
$DIMTOL
 70
1
  9
$DIMLIM
 70
0
  9
$DIMTFAC
 40
1.0
  9
$DIMTP
 40
0.005
  9
$DIMTM
 40
0.005
  9
$DIMGAP
 40
0.625
  9
$DIMDSEP
 70
46
  9
$PDMODE
 70
3
  9
$PDSIZE
 40
0.3125
  9
$HANDSEED
  5
67E
  9
$TILEMODE
 70
1
  9
$MEASUREMENT
 70
1
  9
$INSUNITS
 70
4
  0
ENDSEC
  0
SECTION
  2
CLASSES
  0
CLASS
  1
ACDBDICTIONARYWDFLT
  2
AcDbDictionaryWithDefault
  3
AutoCAD 2000
 90
0
 91
1
280
0
281
0
  0
CLASS
  1
ACDBPLACEHOLDER
  2
AcDbPlaceHolder
  3
AutoCAD 2000
 90
0
 91
1
280
0
281
0
  0
CLASS
  1
LAYOUT
  2
AcDbLayout
  3
AutoCAD 2000
 90
0
 91
0
280
0
281
0
  0
ENDSEC
  0
SECTION
  2
TABLES
  0
TABLE
  2
VPORT
  5
8
100
AcDbSymbolTable
 70
2
  0
VPORT
  5
1F4
100
AcDbSymbolTableRecord
100
AcDbViewportTableRecord
  2
*ACTIVE
 70
0
 10
0.0
 20
0.0
 11
1.0
 21
1.0
 12
148.5
 22
105.0
 13
0.0
 23
0.0
 14
1.0
 24
1.0
 15
0.0
 25
0.0
 16
0.0
 26
0.0
 36
1.0
 17
0.0
 27
0.0
 37
0.0
 40
210.0
 41
1.4142857143
 42
50.0
 43
0.0
 44
0.0
 50
0.0
 51
0.0
 71
0
 72
100
 73
1
 74
1
 75
0
 76
0
 77
0
 78
0
  0
ENDTAB
  0
TABLE
  2
LTYPE
  5
5
100
AcDbSymbolTable
 70
6
  0
LTYPE
  5
14
100
AcDbSymbolTableRecord
100
AcDbLinetypeTableRecord
  2
BYBLOCK
 70
0
  3

 72
65
 73
0
 40
0.0
  0
LTYPE
  5
15
100
AcDbSymbolTableRecord
100
AcDbLinetypeTableRecord
  2
BYLAYER
 70
0
  3

 72
65
 73
0
 40
0.0
  0
LTYPE
  5
16
100
AcDbSymbolTableRecord
100
AcDbLinetypeTableRecord
  2
CONTINUOUS
 70
64
  3
Solid line
 72
65
 73
0
 40
0.0
  0
LTYPE
  5
1F5
100
AcDbSymbolTableRecord
100
AcDbLinetypeTableRecord
  2
CENTER
 70
64
  3
____ _ ____ _ ____ _ ____ _ ____ _ ____ _ ____
 72
65
 73
4
 40
0.6
 49
0.375
 74
0
 49
-0.075
 74
0
 49
0.075
 74
0
 49
-0.075
 74
0
  0
LTYPE
  5
1F6
100
AcDbSymbolTableRecord
100
AcDbLinetypeTableRecord
  2
HIDDEN
 70
64
  3
- - - - - - - - - - - - - - - - - - - -
 72
65
 73
2
 40
0.2
 49
0.1
 74
0
 49
-0.1
 74
0
  0
LTYPE
  5
1F7
100
AcDbSymbolTableRecord
100
AcDbLinetypeTableRecord
  2
PHANTOM
 70
64
  3
_____ _ _ _____ _ _ _____ _ _ _____
 72
65
 73
6
 40
0.8
 49
0.45
 74
0
 49
-0.05
 74
0
 49
0.1
 74
0
 49
-0.05
 74
0
 49
0.1
 74
0
 49
-0.05
 74
0
  0
LTYPE
  5
1F8
100
AcDbSymbolTableRecord
100
AcDbLinetypeTableRecord
  2
DOT
 70
64
  3
. . . . . . . . . . . . . . . . . . . .
 72
65
 73
2
 40
0.2
 49
0.1
 74
0
 49
-0.1
 74
0
  0
LTYPE
  5
1F9
100
AcDbSymbolTableRecord
100
AcDbLinetypeTableRecord
  2
DASHED
 70
64
  3
- - - - - - - - - - - - - - - - - - - -
 72
65
 73
2
 40
0.2
 49
0.1
 74
0
 49
-0.1
 74
0
  0
ENDTAB
  0
TABLE
  2
LAYER
  5
2
100
AcDbSymbolTable
 70
36
  0
LAYER
  5
10
100
AcDbSymbolTableRecord
100
AcDbLayerTableRecord
  2
0
 70
0
 62
7
  6
CONTINUOUS
370
-3
390
F
  0
LAYER
  5
1FA
100
AcDbSymbolTableRecord
100
AcDbLayerTableRecord
  2
DEFAULT_1
 70
0
 62
7
  6
CENTER
370
-3
390
F
  0
LAYER
  5
1FB
100
AcDbSymbolTableRecord
100
AcDbLayerTableRecord
  2
DEFAULT_2
 70
0
 62
8
  6
HIDDEN
370
-3
390
F
  0
LAYER
  5
1FC
100
AcDbSymbolTableRecord
100
AcDbLayerTableRecord
  2
DEFAULT_3
 70
0
 62
7
  6
PHANTOM
370
-3
390
F
  0
LAYER
  5
1FD
100
AcDbSymbolTableRecord
100
AcDbLayerTableRecord
  2
ALLE
 70
0
 62
7
  6
CONTINUOUS
370
-3
390
F
  0
LAYER
  5
1FE
100
AcDbSymbolTableRecord
100
AcDbLayerTableRecord
  2
AUSFORMSCHRAEGEN
 70
0
 62
7
  6
CONTINUOUS
370
-3
390
F
  0
LAYER
  5
1FF
100
AcDbSymbolTableRecord
100
AcDbLayerTableRecord
  2
BEZUGSACHSEN
 70
0
 62
7
  6
CONTINUOUS
370
-3
390
F
  0
LAYER
  5
200
100
AcDbSymbolTableRecord
100
AcDbLayerTableRecord
  2
BEZUGSEBENE
 70
0
 62
7
  6
CONTINUOUS
370
-3
390
F
  0
LAYER
  5
201
100
AcDbSymbolTableRecord
100
AcDbLayerTableRecord
  2
BEZUGSEBENEN
 70
0
 62
7
  6
CONTINUOUS
370
-3
390
F
  0
LAYER
  5
202
100
AcDbSymbolTableRecord
100
AcDbLayerTableRecord
  2
BEZUGSEBENEN-KES
 70
0
 62
7
  6
CONTINUOUS
370
-3
390
F
  0
LAYER
  5
203
100
AcDbSymbolTableRecord
100
AcDbLayerTableRecord
  2
BEZUGSPUNKT-KES
 70
0
 62
7
  6
CONTINUOUS
370
-3
390
F
  0
LAYER
  5
204
100
AcDbSymbolTableRecord
100
AcDbLayerTableRecord
  2
BEZUGSPUNKTE
 70
0
 62
7
  6
CONTINUOUS
370
-3
390
F
  0
LAYER
  5
205
100
AcDbSymbolTableRecord
100
AcDbLayerTableRecord
  2
BOHRUNGEN
 70
0
 62
7
  6
CONTINUOUS
370
-3
390
F
  0
LAYER
  5
206
100
AcDbSymbolTableRecord
100
AcDbLayerTableRecord
  2
FASEN
 70
0
 62
7
  6
CONTINUOUS
370
-3
390
F
  0
LAYER
  5
207
100
AcDbSymbolTableRecord
100
AcDbLayerTableRecord
  2
FLAECHEN
 70
0
 62
7
  6
CONTINUOUS
370
-3
390
F
  0
LAYER
  5
208
100
AcDbSymbolTableRecord
100
AcDbLayerTableRecord
  2
GESTEUERTE
 70
0
 62
7
  6
CONTINUOUS
370
-3
390
F
  0
LAYER
  5
209
100
AcDbSymbolTableRecord
100
AcDbLayerTableRecord
  2
GEWINDE
 70
0
 62
7
  6
CONTINUOUS
370
-3
390
F
  0
LAYER
  5
20A
100
AcDbSymbolTableRecord
100
AcDbLayerTableRecord
  2
KURVEN
 70
0
 62
7
  6
CONTINUOUS
370
-3
390
F
  0
LAYER
  5
20B
100
AcDbSymbolTableRecord
100
AcDbLayerTableRecord
  2
PARAMETER-BEMAßUNGEN
 70
0
 62
7
  6
CONTINUOUS
370
-3
390
F
  0
LAYER
  5
20C
100
AcDbSymbolTableRecord
100
AcDbLayerTableRecord
  2
RUNDUNGEN
 70
0
 62
7
  6
CONTINUOUS
370
-3
390
F
  0
LAYER
  5
20D
100
AcDbSymbolTableRecord
100
AcDbLayerTableRecord
  2
SAMMELFLÄCHEN
 70
0
 62
7
  6
CONTINUOUS
370
-3
390
F
  0
LAYER
  5
20E
100
AcDbSymbolTableRecord
100
AcDbLayerTableRecord
  2
ZEICHNUNGSBEMASSUNGEN
 70
0
 62
7
  6
CONTINUOUS
370
-3
390
F
  0
LAYER
  5
20F
100
AcDbSymbolTableRecord
100
AcDbLayerTableRecord
  2
ZEICHNUNGSNOTIZEN
 70
0
 62
7
  6
CONTINUOUS
370
-3
390
F
  0
ENDTAB
  0
TABLE
  2
STYLE
  5
3
100
AcDbSymbolTable
 70
1
  0
STYLE
  5
11
100
AcDbSymbolTableRecord
100
AcDbTextStyleTableRecord
  2
STANDARD
 70
0
 40
0.0
 41
0.7
 50
0.0
 71
0
 42
0.2
  3
txt
  4

  0
STYLE
  5
210
100
AcDbSymbolTableRecord
100
AcDbTextStyleTableRecord
  2
TEXTSTYLE_1
 70
0
 40
0.0
 41
0.8
 50
0.0
 71
0
 42
0.2
  3
gdt
  4

  0
ENDTAB
  0
TABLE
  2
VIEW
  5
6
100
AcDbSymbolTable
 70
0
  0
ENDTAB
  0
TABLE
  2
UCS
  5
7
100
AcDbSymbolTable
 70
0
  0
ENDTAB
  0
TABLE
  2
APPID
  5
9
100
AcDbSymbolTable
 70
1
  0
APPID
  5
211
100
AcDbSymbolTableRecord
100
AcDbRegAppTableRecord
  2
ACAD
 70
0
  0
ENDTAB
  0
TABLE
  2
BLOCK_RECORD
  5
1
100
AcDbSymbolTable
 70
0
  0
BLOCK_RECORD
  5
212
100
AcDbSymbolTableRecord
100
AcDbBlockTableRecord
  2
*Model_Space
  0
BLOCK_RECORD
  5
213
100
AcDbSymbolTableRecord
100
AcDbBlockTableRecord
  2
*Paper_Space
  0
ENDTAB
  0
TABLE
  2
DIMSTYLE
  5
A
100
AcDbSymbolTable
 70
1
100
AcDbDimStyleTable
 71
0
  0
DIMSTYLE
105
214
100
AcDbSymbolTableRecord
100
AcDbDimStyleTableRecord
  2
STANDARD
 70
0
  3

  4

 40
1.0
 41
3.5
 42
0.0
 43
0.38
 44
1.5
 45
0.0
 46
0.0
 47
0.005
 48
0.005
140
3.5
141
0.09
142
0.0
143
25.4
144
1.0
145
0.0
146
1.0
147
0.625
 71
1.0
 72
0.0
 73
0
 74
0
 75
0
 76
0
 77
1
 78
8
170
0
171
2
172
0
173
0
174
0
175
0
176
0
177
0
178
5
270
2
271
3
272
3
273
2
274
2
275
0
280
0
281
0
282
0
283
1
284
8
285
0
286
0
287
3
288
0
340
11
278
46
  0
ENDTAB
  0
ENDSEC
  0
SECTION
  2
BLOCKS
  0
BLOCK
  5
20
100
AcDbEntity
  8
0
100
AcDbBlockBegin
  2
*Model_Space
 70
0
 10
0.0
 20
0.0
 30
0.0
  3
*Model_Space
  1

  0
ENDBLK
  5
21
100
AcDbEntity
  8
0
100
AcDbBlockEnd
  0
BLOCK
  5
1C
100
AcDbEntity
  8
0
100
AcDbBlockBegin
  2
*Paper_Space
 70
0
 10
0.0
 20
0.0
 30
0.0
  3
*Paper_Space
  1

  0
ENDBLK
  5
1D
100
AcDbEntity
  8
0
100
AcDbBlockEnd
  0
ENDSEC
  0
SECTION
  2
ENTITIES
  0
HATCH
  5
215
100
AcDbEntity
  8
0
100
AcDbHatch
 62
2
  6
CONTINUOUS
 10
0.0
 20
0.0
 30
0.0
210
0.0
220
0.0
230
1.0
  2
E
 70
0
 71
0
 91
1
 92
1
 93
16
 72
1
 10
233.875
 20
128.05
 11
205.875
 21
128.05
 72
1
 10
205.875
 20
128.05
 11
205.875
 21
129.1874225238
 72
4
 94
3
 73
0
 74
0
 95
12
 96
8
 40
0.0
 40
0.0
 40
0.0
 40
0.0
 40
0.2
 40
0.4
 40
0.6
 40
0.8
 40
1.0
 40
1.0
 40
1.0
 40
1.0
 10
205.875
 20
129.1874225238
 10
205.8757672686
 20
129.2943255931
 10
205.9071176528
 20
129.49691327
 10
206.0493001428
 20
129.7800117815
 10
206.2695114278
 20
130.0037101471
 10
206.5503400185
 20
130.1503229561
 10
206.7524129462
 20
130.184852382
 10
206.8592926827
 20
130.1872991563
 72
1
 10
206.8592926827
 20
130.1872991563
 11
214.1883063503
 21
130.3024325033
 72
2
 10
214.1725616866
 20
131.302180414
 40
0.9998752341
 50
270.90225566
 51
337.1656079381
 73
1
 72
2
 10
217.675
 20
129.8272987214
 40
2.8
 50
101.9608631626
 51
157.1633881725
 73
1
 72
2
 10
216.8253016576
 20
133.8382851817
 40
1.3000001235
 50
281.9608627762
 51
359.0912740135
 73
1
 72
4
 94
3
 73
0
 74
0
 95
13
 96
9
 40
0.0
 40
0.0
 40
0.0
 40
0.0
 40
0.1666666667
 40
0.3333333333
 40
0.5
 40
0.6666666667
 40
0.8333333333
 40
1.0
 40
1.0
 40
1.0
 40
1.0
 10
218.1251383486
 20
133.8176677045
 10
218.1270866966
 20
133.9147483866
 10
218.1542194567
 20
134.1013372057
 10
218.2676180774
 20
134.3668196562
 10
218.4447423147
 20
134.5929507569
 10
218.6736537382
 20
134.7664674083
 10
218.9408994698
 20
134.8756423971
 10
219.1278983597
 20
134.8998132975
 10
219.225
 20
134.90022214
 72
1
 10
219.225
 20
134.90022214
 11
220.525
 21
134.90022214
 72
4
 94
3
 73
0
 74
0
 95
13
 96
9
 40
0.0
 40
0.0
 40
0.0
 40
0.0
 40
0.1666666667
 40
0.3333333333
 40
0.5
 40
0.6666666667
 40
0.8333333333
 40
1.0
 40
1.0
 40
1.0
 40
1.0
 10
220.525
 20
134.90022214
 10
220.6221011813
 20
134.8998133614
 10
220.8090993796
 20
134.8756426341
 10
221.0763451427
 20
134.76646803
 10
221.3052564942
 20
134.5929519219
 10
221.4823809206
 20
134.366821152
 10
221.5957799012
 20
134.1013399324
 10
221.6229130646
 20
133.9147495505
 10
221.6248616509
 20
133.8176677397
 72
2
 10
222.9246981444
 20
133.8382852669
 40
1.2999999981
 50
180.9087283248
 51
258.0391399538
 73
1
 72
2
 10
222.075
 20
129.8272987214
 40
2.8
 50
22.8366124087
 51
78.0391398948
 73
1
 72
2
 10
225.5774282787
 20
131.3021662139
 40
0.9998590262
 50
202.8338636363
 51
269.0983065617
 73
1
 72
1
 10
225.5616936511
 20
130.3024325032
 11
232.8907073173
 21
130.1872991563
 72
4
 94
3
 73
0
 74
0
 95
12
 96
8
 40
0.0
 40
0.0
 40
0.0
 40
0.0
 40
0.2
 40
0.4
 40
0.6
 40
0.8
 40
1.0
 40
1.0
 40
1.0
 40
1.0
 10
232.8907073173
 20
130.1872991563
 10
232.9975870538
 20
130.184852382
 10
233.1996599816
 20
130.1503229561
 10
233.4804885722
 20
130.0037101471
 10
233.7006998572
 20
129.7800117814
 10
233.8428823472
 20
129.49691327
 10
233.8742327314
 20
129.294325593
 10
233.875
 20
129.1874225238
 72
1
 10
233.875
 20
129.1874225238
 11
233.875
 21
128.05
 97
0
 75
0
 76
0
 52
45.0
 41
3.3462437633
 77
0
 78
1
 53
45.0
 43
0.0
 44
0.0
 45
-2.3661516566
 46
2.3661516566
 79
0
 98
1
 10
0.0
 20
0.0
  0
LINE
  5
216
100
AcDbEntity
  8
0
100
AcDbLine
 62
7
  6
CONTINUOUS
 10
0.0
 20
0.0
 11
0.0
 21
210.0
  0
LINE
  5
217
100
AcDbEntity
  8
0
100
AcDbLine
 62
7
  6
CONTINUOUS
 10
0.0
 20
0.0
 11
297.0
 21
0.0
  0
LINE
  5
218
100
AcDbEntity
  8
0
100
AcDbLine
 62
7
  6
CONTINUOUS
 10
0.0
 20
210.0
 11
297.0
 21
210.0
  0
LINE
  5
219
100
AcDbEntity
  8
0
100
AcDbLine
 62
7
  6
CONTINUOUS
 10
297.0
 20
0.0
 11
297.0
 21
210.0
  0
LINE
  5
21A
100
AcDbEntity
  8
RUNDUNGEN
100
AcDbLine
 62
7
  6
CONTINUOUS
 10
86.6630726946
 20
116.5575097419
 11
86.6630726946
 21
115.7715552085
  0
LINE
  5
21B
100
AcDbEntity
  8
RUNDUNGEN
100
AcDbLine
 62
7
  6
CONTINUOUS
 10
86.6630726946
 20
108.2284447915
 11
86.6630726946
 21
107.4424902581
  0
LINE
  5
21C
100
AcDbEntity
  8
RUNDUNGEN
100
AcDbLine
 62
7
  6
CONTINUOUS
 10
86.7643726392
 20
107.4424902581
 11
86.7643726392
 21
108.2284447915
  0
LINE
  5
21D
100
AcDbEntity
  8
RUNDUNGEN
100
AcDbLine
 62
7
  6
CONTINUOUS
 10
86.7643726392
 20
115.7715552085
 11
86.7643726392
 21
116.5575097419
  0
LINE
  5
21E
100
AcDbEntity
  8
RUNDUNGEN
100
AcDbLine
 62
7
  6
CONTINUOUS
 10
102.2784555618
 20
134.4891267637
 11
101.5977989697
 21
134.096149497
  0
LINE
  5
21F
100
AcDbEntity
  8
RUNDUNGEN
100
AcDbLine
 62
7
  6
CONTINUOUS
 10
95.0652737249
 20
130.3245942884
 11
94.3846171328
 21
129.9316170218
  0
LINE
  5
220
100
AcDbEntity
  8
RUNDUNGEN
100
AcDbLine
 62
7
  6
CONTINUOUS
 10
94.4352671051
 20
129.8438886964
 11
95.1159236972
 21
130.2368659631
  0
LINE
  5
221
100
AcDbEntity
  8
RUNDUNGEN
100
AcDbLine
 62
7
  6
CONTINUOUS
 10
101.648448942
 20
134.0084211716
 11
102.3291055341
 21
134.4013984383
  0
LINE
  5
222
100
AcDbEntity
  8
RUNDUNGEN
100
AcDbLine
 62
7
  6
CONTINUOUS
 10
94.3846171328
 20
94.0683829782
 11
95.0652737249
 21
93.6754057116
  0
LINE
  5
223
100
AcDbEntity
  8
RUNDUNGEN
100
AcDbLine
 62
7
  6
CONTINUOUS
 10
101.5977989697
 20
89.903850503
 11
102.2784555618
 21
89.5108732363
  0
LINE
  5
224
100
AcDbEntity
  8
RUNDUNGEN
100
AcDbLine
 62
7
  6
CONTINUOUS
 10
102.3291055341
 20
89.5986015617
 11
101.648448942
 21
89.9915788284
  0
LINE
  5
225
100
AcDbEntity
  8
RUNDUNGEN
100
AcDbLine
 62
7
  6
CONTINUOUS
 10
95.1159236972
 20
93.7631340369
 11
94.4352671051
 21
94.1561113036
  0
LINE
  5
226
100
AcDbEntity
  8
RUNDUNGEN
100
AcDbLine
 62
7
  6
CONTINUOUS
 10
93.0873091874
 20
125.0802319894
 11
93.8918511003
 21
128.2098690672
  0
LINE
  5
227
100
AcDbEntity
  8
RUNDUNGEN
100
AcDbLine
 62
7
  6
CONTINUOUS
 10
87.9077667764
 20
117.8451312594
 11
90.2158414035
 21
120.1067038953
  0
LINE
  5
228
100
AcDbEntity
  8
RUNDUNGEN
100
AcDbLine
 62
7
  6
CONTINUOUS
 10
107.1285322161
 20
90.8130641152
 11
104.015916046
 21
89.9449993114
  0
LINE
  5
229
100
AcDbEntity
  8
RUNDUNGEN
100
AcDbLine
 62
7
  6
CONTINUOUS
 10
115.9840844527
 20
89.9449991723
 11
112.8714677839
 21
90.8130641152
  0
LINE
  5
22A
100
AcDbEntity
  8
RUNDUNGEN
100
AcDbLine
 62
7
  6
CONTINUOUS
 10
90.2158414035
 20
103.8932961047
 11
87.9077671463
 21
106.1548683782
  0
LINE
  5
22B
100
AcDbEntity
  8
RUNDUNGEN
100
AcDbLine
 62
7
  6
CONTINUOUS
 10
93.8918512291
 20
95.7901304317
 11
93.0873091874
 21
98.9197680106
  0
LWPOLYLINE
  5
22C
100
AcDbEntity
  8
RUNDUNGEN
100
AcDbPolyline
 62
7
  6
CONTINUOUS
 90
4
 70
0
 10
93.9178996085
 20
95.6444423289
 10
93.931186984
 20
95.4893343571
 10
93.9293742357
 20
95.3338153599
 10
93.9125105655
 20
95.1794213879
  0
LINE
  5
22D
100
AcDbEntity
  8
RUNDUNGEN
100
AcDbLine
 62
7
  6
CONTINUOUS
 10
87.9052247521
 20
117.8434607318
 11
87.794621368
 21
117.7497286497
  0
LWPOLYLINE
  5
22E
100
AcDbEntity
  8
RUNDUNGEN
100
AcDbPolyline
 62
7
  6
CONTINUOUS
 90
4
 70
0
 10
87.794621368
 20
117.7497286497
 10
87.6669376118
 20
117.6606674591
 10
87.5313478354
 20
117.5844778466
 10
87.3892068983
 20
117.5218852274
  0
LINE
  5
22F
100
AcDbEntity
  8
RUNDUNGEN
100
AcDbLine
 62
7
  6
CONTINUOUS
 10
115.9868021842
 20
89.9436329785
 11
116.1232782404
 21
89.8947136792
  0
LWPOLYLINE
  5
230
100
AcDbEntity
  8
RUNDUNGEN
100
AcDbPolyline
 62
7
  6
CONTINUOUS
 90
5
 70
0
 10
116.1232782404
 20
89.8947136792
 10
116.2642493722
 20
89.828666898
 10
116.3980264003
 20
89.7493375134
 10
116.5233036671
 20
89.6575361606
 10
116.5547456889
 20
89.6313926315
  0
LINE
  5
231
100
AcDbEntity
  8
RUNDUNGEN
100
AcDbLine
 62
7
  6
CONTINUOUS
 10
87.7864663511
 20
106.2565291784
 11
87.9050826779
 21
106.1566710906
  0
LINE
  5
232
100
AcDbEntity
  8
RUNDUNGEN
100
AcDbLine
 62
7
  6
CONTINUOUS
 10
93.8920269363
 20
95.7870937103
 11
93.9178996085
 21
95.6444423289
  0
LINE
  5
233
100
AcDbEntity
  8
0
100
AcDbLine
 62
7
  6
CONTINUOUS
 10
96.0877326849
 20
117.2970071059
 11
95.9634363809
 21
116.9582605715
  0
LINE
  5
234
100
AcDbEntity
  8
0
100
AcDbLine
 62
7
  6
CONTINUOUS
 10
96.3655303961
 20
117.975843434
 11
96.321984176
 21
117.8731200327
  0
LINE
  5
235
100
AcDbEntity
  8
0
100
AcDbLine
 62
7
  6
CONTINUOUS
 10
96.5569126603
 20
117.5027995996
 11
96.6977434707
 21
117.8350125864
  0
LINE
  5
236
100
AcDbEntity
  8
0
100
AcDbLine
 62
7
  6
CONTINUOUS
 10
97.47641414
 20
120.0491396582
 11
97.2766982224
 21
119.7486195457
  0
LINE
  5
237
100
AcDbEntity
  8
0
100
AcDbLine
 62
7
  6
CONTINUOUS
 10
97.0107889783
 20
104.7274582712
 11
97.0664715598
 21
104.6307735931
  0
LINE
  5
238
100
AcDbEntity
  8
0
100
AcDbLine
 62
7
  6
CONTINUOUS
 10
97.5035509362
 20
104.5948557417
 11
97.3234711569
 21
104.9075380029
  0
LINE
  5
239
100
AcDbEntity
  8
0
100
AcDbLine
 62
7
  6
CONTINUOUS
 10
95.6174928321
 20
108.1590426073
 11
95.7148107725
 21
107.8115832511
  0
LINE
  5
23A
100
AcDbEntity
  8
0
100
AcDbLine
 62
7
  6
CONTINUOUS
 10
95.4457596589
 20
108.8721326291
 11
95.4705228728
 21
108.7633427453
  0
LINE
  5
23B
100
AcDbEntity
  8
0
100
AcDbLine
 62
7
  6
CONTINUOUS
 10
95.8776762376
 20
108.6003864523
 11
95.7975908654
 21
108.9522179378
  0
LINE
  5
23C
100
AcDbEntity
  8
0
100
AcDbLine
 62
7
  6
CONTINUOUS
 10
95.6278405539
 20
111.9661979582
 11
95.6410378439
 21
111.6531222626
  0
LINE
  5
23D
100
AcDbEntity
  8
0
100
AcDbLine
 62
7
  6
CONTINUOUS
 10
95.6857450355
 20
113.1939487336
 11
95.6531845288
 21
112.8822920397
  0
LINE
  5
23E
100
AcDbEntity
  8
RUNDUNGEN
100
AcDbLine
 62
7
  6
CONTINUOUS
 10
93.9125105655
 20
95.1794213879
 11
93.905590616
 21
95.1391200338
  0
LINE
  5
23F
100
AcDbEntity
  8
RUNDUNGEN
100
AcDbLine
 62
7
  6
CONTINUOUS
 10
93.9055969418
 20
95.1391188645
 11
93.901336826
 21
95.1160751138
  0
LINE
  5
240
100
AcDbEntity
  8
RUNDUNGEN
100
AcDbLine
 62
7
  6
CONTINUOUS
 10
94.0009488417
 20
95.0976597642
 11
94.1182651927
 21
95.7322455019
  0
LINE
  5
241
100
AcDbEntity
  8
0
100
AcDbLine
 62
7
  6
CONTINUOUS
 10
95.8949717996
 20
114.6989573005
 11
95.8358713898
 21
114.3960640728
  0
LINE
  5
242
100
AcDbEntity
  8
0
100
AcDbLine
 62
7
  6
CONTINUOUS
 10
96.9765802597
 20
114.180744968
 11
97.0456822773
 21
114.5348970496
  0
LINE
  5
243
100
AcDbEntity
  8
0
100
AcDbLine
 62
7
  6
CONTINUOUS
 10
97.6316026979
 20
116.6116686294
 11
97.6700362921
 21
116.7164122654
  0
LINE
  5
244
100
AcDbEntity
  8
0
100
AcDbLine
 62
7
  6
CONTINUOUS
 10
96.8485507696
 20
117.7710827734
 11
96.7077199592
 21
117.4388697866
  0
LINE
  5
245
100
AcDbEntity
  8
0
100
AcDbLine
 62
7
  6
CONTINUOUS
 10
97.7764846344
 20
116.9858020221
 11
97.9173154448
 21
117.3180150089
  0
LINE
  5
246
100
AcDbEntity
  8
0
100
AcDbLine
 62
7
  6
CONTINUOUS
 10
97.1369126045
 20
118.3900764154
 11
96.9927898731
 21
118.1118342191
  0
LINE
  5
247
100
AcDbEntity
  8
0
100
AcDbLine
 62
7
  6
CONTINUOUS
 10
98.0279186003
 20
117.5863563283
 11
98.1938781091
 21
117.9067564331
  0
LINE
  5
248
100
AcDbEntity
  8
0
100
AcDbLine
 62
7
  6
CONTINUOUS
 10
98.4832155862
 20
118.4653490598
 11
98.5345325396
 21
118.564421161
  0
LINE
  5
249
100
AcDbEntity
  8
0
100
AcDbLine
 62
7
  6
CONTINUOUS
 10
98.3324960019
 20
120.3894608877
 11
98.0920487596
 21
120.0276508069
  0
LINE
  5
24A
100
AcDbEntity
  8
0
100
AcDbLine
 62
7
  6
CONTINUOUS
 10
98.6804441198
 20
118.8157355607
 11
98.8801600375
 21
119.1162556731
  0
LINE
  5
24B
100
AcDbEntity
  8
0
100
AcDbLine
 62
7
  6
CONTINUOUS
 10
99.2441162301
 20
119.6639143536
 11
99.3321495378
 21
119.796381409
  0
LINE
  5
24C
100
AcDbEntity
  8
RUNDUNGEN
100
AcDbLine
 62
7
  6
CONTINUOUS
 10
116.57257628
 20
134.3838137187
 11
116.5547498646
 21
134.368602475
  0
LINE
  5
24D
100
AcDbEntity
  8
RUNDUNGEN
100
AcDbLine
 62
7
  6
CONTINUOUS
 10
116.1474212543
 20
133.8878630483
 11
116.6383304484
 21
134.3067548574
  0
LINE
  5
24E
100
AcDbEntity
  8
RUNDUNGEN
100
AcDbLine
 62
7
  6
CONTINUOUS
 10
116.5547456916
 20
134.3686073656
 11
116.5312988157
 21
134.3489838353
  0
LWPOLYLINE
  5
24F
100
AcDbEntity
  8
RUNDUNGEN
100
AcDbPolyline
 62
7
  6
CONTINUOUS
 90
5
 70
0
 10
116.5312988157
 20
134.3489838353
 10
116.406622748
 20
134.2563812408
 10
116.2733415927
 20
134.1761824824
 10
116.132775187
 20
134.1092198585
 10
115.9869873828
 20
134.0564241502
  0
LINE
  5
250
100
AcDbEntity
  8
RUNDUNGEN
100
AcDbLine
 62
7
  6
CONTINUOUS
 10
87.3892068983
 20
117.5218852274
 11
87.3508449271
 21
117.5077274023
  0
LINE
  5
251
100
AcDbEntity
  8
RUNDUNGEN
100
AcDbLine
 62
7
  6
CONTINUOUS
 10
87.3508470774
 20
117.5077213394
 11
87.328760546
 21
117.4998888326
  0
LINE
  5
252
100
AcDbEntity
  8
RUNDUNGEN
100
AcDbLine
 62
7
  6
CONTINUOUS
 10
87.3626183933
 20
117.4044146217
 11
87.9708439385
 21
117.6201085502
  0
LINE
  5
253
100
AcDbEntity
  8
RUNDUNGEN
100
AcDbLine
 62
7
  6
CONTINUOUS
 10
87.328760546
 20
106.5001111674
 11
87.3508470773
 21
106.4922786607
  0
LINE
  5
254
100
AcDbEntity
  8
RUNDUNGEN
100
AcDbLine
 62
7
  6
CONTINUOUS
 10
87.9708439385
 20
106.3798914498
 11
87.3626183933
 21
106.5955853783
  0
LINE
  5
255
100
AcDbEntity
  8
RUNDUNGEN
100
AcDbLine
 62
7
  6
CONTINUOUS
 10
87.3508449284
 20
106.4922726015
 11
87.379562842
 21
106.4817787764
  0
LWPOLYLINE
  5
256
100
AcDbEntity
  8
RUNDUNGEN
100
AcDbPolyline
 62
7
  6
CONTINUOUS
 90
4
 70
0
 10
87.379562842
 20
106.4817787764
 10
87.5220970752
 20
106.4201074318
 10
87.658191815
 20
106.3447819447
 10
87.7864663511
 20
106.2565291784
  0
LINE
  5
257
100
AcDbEntity
  8
RUNDUNGEN
100
AcDbLine
 62
7
  6
CONTINUOUS
 10
116.5547498645
 20
89.6313975251
 11
116.57257628
 21
89.6161862813
  0
LINE
  5
258
100
AcDbEntity
  8
RUNDUNGEN
100
AcDbLine
 62
7
  6
CONTINUOUS
 10
116.6383304484
 20
89.6932451426
 11
116.1474212543
 21
90.1121369517
  0
LINE
  5
259
100
AcDbEntity
  8
0
100
AcDbLine
 62
7
  6
CONTINUOUS
 10
97.4654124541
 20
104.9892847492
 11
97.6454922334
 21
104.676602488
  0
LINE
  5
25A
100
AcDbEntity
  8
0
100
AcDbLine
 62
7
  6
CONTINUOUS
 10
98.6514239458
 20
105.2559380732
 11
98.4713441665
 21
105.5686203344
  0
LINE
  5
25B
100
AcDbEntity
  8
0
100
AcDbLine
 62
7
  6
CONTINUOUS
 10
97.3728178707
 20
106.1505706188
 11
97.5584517858
 21
105.7657004136
  0
LINE
  5
25C
100
AcDbEntity
  8
0
100
AcDbLine
 62
7
  6
CONTINUOUS
 10
97.7797899253
 20
105.875093725
 11
97.454930553
 21
106.548616627
  0
LINE
  5
25D
100
AcDbEntity
  8
0
100
AcDbLine
 62
7
  6
CONTINUOUS
 10
96.3196269918
 20
107.5969067182
 11
96.4270480843
 21
107.3025416551
  0
LINE
  5
25E
100
AcDbEntity
  8
0
100
AcDbLine
 62
7
  6
CONTINUOUS
 10
97.2705862385
 20
108.5061819444
 11
97.2404945069
 21
108.6136200348
  0
LINE
  5
25F
100
AcDbEntity
  8
0
100
AcDbLine
 62
7
  6
CONTINUOUS
 10
95.9573037666
 20
108.9885724645
 11
96.0373891387
 21
108.6367409789
  0
LINE
  5
260
100
AcDbEntity
  8
0
100
AcDbLine
 62
7
  6
CONTINUOUS
 10
97.1692674238
 20
108.8943839058
 11
97.0891820517
 21
109.2462153913
  0
LINE
  5
261
100
AcDbEntity
  8
RUNDUNGEN
100
AcDbLine
 62
7
  6
CONTINUOUS
 10
93.901336826
 20
128.8839248862
 11
93.9055969418
 21
128.8608811356
  0
LINE
  5
262
100
AcDbEntity
  8
RUNDUNGEN
100
AcDbLine
 62
7
  6
CONTINUOUS
 10
94.1182651927
 20
128.2677544981
 11
94.0009488417
 21
128.9023402358
  0
LINE
  5
263
100
AcDbEntity
  8
RUNDUNGEN
100
AcDbLine
 62
7
  6
CONTINUOUS
 10
93.9055906199
 20
128.860879967
 11
93.9108616577
 21
128.8307626118
  0
LINE
  5
264
100
AcDbEntity
  8
0
100
AcDbLine
 62
7
  6
CONTINUOUS
 10
95.8291412156
 20
109.6593046352
 11
95.874988637
 21
109.3493234511
  0
LINE
  5
265
100
AcDbEntity
  8
0
100
AcDbLine
 62
7
  6
CONTINUOUS
 10
97.0219378777
 20
109.5285605424
 11
96.9691438857
 21
109.8855085154
  0
LINE
  5
266
100
AcDbEntity
  8
0
100
AcDbLine
 62
7
  6
CONTINUOUS
 10
96.8771017702
 20
110.5078188458
 11
96.8607773852
 21
110.6181904223
  0
LWPOLYLINE
  5
267
100
AcDbEntity
  8
RUNDUNGEN
100
AcDbPolyline
 62
7
  6
CONTINUOUS
 90
5
 70
0
 10
93.9108616577
 20
128.8307626118
 10
93.9287198232
 20
128.6764886726
 10
93.9315334076
 20
128.5209644271
 10
93.9192415382
 20
128.3657490369
 10
93.8920700607
 20
128.2130952407
  0
LINE
  5
268
100
AcDbEntity
  8
RUNDUNGEN
100
AcDbLine
 62
7
  6
CONTINUOUS
 10
98.9453360226
 20
97.3444515633
 11
98.9440081652
 21
97.4274080345
  0
LINE
  5
269
100
AcDbEntity
  8
RUNDUNGEN
100
AcDbLine
 62
7
  6
CONTINUOUS
 10
98.9317908333
 20
97.0882851143
 11
98.9453358038
 21
97.3444474256
  0
LINE
  5
26A
100
AcDbEntity
  8
RUNDUNGEN
100
AcDbLine
 62
7
  6
CONTINUOUS
 10
91.7805907641
 20
114.2458456194
 11
91.8517692342
 21
114.2884738057
  0
LINE
  5
26B
100
AcDbEntity
  8
RUNDUNGEN
100
AcDbLine
 62
7
  6
CONTINUOUS
 10
91.5519715116
 20
114.1294928699
 11
91.7805870698
 21
114.2458437393
  0
LINE
  5
26C
100
AcDbEntity
  8
0
100
AcDbLine
 62
7
  6
CONTINUOUS
 10
121.8307929457
 20
103.4913797369
 11
122.0179314402
 21
103.5274234385
  0
LWPOLYLINE
  5
26D
100
AcDbEntity
  8
RUNDUNGEN
100
AcDbPolyline
 62
7
  6
CONTINUOUS
 90
3
 70
0
 10
91.8510270338
 20
109.7119162328
 10
91.7805646819
 20
109.7541193572
 10
91.5519888483
 20
109.8704958304
  0
LINE
  5
26E
100
AcDbEntity
  8
RUNDUNGEN
100
AcDbLine
 62
7
  6
CONTINUOUS
 10
98.957071567
 20
96.6667284389
 11
99.0000352223
 21
97.0050122574
  0
LINE
  5
26F
100
AcDbEntity
  8
RUNDUNGEN
100
AcDbLine
 62
7
  6
CONTINUOUS
 10
99.0000382678
 20
97.0050118703
 11
99.0196487222
 21
97.1304709827
  0
LINE
  5
270
100
AcDbEntity
  8
RUNDUNGEN
100
AcDbLine
 62
7
  6
CONTINUOUS
 10
98.9438959629
 20
96.5998561608
 11
98.9570276298
 21
96.6667340068
  0
LINE
  5
271
100
AcDbEntity
  8
RUNDUNGEN
100
AcDbLine
 62
7
  6
CONTINUOUS
 10
99.0196487222
 20
97.1304709827
 11
99.078284403
 21
97.3706770713
  0
LINE
  5
272
100
AcDbEntity
  8
RUNDUNGEN
100
AcDbLine
 62
7
  6
CONTINUOUS
 10
117.3641195287
 20
128.9240118387
 11
117.3640176229
 21
128.9239240999
  0
LWPOLYLINE
  5
273
100
AcDbEntity
  8
RUNDUNGEN
100
AcDbPolyline
 62
7
  6
CONTINUOUS
 90
5
 70
0
 10
117.7575116972
 20
129.2301276134
 10
117.80108641
 20
129.2673246276
 10
117.8606711879
 20
129.3358858394
 10
117.9068889413
 20
129.4141850567
 10
117.9318216537
 20
129.4778616245
  0
LINE
  5
274
100
AcDbEntity
  8
RUNDUNGEN
100
AcDbLine
 62
7
  6
CONTINUOUS
 10
117.3640178107
 20
128.9239242651
 11
117.4860575185
 21
129.023743345
  0
LINE
  5
275
100
AcDbEntity
  8
RUNDUNGEN
100
AcDbLine
 62
7
  6
CONTINUOUS
 10
117.4860579255
 20
129.0237428095
 11
117.7575384982
 21
129.2300923506
  0
LINE
  5
276
100
AcDbEntity
  8
RUNDUNGEN
100
AcDbLine
 62
7
  6
CONTINUOUS
 10
91.1995330885
 20
113.8968207746
 11
91.5139772966
 21
114.028755067
  0
LINE
  5
277
100
AcDbEntity
  8
RUNDUNGEN
100
AcDbLine
 62
7
  6
CONTINUOUS
 10
91.5139784841
 20
114.0287522359
 11
91.6324345737
 21
114.0744986701
  0
LWPOLYLINE
  5
278
100
AcDbEntity
  8
RUNDUNGEN
100
AcDbPolyline
 62
7
  6
CONTINUOUS
 90
4
 70
0
 10
91.6324345737
 20
114.0744986701
 10
91.8697770576
 20
114.1438217311
 10
92.1212090935
 20
114.1877119202
 10
92.2969152393
 20
114.2019166192
  0
LINE
  5
279
100
AcDbEntity
  8
0
100
AcDbLine
 62
7
  6
CONTINUOUS
 10
122.7246415009
 20
104.9673971283
 11
122.8912213154
 21
104.9955660441
  0
LINE
  5
27A
100
AcDbEntity
  8
0
100
AcDbLine
 62
7
  6
CONTINUOUS
 10
121.8843868892
 20
103.6957403736
 11
121.762427864
 21
103.6965047451
  0
LINE
  5
27B
100
AcDbEntity
  8
0
100
AcDbLine
 62
7
  6
CONTINUOUS
 10
119.1105152754
 20
102.1104025087
 11
120.6602669127
 21
101.7270669423
  0
LINE
  5
27C
100
AcDbEntity
  8
0
100
AcDbLine
 62
7
  6
CONTINUOUS
 10
120.587897332
 20
101.9426658042
 11
119.0142253256
 21
102.3502235239
  0
LWPOLYLINE
  5
27D
100
AcDbEntity
  8
RUNDUNGEN
100
AcDbPolyline
 62
7
  6
CONTINUOUS
 90
5
 70
0
 10
91.1995159278
 20
110.1031383932
 10
91.1455150121
 20
110.1222766944
 10
91.056346872
 20
110.1395980198
 10
90.965428884
 20
110.1404741597
 10
90.8978170025
 20
110.1302282382
  0
LINE
  5
27E
100
AcDbEntity
  8
RUNDUNGEN
100
AcDbLine
 62
7
  6
CONTINUOUS
 10
91.6391662164
 20
109.9231273809
 11
91.5139769878
 21
109.9712441967
  0
LINE
  5
27F
100
AcDbEntity
  8
RUNDUNGEN
100
AcDbLine
 62
7
  6
CONTINUOUS
 10
91.5139772967
 20
109.971244933
 11
91.1995330658
 21
110.103179235
  0
LINE
  5
280
100
AcDbEntity
  8
RUNDUNGEN
100
AcDbLine
 62
7
  6
CONTINUOUS
 10
117.7575384785
 20
94.7699076644
 11
117.4860579256
 21
94.9762571905
  0
LWPOLYLINE
  5
281
100
AcDbEntity
  8
RUNDUNGEN
100
AcDbPolyline
 62
7
  6
CONTINUOUS
 90
3
 70
0
 10
117.4860598247
 20
94.9762596884
 10
117.3871021302
 20
95.0560686089
 10
117.2083329441
 20
95.2270393264
  0
LINE
  5
282
100
AcDbEntity
  8
0
100
AcDbLine
 62
7
  6
CONTINUOUS
 10
98.0920487596
 20
120.0276508069
 11
98.2545818428
 21
119.6374560183
  0
LINE
  5
283
100
AcDbEntity
  8
0
100
AcDbLine
 62
7
  6
CONTINUOUS
 10
98.579639786
 20
119.3159716832
 11
98.532690934
 21
119.4554844913
  0
LINE
  5
284
100
AcDbEntity
  8
0
100
AcDbLine
 62
7
  6
CONTINUOUS
 10
98.4940273108
 20
119.7833112618
 11
98.3324960019
 21
120.3894608877
  0
LINE
  5
285
100
AcDbEntity
  8
RUNDUNGEN
100
AcDbLine
 62
7
  6
CONTINUOUS
 10
98.9570276249
 20
127.3332660066
 11
98.9466014221
 21
127.389601322
  0
LINE
  5
286
100
AcDbEntity
  8
RUNDUNGEN
100
AcDbLine
 62
7
  6
CONTINUOUS
 10
99.0000352223
 20
126.9949877425
 11
98.9570715639
 21
127.3332715855
  0
LWPOLYLINE
  5
287
100
AcDbEntity
  8
RUNDUNGEN
100
AcDbPolyline
 62
7
  6
CONTINUOUS
 90
3
 70
0
 10
99.078284403
 20
97.3706770713
 10
99.1659903654
 20
97.6103686547
 10
99.2415429059
 20
97.7696391336
  0
LINE
  5
288
100
AcDbEntity
  8
0
100
AcDbLine
 62
7
  6
CONTINUOUS
 10
119.8473122009
 20
122.4997945166
 11
119.9426036124
 21
122.5494002956
  0
LINE
  5
289
100
AcDbEntity
  8
0
100
AcDbLine
 62
7
  6
CONTINUOUS
 10
119.7990737485
 20
121.2124102876
 11
119.9419995615
 21
121.2629966185
  0
LINE
  5
28A
100
AcDbEntity
  8
0
100
AcDbLine
 62
7
  6
CONTINUOUS
 10
121.318977786
 20
120.9588592246
 11
121.2169035055
 21
120.9253624718
  0
LINE
  5
28B
100
AcDbEntity
  8
0
100
AcDbLine
 62
7
  6
CONTINUOUS
 10
124.2625671442
 20
109.7515720524
 11
124.3678157758
 21
109.7731094412
  0
LINE
  5
28C
100
AcDbEntity
  8
0
100
AcDbLine
 62
7
  6
CONTINUOUS
 10
124.3904941607
 20
109.9718195085
 11
124.2852455291
 21
109.9502821197
  0
LINE
  5
28D
100
AcDbEntity
  8
0
100
AcDbLine
 62
7
  6
CONTINUOUS
 10
122.7133076719
 20
108.3926575611
 11
123.5438937306
 21
108.5074725584
  0
LINE
  5
28E
100
AcDbEntity
  8
0
100
AcDbLine
 62
7
  6
CONTINUOUS
 10
123.522889138
 20
108.7176971709
 11
122.7661698518
 21
108.6199250447
  0
LINE
  5
28F
100
AcDbEntity
  8
0
100
AcDbLine
 62
7
  6
CONTINUOUS
 10
123.9145268248
 20
108.1474794431
 11
124.0215506691
 21
108.1568084472
  0
LINE
  5
290
100
AcDbEntity
  8
0
100
AcDbLine
 62
7
  6
CONTINUOUS
 10
124.0668609115
 20
108.3516082982
 11
123.9598370672
 21
108.3422792941
  0
LINE
  5
291
100
AcDbEntity
  8
0
100
AcDbLine
 62
7
  6
CONTINUOUS
 10
121.5085431765
 20
105.5042671401
 11
122.3428375275
 21
105.4205496365
  0
LINE
  5
292
100
AcDbEntity
  8
0
100
AcDbLine
 62
7
  6
CONTINUOUS
 10
122.3718564091
 20
105.6298185666
 11
121.6133644843
 21
105.7127298479
  0
LINE
  5
293
100
AcDbEntity
  8
0
100
AcDbLine
 62
7
  6
CONTINUOUS
 10
121.6804447225
 20
103.5109308618
 11
121.8307929457
 21
103.4913797369
  0
LINE
  5
294
100
AcDbEntity
  8
0
100
AcDbLine
 62
7
  6
CONTINUOUS
 10
122.6184243145
 20
104.9834950973
 11
122.7246415009
 21
104.9673971283
  0
LINE
  5
295
100
AcDbEntity
  8
0
100
AcDbLine
 62
7
  6
CONTINUOUS
 10
122.814488532
 20
105.1460798388
 11
122.7082713456
 21
105.1621778077
  0
LWPOLYLINE
  5
296
100
AcDbEntity
  8
RUNDUNGEN
100
AcDbPolyline
 62
7
  6
CONTINUOUS
 90
3
 70
0
 10
117.2083329441
 20
95.2270393264
 10
117.0445912873
 20
95.4229065423
 10
116.9446179296
 20
95.5677289093
  0
LWPOLYLINE
  5
297
100
AcDbEntity
  8
RUNDUNGEN
100
AcDbPolyline
 62
7
  6
CONTINUOUS
 90
4
 70
0
 10
99.1692775914
 20
126.38193517
 10
99.0809563718
 20
126.6205191152
 10
99.0214215465
 20
126.8600696229
 10
99.0000347447
 20
126.9949876818
  0
LWPOLYLINE
  5
298
100
AcDbEntity
  8
RUNDUNGEN
100
AcDbPolyline
 62
7
  6
CONTINUOUS
 90
4
 70
0
 10
98.9466014221
 20
127.389601322
 10
98.9170180599
 20
127.4754838592
 10
98.8723178253
 20
127.5546592164
 10
98.8296386563
 20
127.6080898627
  0
LINE
  5
299
100
AcDbEntity
  8
0
100
AcDbLine
 62
7
  6
CONTINUOUS
 10
106.825
 20
128.05
 11
106.825
 21
124.3483551536
  0
LINE
  5
29A
100
AcDbEntity
  8
RUNDUNGEN
100
AcDbLine
 62
7
  6
CONTINUOUS
 10
102.0681374468
 20
94.5221512549
 11
101.0533921451
 21
91.3037903301
  0
LINE
  5
29B
100
AcDbEntity
  8
RUNDUNGEN
100
AcDbLine
 62
7
  6
CONTINUOUS
 10
101.1500036193
 20
91.2733288493
 11
101.2854952852
 21
91.7030535128
  0
LINE
  5
29C
100
AcDbEntity
  8
RUNDUNGEN
100
AcDbLine
 62
7
  6
CONTINUOUS
 10
99.241521639
 20
97.7695977294
 11
99.2415430612
 21
97.7696394322
  0
LINE
  5
29D
100
AcDbEntity
  8
RUNDUNGEN
100
AcDbLine
 62
7
  6
CONTINUOUS
 10
123.4501394087
 20
130.096094515
 11
121.1703297193
 21
127.6081188202
  0
LINE
  5
29E
100
AcDbEntity
  8
RUNDUNGEN
100
AcDbLine
 62
7
  6
CONTINUOUS
 10
123.2204189198
 20
129.695455708
 11
123.524825562
 21
130.0276572644
  0
LINE
  5
29F
100
AcDbEntity
  8
0
100
AcDbLine
 62
7
  6
CONTINUOUS
 10
97.8539366918
 20
106.6830856855
 11
97.65433138
 21
106.5340984926
  0
LINE
  5
2A0
100
AcDbEntity
  8
0
100
AcDbLine
 62
7
  6
CONTINUOUS
 10
119.8474241101
 20
122.7380174692
 11
119.7283043272
 21
122.6640991959
  0
LINE
  5
2A1
100
AcDbEntity
  8
0
100
AcDbLine
 62
7
  6
CONTINUOUS
 10
121.131000029
 20
120.6970674589
 11
121.3154408162
 21
120.7909446345
  0
LINE
  5
2A2
100
AcDbEntity
  8
0
100
AcDbLine
 62
7
  6
CONTINUOUS
 10
121.2169035055
 20
120.9253624718
 11
121.059918171
 21
120.8516122251
  0
LINE
  5
2A3
100
AcDbEntity
  8
0
100
AcDbLine
 62
7
  6
CONTINUOUS
 10
121.2632275262
 20
119.5954153263
 11
121.3653016171
 21
119.6289121765
  0
LINE
  5
2A4
100
AcDbEntity
  8
0
100
AcDbLine
 62
7
  6
CONTINUOUS
 10
124.2893616676
 20
112.5166667938
 11
124.1531914711
 21
112.4833332062
  0
LINE
  5
2A5
100
AcDbEntity
  8
0
100
AcDbLine
 62
7
  6
CONTINUOUS
 10
123.6425531864
 20
112.6166667938
 11
123.5063829899
 21
112.5833332062
  0
LINE
  5
2A6
100
AcDbEntity
  8
RUNDUNGEN
100
AcDbLine
 62
7
  6
CONTINUOUS
 10
129.1021922933
 20
113.8697299022
 11
132.3967472636
 21
114.6001151549
  0
LINE
  5
2A7
100
AcDbEntity
  8
RUNDUNGEN
100
AcDbLine
 62
7
  6
CONTINUOUS
 10
132.3748219427
 20
114.6990138862
 11
131.9349236346
 21
114.6014907792
  0
LINE
  5
2A8
100
AcDbEntity
  8
0
100
AcDbLine
 62
7
  6
CONTINUOUS
 10
97.8792343943
 20
107.097119256
 11
98.1623328515
 21
107.1246185042
  0
LINE
  5
2A9
100
AcDbEntity
  8
RUNDUNGEN
100
AcDbLine
 62
7
  6
CONTINUOUS
 10
127.7029918028
 20
109.798090816
 11
127.7029498396
 21
109.7980887832
  0
LINE
  5
2AA
100
AcDbEntity
  8
RUNDUNGEN
100
AcDbLine
 62
7
  6
CONTINUOUS
 10
92.2969204556
 20
109.7980877207
 11
92.2968761597
 21
109.7980898833
  0
LWPOLYLINE
  5
2AB
100
AcDbEntity
  8
RUNDUNGEN
100
AcDbPolyline
 62
7
  6
CONTINUOUS
 90
4
 70
0
 10
92.2969200399
 20
109.7980877389
 10
92.1241671117
 20
109.8119276778
 10
91.8744767014
 20
109.8550790967
 10
91.6391662164
 20
109.9231273809
  0
LINE
  5
2AC
100
AcDbEntity
  8
0
100
AcDbLine
 62
7
  6
CONTINUOUS
 10
96.9627524037
 20
111.0174234273
 11
97.2408784002
 21
110.9578668668
  0
LINE
  5
2AD
100
AcDbEntity
  8
RUNDUNGEN
100
AcDbLine
 62
7
  6
CONTINUOUS
 10
87.6032527364
 20
114.6001151549
 11
90.8978077368
 21
113.8697298955
  0
LINE
  5
2AE
100
AcDbEntity
  8
RUNDUNGEN
100
AcDbLine
 62
7
  6
CONTINUOUS
 10
88.0650763654
 20
114.6014907792
 11
87.6251780573
 21
114.6990138862
  0
LINE
  5
2AF
100
AcDbEntity
  8
0
100
AcDbLine
 62
7
  6
CONTINUOUS
 10
121.762427864
 20
103.6965047451
 11
121.6304756186
 21
103.7438545558
  0
LINE
  5
2B0
100
AcDbEntity
  8
0
100
AcDbLine
 62
7
  6
CONTINUOUS
 10
121.5201031202
 20
103.5770675311
 11
121.6804447225
 21
103.5109308618
  0
LINE
  5
2B1
100
AcDbEntity
  8
RUNDUNGEN
100
AcDbLine
 62
7
  6
CONTINUOUS
 10
121.1703297402
 20
96.3918811571
 11
123.4501394087
 21
93.903905485
  0
LINE
  5
2B2
100
AcDbEntity
  8
RUNDUNGEN
100
AcDbLine
 62
7
  6
CONTINUOUS
 10
123.524825562
 20
93.9723427356
 11
123.2204189198
 21
94.304544292
  0
LINE
  5
2B3
100
AcDbEntity
  8
RUNDUNGEN
100
AcDbLine
 62
7
  6
CONTINUOUS
 10
116.9446430205
 20
95.5676899921
 11
116.9446177514
 21
95.5677291889
  0
LINE
  5
2B4
100
AcDbEntity
  8
RUNDUNGEN
100
AcDbLine
 62
7
  6
CONTINUOUS
 10
99.2416452413
 20
126.2301481968
 11
99.2416257889
 21
126.2301859974
  0
LINE
  5
2B5
100
AcDbEntity
  8
RUNDUNGEN
100
AcDbLine
 62
7
  6
CONTINUOUS
 10
99.2416450535
 20
126.2301485577
 11
99.1692775914
 21
126.38193517
  0
LINE
  5
2B6
100
AcDbEntity
  8
RUNDUNGEN
100
AcDbLine
 62
7
  6
CONTINUOUS
 10
101.0533921451
 20
132.6962096699
 11
102.0681374561
 21
129.4778487157
  0
LINE
  5
2B7
100
AcDbEntity
  8
RUNDUNGEN
100
AcDbLine
 62
7
  6
CONTINUOUS
 10
101.2854952852
 20
132.2969464872
 11
101.1500036193
 21
132.7266711507
  0
LINE
  5
2B8
100
AcDbEntity
  8
DEFAULT_1
100
AcDbLine
 62
7
  6
CENTER
 10
110.0
 20
112.0
 11
110.0
 21
86.265625
  0
LINE
  5
2B9
100
AcDbEntity
  8
DEFAULT_1
100
AcDbLine
 62
7
  6
CENTER
 10
110.0
 20
112.0
 11
110.0
 21
137.734375
  0
LWPOLYLINE
  5
2BA
100
AcDbEntity
  8
RUNDUNGEN
100
AcDbPolyline
 62
7
  6
CONTINUOUS
 90
3
 70
0
 10
98.8660256563
 20
96.4364589773
 10
98.9124178105
 20
96.514585367
 10
98.9438959629
 20
96.5998561608
  0
LINE
  5
2BB
100
AcDbEntity
  8
RUNDUNGEN
100
AcDbLine
 62
7
  6
CONTINUOUS
 10
121.1703613348
 20
127.6080898473
 11
121.1339743437
 21
127.5635410227
  0
LINE
  5
2BC
100
AcDbEntity
  8
0
100
AcDbLine
 62
7
  6
CONTINUOUS
 10
119.7283043272
 20
122.6640991959
 11
119.6329905422
 21
122.5668488449
  0
LINE
  5
2BD
100
AcDbEntity
  8
0
100
AcDbLine
 62
7
  6
CONTINUOUS
 10
119.7996553417
 20
122.4511693751
 11
119.8473122009
 21
122.4997945166
  0
LINE
  5
2BE
100
AcDbEntity
  8
0
100
AcDbLine
 62
7
  6
CONTINUOUS
 10
120.8799785193
 20
121.6803531496
 11
120.6740477601
 21
121.5021345646
  0
LINE
  5
2BF
100
AcDbEntity
  8
0
100
AcDbLine
 62
7
  6
CONTINUOUS
 10
120.9851164266
 20
121.5068454679
 11
119.9812041825
 21
120.6380300455
  0
LINE
  5
2C0
100
AcDbEntity
  8
0
100
AcDbLine
 62
7
  6
CONTINUOUS
 10
120.1120834256
 20
120.4867996791
 11
121.3219263568
 21
121.533833624
  0
LINE
  5
2C1
100
AcDbEntity
  8
0
100
AcDbLine
 62
7
  6
CONTINUOUS
 10
121.059918171
 20
120.8516122251
 11
120.8128180819
 21
120.6704712489
  0
LINE
  5
2C2
100
AcDbEntity
  8
0
100
AcDbLine
 62
7
  6
CONTINUOUS
 10
120.9388110709
 20
120.5561800329
 11
121.131000029
 21
120.6970674589
  0
LINE
  5
2C3
100
AcDbEntity
  8
0
100
AcDbLine
 62
7
  6
CONTINUOUS
 10
121.777502674
 20
119.4792813439
 11
121.6320355843
 21
119.3908974039
  0
LINE
  5
2C4
100
AcDbEntity
  8
0
100
AcDbLine
 62
7
  6
CONTINUOUS
 10
121.8743549135
 20
118.9920750887
 11
122.0198220032
 21
119.0804590287
  0
LINE
  5
2C5
100
AcDbEntity
  8
0
100
AcDbLine
 62
7
  6
CONTINUOUS
 10
98.4713441665
 20
105.5686203344
 11
97.4654124541
 21
104.9892847492
  0
LINE
  5
2C6
100
AcDbEntity
  8
0
100
AcDbLine
 62
7
  6
CONTINUOUS
 10
97.3234711569
 20
104.9075380029
 11
97.0107889783
 21
104.7274582712
  0
LINE
  5
2C7
100
AcDbEntity
  8
0
100
AcDbLine
 62
7
  6
CONTINUOUS
 10
97.4068663408
 20
104.5391732078
 11
97.5035509362
 21
104.5948557417
  0
LINE
  5
2C8
100
AcDbEntity
  8
0
100
AcDbLine
 62
7
  6
CONTINUOUS
 10
97.6454922334
 20
104.676602488
 11
98.6514239458
 21
105.2559380732
  0
LINE
  5
2C9
100
AcDbEntity
  8
0
100
AcDbLine
 62
7
  6
CONTINUOUS
 10
121.4512052447
 20
119.8572070638
 11
121.2667643063
 21
119.7633300138
  0
LINE
  5
2CA
100
AcDbEntity
  8
0
100
AcDbLine
 62
7
  6
CONTINUOUS
 10
122.9594526023
 20
119.1789297677
 11
122.8069979826
 21
119.1032332175
  0
LINE
  5
2CB
100
AcDbEntity
  8
0
100
AcDbLine
 62
7
  6
CONTINUOUS
 10
121.770306419
 20
118.5884966017
 11
121.5263790061
 21
118.4673821108
  0
LINE
  5
2CC
100
AcDbEntity
  8
0
100
AcDbLine
 62
7
  6
CONTINUOUS
 10
121.3653016171
 20
119.6289121765
 11
121.5222871028
 21
119.7026622976
  0
LINE
  5
2CD
100
AcDbEntity
  8
0
100
AcDbLine
 62
7
  6
CONTINUOUS
 10
97.387655849
 20
107.5924428836
 11
97.4551594738
 21
107.6221306514
  0
LINE
  5
2CE
100
AcDbEntity
  8
0
100
AcDbLine
 62
7
  6
CONTINUOUS
 10
97.2550386688
 20
107.9281535252
 11
96.6484679557
 21
107.7068008688
  0
LINE
  5
2CF
100
AcDbEntity
  8
0
100
AcDbLine
 62
7
  6
CONTINUOUS
 10
96.890357049
 20
107.4109662511
 11
97.0509199003
 21
107.469559607
  0
LINE
  5
2D0
100
AcDbEntity
  8
0
100
AcDbLine
 62
7
  6
CONTINUOUS
 10
123.1179240261
 20
117.3472327267
 11
122.8295631756
 21
117.2437024068
  0
LINE
  5
2D1
100
AcDbEntity
  8
0
100
AcDbLine
 62
7
  6
CONTINUOUS
 10
122.9179217676
 20
117.0983430336
 11
123.1422024292
 21
117.1788666157
  0
LINE
  5
2D2
100
AcDbEntity
  8
0
100
AcDbLine
 62
7
  6
CONTINUOUS
 10
95.985355107
 20
109.7064063835
 11
95.8291412156
 21
109.6593046352
  0
LINE
  5
2D3
100
AcDbEntity
  8
0
100
AcDbLine
 62
7
  6
CONTINUOUS
 10
95.7148107725
 20
107.8115832511
 11
97.0977910668
 21
108.1989344376
  0
LINE
  5
2D4
100
AcDbEntity
  8
0
100
AcDbLine
 62
7
  6
CONTINUOUS
 10
97.2404945069
 20
108.6136200348
 11
95.6174928321
 21
108.1590426073
  0
LINE
  5
2D5
100
AcDbEntity
  8
0
100
AcDbLine
 62
7
  6
CONTINUOUS
 10
96.4270480843
 20
107.3025416551
 11
96.5604593794
 21
107.338591673
  0
LINE
  5
2D6
100
AcDbEntity
  8
0
100
AcDbLine
 62
7
  6
CONTINUOUS
 10
123.4109379946
 20
114.5741016973
 11
123.5765282586
 21
114.6135004221
  0
LINE
  5
2D7
100
AcDbEntity
  8
0
100
AcDbLine
 62
7
  6
CONTINUOUS
 10
123.5048321391
 20
114.7677616038
 11
123.4054780086
 21
114.7441223755
  0
LINE
  5
2D8
100
AcDbEntity
  8
0
100
AcDbLine
 62
7
  6
CONTINUOUS
 10
95.7688863538
 20
108.5756232384
 11
95.8776762376
 21
108.6003864523
  0
LINE
  5
2D9
100
AcDbEntity
  8
0
100
AcDbLine
 62
7
  6
CONTINUOUS
 10
96.0373891387
 20
108.6367409789
 11
97.1692674238
 21
108.8943839058
  0
LINE
  5
2DA
100
AcDbEntity
  8
0
100
AcDbLine
 62
7
  6
CONTINUOUS
 10
97.0891820517
 20
109.2462153913
 11
95.9573037666
 21
108.9885724645
  0
LINE
  5
2DB
100
AcDbEntity
  8
0
100
AcDbLine
 62
7
  6
CONTINUOUS
 10
95.7975908654
 20
108.9522179378
 11
95.4457596589
 21
108.8721326291
  0
LINE
  5
2DC
100
AcDbEntity
  8
0
100
AcDbLine
 62
7
  6
CONTINUOUS
 10
96.2399404651
 20
109.412900087
 11
97.0219378777
 21
109.5285605424
  0
LINE
  5
2DD
100
AcDbEntity
  8
0
100
AcDbLine
 62
7
  6
CONTINUOUS
 10
96.9691438857
 20
109.8855085154
 11
96.306911832
 21
109.7875618219
  0
LINE
  5
2DE
100
AcDbEntity
  8
0
100
AcDbLine
 62
7
  6
CONTINUOUS
 10
96.2771710487
 20
110.1671167539
 11
96.6669955617
 21
110.2247733139
  0
LINE
  5
2DF
100
AcDbEntity
  8
0
100
AcDbLine
 62
7
  6
CONTINUOUS
 10
96.1154217633
 20
111.6160954234
 11
96.2861900041
 21
111.6232939317
  0
LINE
  5
2E0
100
AcDbEntity
  8
0
100
AcDbLine
 62
7
  6
CONTINUOUS
 10
123.5744680882
 20
111.3833332062
 11
123.7446808338
 21
111.3833332062
  0
LINE
  5
2E1
100
AcDbEntity
  8
0
100
AcDbLine
 62
7
  6
CONTINUOUS
 10
123.7106382847
 20
111.5833332062
 11
123.6085106373
 21
111.5833332062
  0
LINE
  5
2E2
100
AcDbEntity
  8
DEFAULT_1
100
AcDbLine
 62
7
  6
CENTER
 10
110.0
 20
112.0
 11
84.265625
 21
112.0
  0
LINE
  5
2E3
100
AcDbEntity
  8
DEFAULT_1
100
AcDbLine
 62
7
  6
CENTER
 10
110.0
 20
112.0
 11
135.734375
 21
112.0
  0
LINE
  5
2E4
100
AcDbEntity
  8
0
100
AcDbLine
 62
7
  6
CONTINUOUS
 10
124.3234042168
 20
112.3166667938
 11
124.391489315
 21
112.3166667938
  0
LWPOLYLINE
  5
2E5
100
AcDbEntity
  8
RUNDUNGEN
100
AcDbPolyline
 62
7
  6
CONTINUOUS
 90
4
 70
0
 10
129.0454090703
 20
110.1394658846
 10
128.9545535551
 20
110.1405794739
 10
128.8649678053
 20
110.1252049566
 10
128.8004840582
 20
110.1031383907
  0
LINE
  5
2E6
100
AcDbEntity
  8
0
100
AcDbLine
 62
7
  6
CONTINUOUS
 10
95.6410378439
 20
111.6531222626
 11
95.7791010475
 21
111.6470625438
  0
LINE
  5
2E7
100
AcDbEntity
  8
0
100
AcDbLine
 62
7
  6
CONTINUOUS
 10
96.0413812325
 20
112.8512821992
 11
97.028294571
 21
112.7481738786
  0
LINE
  5
2E8
100
AcDbEntity
  8
0
100
AcDbLine
 62
7
  6
CONTINUOUS
 10
97.2960781995
 20
113.0829916378
 11
96.7399654381
 21
113.1410918283
  0
LINE
  5
2E9
100
AcDbEntity
  8
0
100
AcDbLine
 62
7
  6
CONTINUOUS
 10
96.350394381
 20
113.1817924815
 11
96.1922049036
 21
113.1983194152
  0
LINE
  5
2EA
100
AcDbEntity
  8
0
100
AcDbLine
 62
7
  6
CONTINUOUS
 10
124.1272751049
 20
109.7670126638
 11
124.2625671442
 21
109.7515720524
  0
LINE
  5
2EB
100
AcDbEntity
  8
0
100
AcDbLine
 62
7
  6
CONTINUOUS
 10
124.2852455291
 20
109.9502821197
 11
124.1837764759
 21
109.961862581
  0
LINE
  5
2EC
100
AcDbEntity
  8
RUNDUNGEN
100
AcDbLine
 62
7
  6
CONTINUOUS
 10
90.8978170203
 20
113.8697717618
 11
90.9545909297
 21
113.8605341154
  0
LINE
  5
2ED
100
AcDbEntity
  8
0
100
AcDbLine
 62
7
  6
CONTINUOUS
 10
96.2123569723
 20
114.3298599212
 11
96.9765802597
 21
114.180744968
  0
LINE
  5
2EE
100
AcDbEntity
  8
0
100
AcDbLine
 62
7
  6
CONTINUOUS
 10
97.0456822773
 20
114.5348970496
 11
96.4701848639
 21
114.647187883
  0
LINE
  5
2EF
100
AcDbEntity
  8
0
100
AcDbLine
 62
7
  6
CONTINUOUS
 10
123.781897062
 20
108.1783289877
 11
123.9145268248
 21
108.1474794431
  0
LINE
  5
2F0
100
AcDbEntity
  8
0
100
AcDbLine
 62
7
  6
CONTINUOUS
 10
123.9598370672
 20
108.3422792941
 11
123.8603647218
 21
108.3654164579
  0
LINE
  5
2F1
100
AcDbEntity
  8
0
100
AcDbLine
 62
7
  6
CONTINUOUS
 10
95.9634363809
 20
116.9582605715
 11
97.311737336
 21
116.4635283505
  0
LINE
  5
2F2
100
AcDbEntity
  8
0
100
AcDbLine
 62
7
  6
CONTINUOUS
 10
97.6700362921
 20
116.7164122654
 11
96.0877326849
 21
117.2970071059
  0
LINE
  5
2F3
100
AcDbEntity
  8
0
100
AcDbLine
 62
7
  6
CONTINUOUS
 10
96.4541889078
 20
117.5463459686
 11
96.5569126603
 21
117.5027995996
  0
LINE
  5
2F4
100
AcDbEntity
  8
0
100
AcDbLine
 62
7
  6
CONTINUOUS
 10
96.7077199592
 20
117.4388697866
 11
97.7764846344
 21
116.9858020221
  0
LINE
  5
2F5
100
AcDbEntity
  8
0
100
AcDbLine
 62
7
  6
CONTINUOUS
 10
97.9173154448
 20
117.3180150089
 11
96.8485507696
 21
117.7710827734
  0
LINE
  5
2F6
100
AcDbEntity
  8
0
100
AcDbLine
 62
7
  6
CONTINUOUS
 10
96.6977434707
 20
117.8350125864
 11
96.3655303961
 21
117.975843434
  0
LINE
  5
2F7
100
AcDbEntity
  8
0
100
AcDbLine
 62
7
  6
CONTINUOUS
 10
122.4967679303
 20
105.0446675795
 11
122.6184243145
 21
104.9834950973
  0
LINE
  5
2F8
100
AcDbEntity
  8
0
100
AcDbLine
 62
7
  6
CONTINUOUS
 10
122.7082713456
 20
105.1621778077
 11
122.6170290361
 21
105.2080571801
  0
LINE
  5
2F9
100
AcDbEntity
  8
0
100
AcDbLine
 62
7
  6
CONTINUOUS
 10
97.3259890845
 20
117.9499388488
 11
98.0279186003
 21
117.5863563283
  0
LINE
  5
2FA
100
AcDbEntity
  8
0
100
AcDbLine
 62
7
  6
CONTINUOUS
 10
98.1938781091
 20
117.9067564331
 11
97.5994513025
 21
118.2146551491
  0
LINE
  5
2FB
100
AcDbEntity
  8
0
100
AcDbLine
 62
7
  6
CONTINUOUS
 10
97.7973331161
 20
118.5399095227
 11
98.1472439051
 21
118.3586641928
  0
LINE
  5
2FC
100
AcDbEntity
  8
0
100
AcDbLine
 62
7
  6
CONTINUOUS
 10
98.32524413
 20
119.4907362894
 11
97.47641414
 21
120.0491396582
  0
LINE
  5
2FD
100
AcDbEntity
  8
0
100
AcDbLine
 62
7
  6
CONTINUOUS
 10
121.0942639193
 20
103.8588696474
 11
121.5201031202
 21
103.5770675311
  0
LINE
  5
2FE
100
AcDbEntity
  8
0
100
AcDbLine
 62
7
  6
CONTINUOUS
 10
121.6304756186
 20
103.7438545558
 11
121.2046364177
 21
104.0256566721
  0
LINE
  5
2FF
100
AcDbEntity
  8
0
100
AcDbLine
 62
7
  6
CONTINUOUS
 10
97.2766982224
 20
119.7486195457
 11
98.6804441198
 21
118.8157355607
  0
LINE
  5
300
100
AcDbEntity
  8
0
100
AcDbLine
 62
7
  6
CONTINUOUS
 10
98.8801600375
 20
119.1162556731
 11
98.579639786
 21
119.3159716832
  0
LINE
  5
301
100
AcDbEntity
  8
0
100
AcDbLine
 62
7
  6
CONTINUOUS
 10
120.2184503223
 20
103.6415747291
 11
121.4721132033
 21
102.6474271641
  0
LINE
  5
302
100
AcDbEntity
  8
0
100
AcDbLine
 62
7
  6
CONTINUOUS
 10
121.3829922478
 20
102.9733516109
 11
120.342718768
 21
103.7982825892
  0
LINE
  5
303
100
AcDbEntity
  8
0
100
AcDbLine
 62
7
  6
CONTINUOUS
 10
121.5339343686
 20
103.1089073977
 11
121.3205448927
 21
103.2781240435
  0
LINE
  5
304
100
AcDbEntity
  8
0
100
AcDbLine
 62
7
  6
CONTINUOUS
 10
119.9157650646
 20
103.2863553444
 11
121.1256080563
 21
102.2393214694
  0
LINE
  5
305
100
AcDbEntity
  8
0
100
AcDbLine
 62
7
  6
CONTINUOUS
 10
121.2564872907
 20
102.3905518434
 11
120.0466442989
 21
103.4375857184
  0
LINE
  5
306
100
AcDbEntity
  8
0
100
AcDbLine
 62
7
  6
CONTINUOUS
 10
118.8007677234
 20
102.1394253928
 11
119.9250244227
 21
101.000984848
  0
LINE
  5
307
100
AcDbEntity
  8
0
100
AcDbLine
 62
7
  6
CONTINUOUS
 10
120.0673294908
 20
101.1415169354
 11
119.1105152754
 21
102.1104025087
  0
LWPOLYLINE
  5
308
100
AcDbEntity
  8
RUNDUNGEN
100
AcDbPolyline
 62
7
  6
CONTINUOUS
 90
4
 70
0
 10
117.9114347266
 20
94.5759248619
 10
117.8669713656
 20
94.6551648409
 10
117.8088637681
 20
94.7250611173
 10
117.757511688
 20
94.7698723975
  0
LINE
  5
309
100
AcDbEntity
  8
RUNDUNGEN
100
AcDbLine
 62
7
  6
CONTINUOUS
 10
102.0681783551
 20
129.477861609
 11
102.0885652734
 21
129.4240751381
  0
LINE
  5
30A
100
AcDbEntity
  8
RUNDUNGEN
100
AcDbLine
 62
7
  6
CONTINUOUS
 10
118.8499963807
 20
132.7266711507
 11
118.7145047148
 21
132.2969464872
  0
LINE
  5
30B
100
AcDbEntity
  8
RUNDUNGEN
100
AcDbLine
 62
7
  6
CONTINUOUS
 10
117.9318625532
 20
129.4778487451
 11
118.9466078549
 21
132.6962096699
  0
LINE
  5
30C
100
AcDbEntity
  8
0
100
AcDbLine
 62
7
  6
CONTINUOUS
 10
119.1088321617
 20
122.1749059874
 11
119.0373245057
 21
122.0543236971
  0
LWPOLYLINE
  5
30D
100
AcDbEntity
  8
RUNDUNGEN
100
AcDbPolyline
 62
7
  6
CONTINUOUS
 90
3
 70
0
 10
121.1339743437
 20
127.5635410227
 10
121.0875821895
 20
127.485414633
 10
121.0561040371
 20
127.4001438392
  0
LINE
  5
30E
100
AcDbEntity
  8
RUNDUNGEN
100
AcDbLine
 62
7
  6
CONTINUOUS
 10
98.8296386652
 20
96.3919101527
 11
98.8660256563
 21
96.4364589773
  0
LINE
  5
30F
100
AcDbEntity
  8
RUNDUNGEN
100
AcDbLine
 62
7
  6
CONTINUOUS
 10
96.7795810802
 20
94.304544292
 11
96.475174438
 21
93.9723427356
  0
LINE
  5
310
100
AcDbEntity
  8
RUNDUNGEN
100
AcDbLine
 62
7
  6
CONTINUOUS
 10
96.5498605913
 20
93.903905485
 11
98.8296702807
 21
96.3918811798
  0
LINE
  5
311
100
AcDbEntity
  8
0
100
AcDbLine
 62
7
  6
CONTINUOUS
 10
120.8128180819
 20
120.6704712489
 11
120.6952477235
 21
120.542953716
  0
LINE
  5
312
100
AcDbEntity
  8
0
100
AcDbLine
 62
7
  6
CONTINUOUS
 10
119.8944769098
 20
121.5002389419
 11
119.8229916211
 21
121.4273012297
  0
LINE
  5
313
100
AcDbEntity
  8
0
100
AcDbLine
 62
7
  6
CONTINUOUS
 10
119.9419995615
 20
121.2629966185
 11
120.0611417094
 21
121.3845594721
  0
LINE
  5
314
100
AcDbEntity
  8
0
100
AcDbLine
 62
7
  6
CONTINUOUS
 10
120.7937850342
 20
120.4085358788
 11
120.9388110709
 21
120.5561800329
  0
LINE
  5
315
100
AcDbEntity
  8
0
100
AcDbLine
 62
7
  6
CONTINUOUS
 10
121.7884200883
 20
120.1457387696
 11
121.6433942029
 21
119.9980944898
  0
LINE
  5
316
100
AcDbEntity
  8
0
100
AcDbLine
 62
7
  6
CONTINUOUS
 10
121.6433942029
 20
119.9980944898
 11
121.4512052447
 21
119.8572070638
  0
LINE
  5
317
100
AcDbEntity
  8
0
100
AcDbLine
 62
7
  6
CONTINUOUS
 10
121.5222871028
 20
119.7026622976
 11
121.7693871919
 21
119.8838032738
  0
LINE
  5
318
100
AcDbEntity
  8
0
100
AcDbLine
 62
7
  6
CONTINUOUS
 10
122.8295631756
 20
117.2437024068
 11
122.6806263319
 21
117.1548130697
  0
LINE
  5
319
100
AcDbEntity
  8
0
100
AcDbLine
 62
7
  6
CONTINUOUS
 10
122.7369449584
 20
116.9979499686
 11
122.9179217676
 21
117.0983430336
  0
LINE
  5
31A
100
AcDbEntity
  8
0
100
AcDbLine
 62
7
  6
CONTINUOUS
 10
123.6160358707
 20
116.4635720417
 11
123.4350591063
 21
116.3631789928
  0
LINE
  5
31B
100
AcDbEntity
  8
0
100
AcDbLine
 62
7
  6
CONTINUOUS
 10
122.1193353303
 20
117.2731542279
 11
122.3022808953
 21
117.3639900987
  0
LINE
  5
31C
100
AcDbEntity
  8
0
100
AcDbLine
 62
7
  6
CONTINUOUS
 10
123.3389724589
 20
117.8787267145
 11
123.5524089265
 21
117.9847018848
  0
LINE
  5
31D
100
AcDbEntity
  8
0
100
AcDbLine
 62
7
  6
CONTINUOUS
 10
123.3650033804
 20
115.7966710804
 11
123.1408924941
 21
115.7090852767
  0
LINE
  5
31E
100
AcDbEntity
  8
0
100
AcDbLine
 62
7
  6
CONTINUOUS
 10
123.4350591063
 20
116.3631789928
 11
123.2107784448
 21
116.2826554107
  0
LINE
  5
31F
100
AcDbEntity
  8
0
100
AcDbLine
 62
7
  6
CONTINUOUS
 10
123.2350568478
 20
116.1142892998
 11
123.5234176984
 21
116.2178196197
  0
LINE
  5
320
100
AcDbEntity
  8
0
100
AcDbLine
 62
7
  6
CONTINUOUS
 10
123.2125885672
 20
115.554824084
 11
123.3119426977
 21
115.5784633123
  0
LINE
  5
321
100
AcDbEntity
  8
0
100
AcDbLine
 62
7
  6
CONTINUOUS
 10
123.5691714509
 20
115.6739296009
 11
123.6354075379
 21
115.6896890864
  0
LINE
  5
322
100
AcDbEntity
  8
0
100
AcDbLine
 62
7
  6
CONTINUOUS
 10
123.5968296849
 20
115.8518292796
 11
123.3650033804
 21
115.7966710804
  0
LINE
  5
323
100
AcDbEntity
  8
RUNDUNGEN
100
AcDbLine
 62
7
  6
CONTINUOUS
 10
87.6251780573
 20
109.3009861138
 11
88.0650763654
 21
109.3985092208
  0
LINE
  5
324
100
AcDbEntity
  8
RUNDUNGEN
100
AcDbLine
 62
7
  6
CONTINUOUS
 10
90.8978077067
 20
110.1302700978
 11
87.6032527364
 21
109.3998848451
  0
LINE
  5
325
100
AcDbEntity
  8
0
100
AcDbLine
 62
7
  6
CONTINUOUS
 10
123.2107784448
 20
116.2826554107
 11
123.0072740302
 21
116.245008017
  0
LINE
  5
326
100
AcDbEntity
  8
0
100
AcDbLine
 62
7
  6
CONTINUOUS
 10
123.1422024292
 20
117.1788666157
 11
123.3457067989
 21
117.2165139933
  0
LINE
  5
327
100
AcDbEntity
  8
0
100
AcDbLine
 62
7
  6
CONTINUOUS
 10
123.0635927856
 20
116.0881445569
 11
123.2350568478
 21
116.1142892998
  0
LINE
  5
328
100
AcDbEntity
  8
0
100
AcDbLine
 62
7
  6
CONTINUOUS
 10
96.8607773852
 20
110.6181904223
 11
96.1821069554
 21
110.5178124291
  0
LINE
  5
329
100
AcDbEntity
  8
0
100
AcDbLine
 62
7
  6
CONTINUOUS
 10
96.6443289203
 20
111.6383908019
 11
96.7176541654
 21
111.6462337188
  0
LINE
  5
32A
100
AcDbEntity
  8
0
100
AcDbLine
 62
7
  6
CONTINUOUS
 10
123.8363714541
 20
115.8745598856
 11
123.5968296849
 21
115.8518292796
  0
LINE
  5
32B
100
AcDbEntity
  8
0
100
AcDbLine
 62
7
  6
CONTINUOUS
 10
123.6354075379
 20
115.6896890864
 11
123.8418314402
 21
115.7045392074
  0
LINE
  5
32C
100
AcDbEntity
  8
0
100
AcDbLine
 62
7
  6
CONTINUOUS
 10
96.6196449147
 20
111.998502176
 11
95.9745205119
 21
111.971307814
  0
LINE
  5
32D
100
AcDbEntity
  8
0
100
AcDbLine
 62
7
  6
CONTINUOUS
 10
95.8485156227
 20
113.1984248288
 11
95.6857450355
 21
113.1939487336
  0
LINE
  5
32E
100
AcDbEntity
  8
0
100
AcDbLine
 62
7
  6
CONTINUOUS
 10
124.4255319595
 20
112.5166667938
 11
124.2893616676
 21
112.5166667938
  0
LWPOLYLINE
  5
32F
100
AcDbEntity
  8
RUNDUNGEN
100
AcDbPolyline
 62
7
  6
CONTINUOUS
 90
4
 70
0
 10
90.9545909297
 20
113.8605341154
 10
91.0454464449
 20
113.8594205261
 10
91.1350321947
 20
113.8747950434
 10
91.1995159418
 20
113.8968616093
  0
LINE
  5
330
100
AcDbEntity
  8
0
100
AcDbLine
 62
7
  6
CONTINUOUS
 10
96.111543338
 20
114.6808864744
 11
95.8949717996
 21
114.6989573005
  0
LINE
  5
331
100
AcDbEntity
  8
0
100
AcDbLine
 62
7
  6
CONTINUOUS
 10
123.1621110505
 20
110.9172056553
 11
123.8723938545
 21
110.8361424914
  0
LINE
  5
332
100
AcDbEntity
  8
0
100
AcDbLine
 62
7
  6
CONTINUOUS
 10
124.0753317714
 20
110.8129815905
 11
124.5826766585
 21
110.7550793274
  0
LINE
  5
333
100
AcDbEntity
  8
0
100
AcDbLine
 62
7
  6
CONTINUOUS
 10
124.7744699741
 20
110.934488644
 11
123.1847894354
 21
111.1159157227
  0
LINE
  5
334
100
AcDbEntity
  8
RUNDUNGEN
100
AcDbLine
 62
7
  6
CONTINUOUS
 10
129.1021829797
 20
110.1302282382
 11
129.0454090703
 21
110.1394658846
  0
LINE
  5
335
100
AcDbEntity
  8
0
100
AcDbLine
 62
7
  6
CONTINUOUS
 10
96.2886185795
 20
115.042994697
 11
95.9554358418
 21
115.1080051843
  0
LINE
  5
336
100
AcDbEntity
  8
RUNDUNGEN
100
AcDbLine
 62
7
  6
CONTINUOUS
 10
131.9349236346
 20
109.3985092208
 11
132.3748219427
 21
109.3009861138
  0
LINE
  5
337
100
AcDbEntity
  8
RUNDUNGEN
100
AcDbLine
 62
7
  6
CONTINUOUS
 10
132.3967472636
 20
109.3998848451
 11
129.1021922632
 21
110.1302701045
  0
LINE
  5
338
100
AcDbEntity
  8
0
100
AcDbLine
 62
7
  6
CONTINUOUS
 10
122.9549624132
 20
109.4315905949
 11
123.6512682733
 21
109.2696305774
  0
LINE
  5
339
100
AcDbEntity
  8
0
100
AcDbLine
 62
7
  6
CONTINUOUS
 10
123.8502127782
 20
109.2233562928
 11
124.3475741334
 21
109.1076705598
  0
LINE
  5
33A
100
AcDbEntity
  8
0
100
AcDbLine
 62
7
  6
CONTINUOUS
 10
124.5586714633
 20
109.2639085069
 11
123.0002726555
 21
109.6263904459
  0
LINE
  5
33B
100
AcDbEntity
  8
0
100
AcDbLine
 62
7
  6
CONTINUOUS
 10
97.2911683178
 20
118.3369109598
 11
97.1369126045
 21
118.3900764154
  0
LINE
  5
33C
100
AcDbEntity
  8
0
100
AcDbLine
 62
7
  6
CONTINUOUS
 10
121.9877275706
 20
106.4572420502
 11
122.6264232255
 21
106.1360867006
  0
LINE
  5
33D
100
AcDbEntity
  8
0
100
AcDbLine
 62
7
  6
CONTINUOUS
 10
122.808907674
 20
106.0443280415
 11
123.2651188804
 21
105.814931351
  0
LINE
  5
33E
100
AcDbEntity
  8
0
100
AcDbLine
 62
7
  6
CONTINUOUS
 10
123.5070362852
 20
105.9171485122
 11
122.0775746017
 21
106.6359247606
  0
LINE
  5
33F
100
AcDbEntity
  8
0
100
AcDbLine
 62
7
  6
CONTINUOUS
 10
98.5345325396
 20
118.564421161
 11
97.925350465
 21
118.8799627492
  0
LINE
  5
340
100
AcDbEntity
  8
0
100
AcDbLine
 62
7
  6
CONTINUOUS
 10
121.4358150021
 20
104.9918637695
 11
122.4294398507
 21
104.3343254675
  0
LINE
  5
341
100
AcDbEntity
  8
0
100
AcDbLine
 62
7
  6
CONTINUOUS
 10
122.7101480136
 20
104.3883916562
 11
121.3758518162
 21
105.2713716433
  0
LINE
  5
342
100
AcDbEntity
  8
0
100
AcDbLine
 62
7
  6
CONTINUOUS
 10
120.9707126679
 20
103.9806010907
 11
121.0942639193
 21
103.8588696474
  0
LINE
  5
343
100
AcDbEntity
  8
0
100
AcDbLine
 62
7
  6
CONTINUOUS
 10
119.6071627474
 20
102.9357735308
 11
120.587897332
 21
101.9426658042
  0
LINE
  5
344
100
AcDbEntity
  8
0
100
AcDbLine
 62
7
  6
CONTINUOUS
 10
120.8737245148
 20
101.9378650734
 11
119.7494678155
 21
103.0763056182
  0
LINE
  5
345
100
AcDbEntity
  8
RUNDUNGEN
100
AcDbLine
 62
7
  6
CONTINUOUS
 10
96.475174438
 20
130.0276572644
 11
96.7795810802
 21
129.695455708
  0
LINE
  5
346
100
AcDbEntity
  8
RUNDUNGEN
100
AcDbLine
 62
7
  6
CONTINUOUS
 10
98.8296702598
 20
127.6081188429
 11
96.5498605913
 21
130.096094515
  0
LWPOLYLINE
  5
347
100
AcDbEntity
  8
RUNDUNGEN
100
AcDbPolyline
 62
7
  6
CONTINUOUS
 90
4
 70
0
 10
102.0885652734
 20
129.4240751381
 10
102.1330286344
 20
129.3448351591
 10
102.1911362319
 20
129.2749388827
 10
102.242488312
 20
129.2301276025
  0
LINE
  5
348
100
AcDbEntity
  8
RUNDUNGEN
100
AcDbLine
 62
7
  6
CONTINUOUS
 10
117.9318216449
 20
94.522138391
 11
117.9114347266
 21
94.5759248619
  0
LINE
  5
349
100
AcDbEntity
  8
RUNDUNGEN
100
AcDbLine
 62
7
  6
CONTINUOUS
 10
118.7145047148
 20
91.7030535128
 11
118.8499963807
 21
91.2733288493
  0
LINE
  5
34A
100
AcDbEntity
  8
RUNDUNGEN
100
AcDbLine
 62
7
  6
CONTINUOUS
 10
118.9466078549
 20
91.3037903301
 11
117.9318625439
 21
94.5221512843
  0
LINE
  5
34B
100
AcDbEntity
  8
0
100
AcDbLine
 62
7
  6
CONTINUOUS
 10
113.175
 20
124.3483551536
 11
113.175
 21
128.05
  0
LWPOLYLINE
  5
34C
100
AcDbEntity
  8
RUNDUNGEN
100
AcDbPolyline
 62
7
  6
CONTINUOUS
 90
3
 70
0
 10
120.9214289617
 20
126.6283338351
 10
120.8336799844
 20
126.3888404906
 10
120.7583899942
 20
126.2302414057
  0
LINE
  5
34D
100
AcDbEntity
  8
0
100
AcDbLine
 62
7
  6
CONTINUOUS
 10
119.2039892989
 20
121.9386442336
 11
119.2516685317
 21
122.0349139469
  0
LINE
  5
34E
100
AcDbEntity
  8
0
100
AcDbLine
 62
7
  6
CONTINUOUS
 10
119.751976109
 20
122.3548996618
 11
119.7996553417
 21
122.4511693751
  0
LINE
  5
34F
100
AcDbEntity
  8
0
100
AcDbLine
 62
7
  6
CONTINUOUS
 10
120.4662922162
 20
121.9408070089
 11
120.513971466
 21
122.0370767055
  0
LINE
  5
350
100
AcDbEntity
  8
RUNDUNGEN
100
AcDbLine
 62
7
  6
CONTINUOUS
 10
120.7584087696
 20
126.2302778915
 11
120.7583898767
 21
126.2302411799
  0
LINE
  5
351
100
AcDbEntity
  8
0
100
AcDbLine
 62
7
  6
CONTINUOUS
 10
119.6329905422
 20
122.5668488449
 11
119.5614828883
 21
122.4462665525
  0
LINE
  5
352
100
AcDbEntity
  8
RUNDUNGEN
100
AcDbLine
 62
7
  6
CONTINUOUS
 10
103.0553721967
 20
95.5677272466
 11
103.0553481777
 21
95.5676899696
  0
LINE
  5
353
100
AcDbEntity
  8
RUNDUNGEN
100
AcDbLine
 62
7
  6
CONTINUOUS
 10
103.0553719723
 20
95.5677268947
 11
102.9570096681
 21
95.425038304
  0
LINE
  5
354
100
AcDbEntity
  8
0
100
AcDbLine
 62
7
  6
CONTINUOUS
 10
120.6952477235
 20
120.542953716
 11
120.6325885344
 21
120.4556897616
  0
LINE
  5
355
100
AcDbEntity
  8
0
100
AcDbLine
 62
7
  6
CONTINUOUS
 10
121.8869573991
 20
120.0113209323
 11
121.9496167778
 21
120.0985847893
  0
LINE
  5
356
100
AcDbEntity
  8
RUNDUNGEN
100
AcDbLine
 62
7
  6
CONTINUOUS
 10
102.9570096681
 20
95.425038304
 11
102.7947942563
 21
95.2303758228
  0
LINE
  5
357
100
AcDbEntity
  8
0
100
AcDbLine
 62
7
  6
CONTINUOUS
 10
121.7693871919
 20
119.8838032738
 11
121.8869573991
 21
120.0113209323
  0
LINE
  5
358
100
AcDbEntity
  8
0
100
AcDbLine
 62
7
  6
CONTINUOUS
 10
122.6806263319
 20
117.1548130697
 11
122.5957697221
 21
117.0889304865
  0
LINE
  5
359
100
AcDbEntity
  8
0
100
AcDbLine
 62
7
  6
CONTINUOUS
 10
123.6723546261
 20
116.3067085816
 11
123.7572111967
 21
116.3725915561
  0
LINE
  5
35A
100
AcDbEntity
  8
0
100
AcDbLine
 62
7
  6
CONTINUOUS
 10
123.1408924941
 20
115.7090852767
 11
122.9907335358
 21
115.6048298864
  0
LINE
  5
35B
100
AcDbEntity
  8
0
100
AcDbLine
 62
7
  6
CONTINUOUS
 10
123.1209499013
 20
115.4987572624
 11
123.2125885672
 21
115.554824084
  0
LINE
  5
35C
100
AcDbEntity
  8
0
100
AcDbLine
 62
7
  6
CONTINUOUS
 10
123.5964708514
 20
114.8238284364
 11
123.5048321391
 21
114.7677616038
  0
LINE
  5
35D
100
AcDbEntity
  8
0
100
AcDbLine
 62
7
  6
CONTINUOUS
 10
124.157221852
 20
114.8201924848
 11
124.2488605179
 21
114.8762593064
  0
LINE
  5
35E
100
AcDbEntity
  8
0
100
AcDbLine
 62
7
  6
CONTINUOUS
 10
123.5234176984
 20
116.2178196197
 11
123.6723546261
 21
116.3067085816
  0
LINE
  5
35F
100
AcDbEntity
  8
0
100
AcDbLine
 62
7
  6
CONTINUOUS
 10
98.0966458564
 20
104.4889808252
 11
97.8568221312
 21
104.4038576232
  0
LINE
  5
360
100
AcDbEntity
  8
0
100
AcDbLine
 62
7
  6
CONTINUOUS
 10
98.9487354586
 20
104.2140800248
 11
99.1977830676
 21
104.302477202
  0
LINE
  5
361
100
AcDbEntity
  8
0
100
AcDbLine
 62
7
  6
CONTINUOUS
 10
123.540425539
 20
112.3833332062
 11
123.6425531864
 21
112.4166667938
  0
LINE
  5
362
100
AcDbEntity
  8
0
100
AcDbLine
 62
7
  6
CONTINUOUS
 10
124.2212765694
 20
112.2833332062
 11
124.3234042168
 21
112.3166667938
  0
LINE
  5
363
100
AcDbEntity
  8
0
100
AcDbLine
 62
7
  6
CONTINUOUS
 10
124.4255319595
 20
111.4833332062
 11
124.5276596069
 21
111.5166667938
  0
LINE
  5
364
100
AcDbEntity
  8
0
100
AcDbLine
 62
7
  6
CONTINUOUS
 10
123.2893881724
 20
117.3733770944
 11
123.1179240261
 21
117.3472327267
  0
LINE
  5
365
100
AcDbEntity
  8
RUNDUNGEN
100
AcDbLine
 62
7
  6
CONTINUOUS
 10
92.296870947
 20
114.2019144314
 11
92.2969176567
 21
114.2019167254
  0
LINE
  5
366
100
AcDbEntity
  8
0
100
AcDbLine
 62
7
  6
CONTINUOUS
 10
122.9562086994
 20
116.0850072859
 11
123.0635927856
 21
116.0881445569
  0
LINE
  5
367
100
AcDbEntity
  8
0
100
AcDbLine
 62
7
  6
CONTINUOUS
 10
123.3967722194
 20
117.3765147567
 11
123.2893881724
 21
117.3733770944
  0
LINE
  5
368
100
AcDbEntity
  8
RUNDUNGEN
100
AcDbLine
 62
7
  6
CONTINUOUS
 10
127.7031476061
 20
114.2019280546
 11
127.7031908983
 21
114.2019259429
  0
LWPOLYLINE
  5
369
100
AcDbEntity
  8
RUNDUNGEN
100
AcDbPolyline
 62
7
  6
CONTINUOUS
 90
5
 70
0
 10
127.7031479719
 20
114.2019280385
 10
127.8751827578
 20
114.1881497717
 10
128.124484739
 20
114.1451625981
 10
128.3602908823
 20
114.0770479604
 10
128.4860213073
 20
114.0287517388
  0
LINE
  5
36A
100
AcDbEntity
  8
0
100
AcDbLine
 62
7
  6
CONTINUOUS
 10
123.4054780086
 20
114.7441223755
 11
123.2984084134
 21
114.7529107406
  0
LINE
  5
36B
100
AcDbEntity
  8
0
100
AcDbLine
 62
7
  6
CONTINUOUS
 10
123.3119426977
 20
115.5784633123
 11
123.4190123392
 21
115.5696749583
  0
LINE
  5
36C
100
AcDbEntity
  8
0
100
AcDbLine
 62
7
  6
CONTINUOUS
 10
123.8418314402
 20
115.7045392074
 11
123.9489011281
 21
115.6957508644
  0
LINE
  5
36D
100
AcDbEntity
  8
0
100
AcDbLine
 62
7
  6
CONTINUOUS
 10
123.2299164715
 20
114.5995596491
 11
123.4109379946
 21
114.5741016973
  0
LINE
  5
36E
100
AcDbEntity
  8
0
100
AcDbLine
 62
7
  6
CONTINUOUS
 10
124.5617021561
 20
112.4833332062
 11
124.4255319595
 21
112.5166667938
  0
LINE
  5
36F
100
AcDbEntity
  8
0
100
AcDbLine
 62
7
  6
CONTINUOUS
 10
124.391489315
 20
112.3166667938
 11
124.4936170578
 21
112.2833332062
  0
LINE
  5
370
100
AcDbEntity
  8
0
100
AcDbLine
 62
7
  6
CONTINUOUS
 10
124.0295858196
 20
109.8117109535
 11
124.1272751049
 21
109.7670126638
  0
LINE
  5
371
100
AcDbEntity
  8
0
100
AcDbLine
 62
7
  6
CONTINUOUS
 10
124.1837764759
 20
109.961862581
 11
124.0860871905
 21
110.0065608707
  0
LINE
  5
372
100
AcDbEntity
  8
0
100
AcDbLine
 62
7
  6
CONTINUOUS
 10
123.6899764013
 20
108.2339322764
 11
123.781897062
 21
108.1783289877
  0
LINE
  5
373
100
AcDbEntity
  8
0
100
AcDbLine
 62
7
  6
CONTINUOUS
 10
123.8603647218
 20
108.3654164579
 11
123.7684440612
 21
108.4210197467
  0
LINE
  5
374
100
AcDbEntity
  8
0
100
AcDbLine
 62
7
  6
CONTINUOUS
 10
122.4205006682
 20
105.1203282696
 11
122.4967679303
 21
105.0446675795
  0
LINE
  5
375
100
AcDbEntity
  8
0
100
AcDbLine
 62
7
  6
CONTINUOUS
 10
122.6170290361
 20
105.2080571801
 11
122.540761774
 21
105.2837178702
  0
LINE
  5
376
100
AcDbEntity
  8
0
100
AcDbLine
 62
7
  6
CONTINUOUS
 10
121.2046364177
 20
104.0256566721
 11
121.1094744437
 21
104.1286013094
  0
LINE
  5
377
100
AcDbEntity
  8
RUNDUNGEN
100
AcDbLine
 62
7
  6
CONTINUOUS
 10
120.7583907442
 20
97.7697338563
 11
120.7584111588
 21
97.7696941502
  0
LINE
  5
378
100
AcDbEntity
  8
RUNDUNGEN
100
AcDbLine
 62
7
  6
CONTINUOUS
 10
120.7583909377
 20
97.7697334844
 11
120.8323318977
 21
97.6142870928
  0
LWPOLYLINE
  5
379
100
AcDbEntity
  8
RUNDUNGEN
100
AcDbPolyline
 62
7
  6
CONTINUOUS
 90
4
 70
0
 10
120.8323318977
 20
97.6142870928
 10
120.920051428
 20
97.3761665172
 10
120.9789518046
 20
97.1379608079
 10
120.9999655412
 20
97.0050123545
  0
LINE
  5
37A
100
AcDbEntity
  8
RUNDUNGEN
100
AcDbLine
 62
7
  6
CONTINUOUS
 10
120.9802292066
 20
126.8689267496
 11
120.9214289617
 21
126.6283338351
  0
LINE
  5
37B
100
AcDbEntity
  8
0
100
AcDbLine
 62
7
  6
CONTINUOUS
 10
119.0373245057
 20
122.0543236971
 11
118.9896005199
 21
121.8627647956
  0
LINE
  5
37C
100
AcDbEntity
  8
0
100
AcDbLine
 62
7
  6
CONTINUOUS
 10
120.0611417094
 20
121.3845594721
 11
120.1088433832
 21
121.528473758
  0
LINE
  5
37D
100
AcDbEntity
  8
0
100
AcDbLine
 62
7
  6
CONTINUOUS
 10
120.3473066664
 20
122.1527561753
 11
120.3234558462
 21
122.0807990494
  0
LINE
  5
37E
100
AcDbEntity
  8
0
100
AcDbLine
 62
7
  6
CONTINUOUS
 10
120.7078815386
 20
120.1802408517
 11
120.7937850342
 21
120.4085358788
  0
LINE
  5
37F
100
AcDbEntity
  8
0
100
AcDbLine
 62
7
  6
CONTINUOUS
 10
120.6325885344
 20
120.4556897616
 11
120.5621811551
 21
120.3214155429
  0
LINE
  5
380
100
AcDbEntity
  8
0
100
AcDbLine
 62
7
  6
CONTINUOUS
 10
121.9496167778
 20
120.0985847893
 11
122.0200240251
 21
120.2328591478
  0
LINE
  5
381
100
AcDbEntity
  8
0
100
AcDbLine
 62
7
  6
CONTINUOUS
 10
122.5897591927
 20
116.8034394819
 11
122.7369449584
 21
116.9979499686
  0
LINE
  5
382
100
AcDbEntity
  8
0
100
AcDbLine
 62
7
  6
CONTINUOUS
 10
122.9907335358
 20
115.6048298864
 11
122.8814080973
 21
115.4760266482
  0
LINE
  5
383
100
AcDbEntity
  8
0
100
AcDbLine
 62
7
  6
CONTINUOUS
 10
123.03702703
 20
115.4102613576
 11
123.1209499013
 21
115.4987572624
  0
LINE
  5
384
100
AcDbEntity
  8
0
100
AcDbLine
 62
7
  6
CONTINUOUS
 10
122.5957697221
 20
117.0889304865
 11
122.490136798
 21
116.9801716907
  0
LINE
  5
385
100
AcDbEntity
  8
0
100
AcDbLine
 62
7
  6
CONTINUOUS
 10
123.7572111967
 20
116.3725915561
 11
123.8628442273
 21
116.4813499848
  0
LINE
  5
386
100
AcDbEntity
  8
RUNDUNGEN
100
AcDbLine
 62
7
  6
CONTINUOUS
 10
102.7947942563
 20
95.2303758228
 11
102.6182075039
 21
95.0606151537
  0
LINE
  5
387
100
AcDbEntity
  8
0
100
AcDbLine
 62
7
  6
CONTINUOUS
 10
123.5765282586
 20
114.6135004221
 11
123.7266871936
 21
114.717755807
  0
LINE
  5
388
100
AcDbEntity
  8
0
100
AcDbLine
 62
7
  6
CONTINUOUS
 10
123.5063829899
 20
112.5833332062
 11
123.3361702085
 21
112.4833332062
  0
LINE
  5
389
100
AcDbEntity
  8
0
100
AcDbLine
 62
7
  6
CONTINUOUS
 10
123.7446808338
 20
111.3833332062
 11
123.880851078
 21
111.4500003815
  0
LINE
  5
38A
100
AcDbEntity
  8
0
100
AcDbLine
 62
7
  6
CONTINUOUS
 10
124.4936170578
 20
111.7166667938
 11
124.4255319595
 21
111.6833332062
  0
LINE
  5
38B
100
AcDbEntity
  8
0
100
AcDbLine
 62
7
  6
CONTINUOUS
 10
119.8229916211
 20
121.4273012297
 11
119.7038942544
 21
121.4010274865
  0
LINE
  5
38C
100
AcDbEntity
  8
0
100
AcDbLine
 62
7
  6
CONTINUOUS
 10
121.1139902307
 20
119.5686754696
 11
121.2632275262
 21
119.5954153263
  0
LINE
  5
38D
100
AcDbEntity
  8
0
100
AcDbLine
 62
7
  6
CONTINUOUS
 10
121.4682149495
 20
120.985599221
 11
121.318977786
 21
120.9588592246
  0
LINE
  5
38E
100
AcDbEntity
  8
0
100
AcDbLine
 62
7
  6
CONTINUOUS
 10
121.2667643063
 20
119.7633300138
 11
121.0232010909
 21
119.7501035572
  0
LINE
  5
38F
100
AcDbEntity
  8
0
100
AcDbLine
 62
7
  6
CONTINUOUS
 10
98.532690934
 20
119.4554844913
 11
98.7973868899
 21
119.4420434162
  0
LINE
  5
390
100
AcDbEntity
  8
0
100
AcDbLine
 62
7
  6
CONTINUOUS
 10
122.8055209515
 20
116.1017387555
 11
122.9562086994
 21
116.0850072859
  0
LINE
  5
391
100
AcDbEntity
  8
0
100
AcDbLine
 62
7
  6
CONTINUOUS
 10
123.5474600738
 20
117.3597829199
 11
123.3967722194
 21
117.3765147567
  0
LINE
  5
392
100
AcDbEntity
  8
0
100
AcDbLine
 62
7
  6
CONTINUOUS
 10
124.0173930469
 20
115.8491019504
 11
123.8363714541
 21
115.8745598856
  0
LINE
  5
393
100
AcDbEntity
  8
0
100
AcDbLine
 62
7
  6
CONTINUOUS
 10
123.0072740302
 20
116.245008017
 11
122.7699787458
 21
116.3014777021
  0
LINE
  5
394
100
AcDbEntity
  8
0
100
AcDbLine
 62
7
  6
CONTINUOUS
 10
123.2984084134
 20
114.7529107406
 11
123.1836229773
 21
114.7941281779
  0
LINE
  5
395
100
AcDbEntity
  8
0
100
AcDbLine
 62
7
  6
CONTINUOUS
 10
123.0742975387
 20
114.6653249397
 11
123.2299164715
 21
114.5995596491
  0
LINE
  5
396
100
AcDbEntity
  8
0
100
AcDbLine
 62
7
  6
CONTINUOUS
 10
123.4382978678
 20
111.4500003815
 11
123.5744680882
 21
111.3833332062
  0
LINE
  5
397
100
AcDbEntity
  8
0
100
AcDbLine
 62
7
  6
CONTINUOUS
 10
123.6085106373
 20
111.5833332062
 11
123.5063829899
 21
111.6500003815
  0
LINE
  5
398
100
AcDbEntity
  8
0
100
AcDbLine
 62
7
  6
CONTINUOUS
 10
120.8939466519
 20
104.1113444269
 11
120.9707126679
 21
103.9806010907
  0
LINE
  5
399
100
AcDbEntity
  8
0
100
AcDbLine
 62
7
  6
CONTINUOUS
 10
121.1094744437
 20
104.1286013094
 11
121.061097725
 21
104.2405578264
  0
LWPOLYLINE
  5
39A
100
AcDbEntity
  8
RUNDUNGEN
100
AcDbPolyline
 62
7
  6
CONTINUOUS
 90
4
 70
0
 10
121.0533985779
 20
96.610398678
 10
121.0829819401
 20
96.5245161408
 10
121.1276821747
 20
96.4453407836
 10
121.1703613437
 20
96.3919101373
  0
LINE
  5
39B
100
AcDbEntity
  8
0
100
AcDbLine
 62
7
  6
CONTINUOUS
 10
119.2039221785
 20
121.7957104842
 11
119.2039892989
 21
121.9386442336
  0
LINE
  5
39C
100
AcDbEntity
  8
0
100
AcDbLine
 62
7
  6
CONTINUOUS
 10
119.5614828883
 20
122.4462665525
 11
119.5613934195
 21
122.2556882398
  0
LINE
  5
39D
100
AcDbEntity
  8
0
100
AcDbLine
 62
7
  6
CONTINUOUS
 10
120.1088433832
 20
121.528473758
 11
120.1089328095
 21
121.7190521124
  0
LINE
  5
39E
100
AcDbEntity
  8
RUNDUNGEN
100
AcDbLine
 62
7
  6
CONTINUOUS
 10
121.042928433
 20
127.3332715611
 11
120.9999647778
 21
126.9949877429
  0
LINE
  5
39F
100
AcDbEntity
  8
0
100
AcDbLine
 62
7
  6
CONTINUOUS
 10
120.513971466
 20
122.0370767055
 11
120.5378669994
 21
122.2043230087
  0
LINE
  5
3A0
100
AcDbEntity
  8
RUNDUNGEN
100
AcDbLine
 62
7
  6
CONTINUOUS
 10
120.9999607289
 20
126.9949882578
 11
120.9802292066
 21
126.8689267496
  0
LINE
  5
3A1
100
AcDbEntity
  8
0
100
AcDbLine
 62
7
  6
CONTINUOUS
 10
120.5621811551
 20
120.3214155429
 11
120.5389368582
 21
120.1803844773
  0
LINE
  5
3A2
100
AcDbEntity
  8
RUNDUNGEN
100
AcDbLine
 62
7
  6
CONTINUOUS
 10
121.0561040371
 20
127.4001438392
 11
121.0429723702
 21
127.3332659932
  0
LINE
  5
3A3
100
AcDbEntity
  8
0
100
AcDbLine
 62
7
  6
CONTINUOUS
 10
119.918350154
 20
121.6198406571
 11
119.8944769098
 21
121.5002389419
  0
LINE
  5
3A4
100
AcDbEntity
  8
0
100
AcDbLine
 62
7
  6
CONTINUOUS
 10
121.8743237544
 20
120.374033685
 11
121.7884200883
 21
120.1457387696
  0
LINE
  5
3A5
100
AcDbEntity
  8
0
100
AcDbLine
 62
7
  6
CONTINUOUS
 10
122.490136798
 20
116.9801716907
 11
122.4278076533
 21
116.8515437912
  0
LINE
  5
3A6
100
AcDbEntity
  8
0
100
AcDbLine
 62
7
  6
CONTINUOUS
 10
123.6472756559
 20
114.904444593
 11
123.5964708514
 21
114.8238284364
  0
LINE
  5
3A7
100
AcDbEntity
  8
0
100
AcDbLine
 62
7
  6
CONTINUOUS
 10
123.7632218326
 20
116.6580821936
 11
123.6160358707
 21
116.4635720417
  0
LINE
  5
3A8
100
AcDbEntity
  8
0
100
AcDbLine
 62
7
  6
CONTINUOUS
 10
124.2488605179
 20
114.8762593064
 11
124.3581859448
 21
115.0050625418
  0
LINE
  5
3A9
100
AcDbEntity
  8
0
100
AcDbLine
 62
7
  6
CONTINUOUS
 10
124.2025670237
 20
115.0708278352
 11
124.118643999
 21
114.9823326781
  0
LINE
  5
3AA
100
AcDbEntity
  8
0
100
AcDbLine
 62
7
  6
CONTINUOUS
 10
123.4382978678
 20
112.2833332062
 11
123.540425539
 21
112.3833332062
  0
LINE
  5
3AB
100
AcDbEntity
  8
0
100
AcDbLine
 62
7
  6
CONTINUOUS
 10
124.1531914711
 20
112.4833332062
 11
124.0170212746
 21
112.3500003815
  0
LINE
  5
3AC
100
AcDbEntity
  8
0
100
AcDbLine
 62
7
  6
CONTINUOUS
 10
123.880851078
 20
111.4500003815
 11
124.0170212746
 21
111.5833332062
  0
LWPOLYLINE
  5
3AD
100
AcDbEntity
  8
RUNDUNGEN
100
AcDbPolyline
 62
7
  6
CONTINUOUS
 90
5
 70
0
 10
102.2424883028
 20
94.7698723866
 10
102.19891359
 20
94.7326753724
 10
102.1393288121
 20
94.6641141606
 10
102.0931110587
 20
94.5858149433
 10
102.0681783463
 20
94.5221383755
  0
LINE
  5
3AE
100
AcDbEntity
  8
RUNDUNGEN
100
AcDbLine
 62
7
  6
CONTINUOUS
 10
102.6182075039
 20
95.0606151537
 11
102.5139425576
 21
94.9762565549
  0
LINE
  5
3AF
100
AcDbEntity
  8
RUNDUNGEN
100
AcDbLine
 62
7
  6
CONTINUOUS
 10
102.5139420745
 20
94.9762571905
 11
102.2424615018
 21
94.7699076494
  0
LINE
  5
3B0
100
AcDbEntity
  8
0
100
AcDbLine
 62
7
  6
CONTINUOUS
 10
124.5276596069
 20
111.5166667938
 11
124.6638298035
 21
111.6166667938
  0
LINE
  5
3B1
100
AcDbEntity
  8
0
100
AcDbLine
 62
7
  6
CONTINUOUS
 10
123.8127659798
 20
111.6500003815
 11
123.7106382847
 21
111.5833332062
  0
LINE
  5
3B2
100
AcDbEntity
  8
0
100
AcDbLine
 62
7
  6
CONTINUOUS
 10
124.3678157758
 20
109.7731094412
 11
124.5144469129
 21
109.8570238742
  0
LINE
  5
3B3
100
AcDbEntity
  8
0
100
AcDbLine
 62
7
  6
CONTINUOUS
 10
124.0215506691
 20
108.1568084472
 11
124.1768354603
 21
108.2233588497
  0
LINE
  5
3B4
100
AcDbEntity
  8
RUNDUNGEN
100
AcDbLine
 62
7
  6
CONTINUOUS
 10
128.8004669115
 20
110.1031792254
 11
128.4860227037
 21
109.9712449332
  0
LWPOLYLINE
  5
3B5
100
AcDbEntity
  8
RUNDUNGEN
100
AcDbPolyline
 62
7
  6
CONTINUOUS
 90
5
 70
0
 10
128.486021145
 20
109.9712486497
 10
128.3671161239
 20
109.9253531666
 10
128.1293733483
 20
109.8559689634
 10
127.8779545673
 20
109.812185511
 10
127.7029501001
 20
109.7980887946
  0
LINE
  5
3B6
100
AcDbEntity
  8
0
100
AcDbLine
 62
7
  6
CONTINUOUS
 10
121.3154408162
 20
120.7909446345
 11
121.5590042021
 21
120.8041709796
  0
LINE
  5
3B7
100
AcDbEntity
  8
0
100
AcDbLine
 62
7
  6
CONTINUOUS
 10
119.6085357298
 20
121.2084880677
 11
119.7990737485
 21
121.2124102876
  0
LINE
  5
3B8
100
AcDbEntity
  8
0
100
AcDbLine
 62
7
  6
CONTINUOUS
 10
99.3321495378
 20
119.796381409
 11
98.4940273108
 21
119.7833112618
  0
LINE
  5
3B9
100
AcDbEntity
  8
0
100
AcDbLine
 62
7
  6
CONTINUOUS
 10
120.6740477601
 20
121.5021345646
 11
120.9851164266
 21
121.5068454679
  0
LINE
  5
3BA
100
AcDbEntity
  8
0
100
AcDbLine
 62
7
  6
CONTINUOUS
 10
121.1910471137
 20
121.6850639904
 11
120.8799785193
 21
121.6803531496
  0
LINE
  5
3BB
100
AcDbEntity
  8
0
100
AcDbLine
 62
7
  6
CONTINUOUS
 10
120.9725012285
 20
119.5889457164
 11
121.1139902307
 21
119.5686754696
  0
LINE
  5
3BC
100
AcDbEntity
  8
0
100
AcDbLine
 62
7
  6
CONTINUOUS
 10
123.3457067989
 20
117.2165139933
 11
123.5830022795
 21
117.1600439734
  0
LINE
  5
3BD
100
AcDbEntity
  8
0
100
AcDbLine
 62
7
  6
CONTINUOUS
 10
121.7982680282
 20
118.3790837821
 11
123.3389724589
 21
117.8787267145
  0
LINE
  5
3BE
100
AcDbEntity
  8
0
100
AcDbLine
 62
7
  6
CONTINUOUS
 10
123.3258347026
 20
118.058283948
 11
121.770306419
 21
118.5884966017
  0
LWPOLYLINE
  5
3BF
100
AcDbEntity
  8
RUNDUNGEN
100
AcDbPolyline
 62
7
  6
CONTINUOUS
 90
5
 70
0
 10
128.8004840722
 20
113.8968616068
 10
128.8544849879
 20
113.8777233056
 10
128.943653128
 20
113.8604019802
 10
129.034571116
 20
113.8595258403
 10
129.1021829975
 20
113.8697717618
  0
LINE
  5
3C0
100
AcDbEntity
  8
0
100
AcDbLine
 62
7
  6
CONTINUOUS
 10
123.9489011281
 20
115.6957508644
 11
124.0636865411
 21
115.6545334216
  0
LINE
  5
3C1
100
AcDbEntity
  8
RUNDUNGEN
100
AcDbLine
 62
7
  6
CONTINUOUS
 10
128.4860227033
 20
114.028755067
 11
128.8004669342
 21
113.896820765
  0
LINE
  5
3C2
100
AcDbEntity
  8
0
100
AcDbLine
 62
7
  6
CONTINUOUS
 10
124.173011968
 20
115.783336657
 11
124.0173930469
 21
115.8491019504
  0
LINE
  5
3C3
100
AcDbEntity
  8
0
100
AcDbLine
 62
7
  6
CONTINUOUS
 10
122.6756095066
 20
116.1613464337
 11
122.8055209515
 21
116.1017387555
  0
LINE
  5
3C4
100
AcDbEntity
  8
0
100
AcDbLine
 62
7
  6
CONTINUOUS
 10
123.4190123392
 20
115.5696749583
 11
123.5006797087
 21
115.5205777727
  0
LINE
  5
3C5
100
AcDbEntity
  8
RUNDUNGEN
100
AcDbLine
 62
7
  6
CONTINUOUS
 10
102.2424615215
 20
129.2300923356
 11
102.5139420738
 21
129.0237428099
  0
LWPOLYLINE
  5
3C6
100
AcDbEntity
  8
RUNDUNGEN
100
AcDbPolyline
 62
7
  6
CONTINUOUS
 90
3
 70
0
 10
102.5139391714
 20
129.0237389928
 10
102.6138872697
 20
128.9430624809
 10
102.636013807
 20
128.9238634447
  0
LINE
  5
3C7
100
AcDbEntity
  8
0
100
AcDbLine
 62
7
  6
CONTINUOUS
 10
123.9056330674
 20
109.9265065877
 11
124.0295858196
 21
109.8117109535
  0
LINE
  5
3C8
100
AcDbEntity
  8
0
100
AcDbLine
 62
7
  6
CONTINUOUS
 10
123.3021276593
 20
111.5833332062
 11
123.4382978678
 21
111.4500003815
  0
LINE
  5
3C9
100
AcDbEntity
  8
0
100
AcDbLine
 62
7
  6
CONTINUOUS
 10
123.5800018526
 20
108.362181725
 11
123.6899764013
 21
108.2339322764
  0
LINE
  5
3CA
100
AcDbEntity
  8
0
100
AcDbLine
 62
7
  6
CONTINUOUS
 10
124.0860871905
 20
110.0065608707
 11
124.0260007375
 21
110.0805183654
  0
LINE
  5
3CB
100
AcDbEntity
  8
0
100
AcDbLine
 62
7
  6
CONTINUOUS
 10
123.7684440612
 20
108.4210197467
 11
123.7172327556
 21
108.5013782872
  0
LINE
  5
3CC
100
AcDbEntity
  8
0
100
AcDbLine
 62
7
  6
CONTINUOUS
 10
122.3437678848
 20
105.2708420642
 11
122.4205006682
 21
105.1203282696
  0
LINE
  5
3CD
100
AcDbEntity
  8
0
100
AcDbLine
 62
7
  6
CONTINUOUS
 10
122.540761774
 20
105.2837178702
 11
122.5098821779
 21
105.3738640846
  0
LINE
  5
3CE
100
AcDbEntity
  8
0
100
AcDbLine
 62
7
  6
CONTINUOUS
 10
120.8539709172
 20
104.2976825831
 11
120.8939466519
 21
104.1113444269
  0
LINE
  5
3CF
100
AcDbEntity
  8
0
100
AcDbLine
 62
7
  6
CONTINUOUS
 10
121.3205448927
 20
103.2781240435
 11
121.3829922478
 21
102.9733516109
  0
LINE
  5
3D0
100
AcDbEntity
  8
0
100
AcDbLine
 62
7
  6
CONTINUOUS
 10
121.5963816489
 20
102.8041350242
 11
121.5339343686
 21
103.1089073977
  0
LINE
  5
3D1
100
AcDbEntity
  8
RUNDUNGEN
100
AcDbLine
 62
7
  6
CONTINUOUS
 10
121.0429723751
 20
96.6667339934
 11
121.0533985779
 21
96.610398678
  0
LINE
  5
3D2
100
AcDbEntity
  8
RUNDUNGEN
100
AcDbLine
 62
7
  6
CONTINUOUS
 10
120.9999647777
 20
97.0050122575
 11
121.0429284361
 21
96.6667284145
  0
LINE
  5
3D3
100
AcDbEntity
  8
0
100
AcDbLine
 62
7
  6
CONTINUOUS
 10
120.5389368582
 20
120.1803844773
 11
120.5551074654
 21
119.9855863093
  0
LINE
  5
3D4
100
AcDbEntity
  8
0
100
AcDbLine
 62
7
  6
CONTINUOUS
 10
120.7120928167
 20
120.0593365684
 11
120.7078815386
 21
120.1802408517
  0
LINE
  5
3D5
100
AcDbEntity
  8
0
100
AcDbLine
 62
7
  6
CONTINUOUS
 10
121.8701124763
 20
120.4949379684
 11
121.8743237544
 21
120.374033685
  0
LINE
  5
3D6
100
AcDbEntity
  8
0
100
AcDbLine
 62
7
  6
CONTINUOUS
 10
121.061097725
 20
104.2405578264
 11
121.0595053995
 21
104.3615249639
  0
LINE
  5
3D7
100
AcDbEntity
  8
0
100
AcDbLine
 62
7
  6
CONTINUOUS
 10
122.3428375275
 20
105.4205496365
 11
122.3437678848
 21
105.2708420642
  0
LINE
  5
3D8
100
AcDbEntity
  8
0
100
AcDbLine
 62
7
  6
CONTINUOUS
 10
120.3473513796
 20
122.2480453525
 11
120.3473066664
 21
122.1527561753
  0
LINE
  5
3D9
100
AcDbEntity
  8
0
100
AcDbLine
 62
7
  6
CONTINUOUS
 10
120.8707745819
 20
104.4464483981
 11
120.8539709172
 21
104.2976825831
  0
LINE
  5
3DA
100
AcDbEntity
  8
0
100
AcDbLine
 62
7
  6
CONTINUOUS
 10
122.0200240251
 20
120.2328591478
 11
122.0432684252
 21
120.3738900525
  0
LINE
  5
3DB
100
AcDbEntity
  8
0
100
AcDbLine
 62
7
  6
CONTINUOUS
 10
122.4278076533
 20
116.8515437912
 11
122.3880059879
 21
116.6601705805
  0
LINE
  5
3DC
100
AcDbEntity
  8
0
100
AcDbLine
 62
7
  6
CONTINUOUS
 10
122.5594701538
 20
116.6863149553
 11
122.5897591927
 21
116.8034394819
  0
LINE
  5
3DD
100
AcDbEntity
  8
0
100
AcDbLine
 62
7
  6
CONTINUOUS
 10
123.7935108715
 20
116.7752067202
 11
123.7632218326
 21
116.6580821936
  0
LINE
  5
3DE
100
AcDbEntity
  8
0
100
AcDbLine
 62
7
  6
CONTINUOUS
 10
122.8814080973
 20
115.4760266482
 11
122.8206318111
 21
115.2902472246
  0
LINE
  5
3DF
100
AcDbEntity
  8
0
100
AcDbLine
 62
7
  6
CONTINUOUS
 10
123.802894577
 20
114.8386792996
 11
123.8636708546
 21
115.0244587211
  0
LINE
  5
3E0
100
AcDbEntity
  8
0
100
AcDbLine
 62
7
  6
CONTINUOUS
 10
122.9939376901
 20
115.2972176077
 11
123.03702703
 21
115.4102613576
  0
LINE
  5
3E1
100
AcDbEntity
  8
0
100
AcDbLine
 62
7
  6
CONTINUOUS
 10
123.6903649958
 20
115.0174883429
 11
123.6472756559
 21
114.904444593
  0
LINE
  5
3E2
100
AcDbEntity
  8
0
100
AcDbLine
 62
7
  6
CONTINUOUS
 10
124.2456563636
 20
115.1838715851
 11
124.2025670237
 21
115.0708278352
  0
LINE
  5
3E3
100
AcDbEntity
  8
0
100
AcDbLine
 62
7
  6
CONTINUOUS
 10
123.8628442273
 20
116.4813499848
 11
123.9251733607
 21
116.6099778802
  0
LINE
  5
3E4
100
AcDbEntity
  8
0
100
AcDbLine
 62
7
  6
CONTINUOUS
 10
124.0170212746
 20
112.3500003815
 11
123.9489361763
 21
112.2166667938
  0
LINE
  5
3E5
100
AcDbEntity
  8
0
100
AcDbLine
 62
7
  6
CONTINUOUS
 10
123.3361702085
 20
112.4833332062
 11
123.2340425521
 21
112.3166667938
  0
LINE
  5
3E6
100
AcDbEntity
  8
0
100
AcDbLine
 62
7
  6
CONTINUOUS
 10
123.7266871936
 20
114.717755807
 11
123.802894577
 21
114.8386792996
  0
LINE
  5
3E7
100
AcDbEntity
  8
0
100
AcDbLine
 62
7
  6
CONTINUOUS
 10
124.1531914711
 20
112.1833332062
 11
124.2212765694
 21
112.2833332062
  0
LINE
  5
3E8
100
AcDbEntity
  8
0
100
AcDbLine
 62
7
  6
CONTINUOUS
 10
123.880851078
 20
111.7500003815
 11
123.8127659798
 21
111.6500003815
  0
LINE
  5
3E9
100
AcDbEntity
  8
0
100
AcDbLine
 62
7
  6
CONTINUOUS
 10
124.6638298035
 20
111.6166667938
 11
124.7659574509
 21
111.7500003815
  0
LINE
  5
3EA
100
AcDbEntity
  8
0
100
AcDbLine
 62
7
  6
CONTINUOUS
 10
124.5144469129
 20
109.8570238742
 11
124.6310347369
 21
109.9779162967
  0
LINE
  5
3EB
100
AcDbEntity
  8
0
100
AcDbLine
 62
7
  6
CONTINUOUS
 10
124.5617021561
 20
111.7833332062
 11
124.4936170578
 21
111.7166667938
  0
LINE
  5
3EC
100
AcDbEntity
  8
0
100
AcDbLine
 62
7
  6
CONTINUOUS
 10
124.1768354603
 20
108.2233588497
 11
124.3065144257
 21
108.3300877793
  0
LINE
  5
3ED
100
AcDbEntity
  8
0
100
AcDbLine
 62
7
  6
CONTINUOUS
 10
124.4656996523
 20
110.0303364027
 11
124.3904941607
 21
109.9718195085
  0
LINE
  5
3EE
100
AcDbEntity
  8
0
100
AcDbLine
 62
7
  6
CONTINUOUS
 10
124.1482792758
 20
108.4011173157
 11
124.0668609115
 21
108.3516082982
  0
LWPOLYLINE
  5
3EF
100
AcDbEntity
  8
RUNDUNGEN
100
AcDbPolyline
 62
7
  6
CONTINUOUS
 90
3
 70
0
 10
102.9070521931
 20
95.1384864792
 10
102.8352720261
 20
95.0985658474
 10
102.6201991298
 20
94.9588016066
  0
LINE
  5
3F0
100
AcDbEntity
  8
0
100
AcDbLine
 62
7
  6
CONTINUOUS
 10
122.8912213154
 20
104.9955660441
 11
123.0423613319
 21
105.0688080672
  0
LINE
  5
3F1
100
AcDbEntity
  8
0
100
AcDbLine
 62
7
  6
CONTINUOUS
 10
121.9963516932
 20
103.7415602739
 11
121.8843868892
 21
103.6957403736
  0
LINE
  5
3F2
100
AcDbEntity
  8
0
100
AcDbLine
 62
7
  6
CONTINUOUS
 10
122.9052652348
 20
105.1750536137
 11
122.814488532
 21
105.1460798388
  0
LINE
  5
3F3
100
AcDbEntity
  8
0
100
AcDbLine
 62
7
  6
CONTINUOUS
 10
120.0379620779
 20
122.7419397223
 11
119.8474241101
 21
122.7380174692
  0
LINE
  5
3F4
100
AcDbEntity
  8
0
100
AcDbLine
 62
7
  6
CONTINUOUS
 10
121.6097040549
 20
120.9653288133
 11
121.4682149495
 21
120.985599221
  0
LINE
  5
3F5
100
AcDbEntity
  8
0
100
AcDbLine
 62
7
  6
CONTINUOUS
 10
119.7038942544
 20
121.4010274865
 11
119.5848191935
 21
121.4223983483
  0
LINE
  5
3F6
100
AcDbEntity
  8
0
100
AcDbLine
 62
7
  6
CONTINUOUS
 10
119.9426036124
 20
122.5494002956
 11
120.0616786736
 21
122.5280294001
  0
LINE
  5
3F7
100
AcDbEntity
  8
0
100
AcDbLine
 62
7
  6
CONTINUOUS
 10
119.4656546404
 20
121.2531909246
 11
119.6085357298
 21
121.2084880677
  0
LINE
  5
3F8
100
AcDbEntity
  8
0
100
AcDbLine
 62
7
  6
CONTINUOUS
 10
121.0232010909
 20
119.7501035572
 11
120.909167551
 21
119.79050074
  0
LINE
  5
3F9
100
AcDbEntity
  8
0
100
AcDbLine
 62
7
  6
CONTINUOUS
 10
121.5590042021
 20
120.8041709796
 11
121.673037742
 21
120.7637737968
  0
LINE
  5
3FA
100
AcDbEntity
  8
0
100
AcDbLine
 62
7
  6
CONTINUOUS
 10
120.7915971014
 20
119.6629833768
 11
120.9725012285
 21
119.5889457164
  0
LINE
  5
3FB
100
AcDbEntity
  8
0
100
AcDbLine
 62
7
  6
CONTINUOUS
 10
123.6773715074
 20
117.3001752377
 11
123.5474600738
 21
117.3597829199
  0
LINE
  5
3FC
100
AcDbEntity
  8
0
100
AcDbLine
 62
7
  6
CONTINUOUS
 10
122.7699787458
 20
116.3014777021
 11
122.6721074067
 21
116.3725887532
  0
LINE
  5
3FD
100
AcDbEntity
  8
0
100
AcDbLine
 62
7
  6
CONTINUOUS
 10
123.5830022795
 20
117.1600439734
 11
123.6808736186
 21
117.0889329223
  0
LINE
  5
3FE
100
AcDbEntity
  8
0
100
AcDbLine
 62
7
  6
CONTINUOUS
 10
122.5231704593
 20
116.2836997842
 11
122.6756095066
 21
116.1613464337
  0
LINE
  5
3FF
100
AcDbEntity
  8
0
100
AcDbLine
 62
7
  6
CONTINUOUS
 10
123.1836229773
 20
114.7941281779
 11
123.0942401432
 21
114.8756529568
  0
LINE
  5
400
100
AcDbEntity
  8
0
100
AcDbLine
 62
7
  6
CONTINUOUS
 10
123.5006797087
 20
115.5205777727
 11
123.5900625428
 21
115.4390529938
  0
LINE
  5
401
100
AcDbEntity
  8
0
100
AcDbLine
 62
7
  6
CONTINUOUS
 10
123.7479371191
 20
115.5108800431
 11
123.5691714509
 21
115.6739296009
  0
LINE
  5
402
100
AcDbEntity
  8
0
100
AcDbLine
 62
7
  6
CONTINUOUS
 10
124.0636865411
 20
115.6545334216
 11
124.1530693752
 21
115.5730086427
  0
LINE
  5
403
100
AcDbEntity
  8
0
100
AcDbLine
 62
7
  6
CONTINUOUS
 10
124.6978723526
 20
112.3500003815
 11
124.5617021561
 21
112.4833332062
  0
LINE
  5
404
100
AcDbEntity
  8
0
100
AcDbLine
 62
7
  6
CONTINUOUS
 10
122.9363655466
 20
114.8038259027
 11
123.0742975387
 21
114.6653249397
  0
LINE
  5
405
100
AcDbEntity
  8
0
100
AcDbLine
 62
7
  6
CONTINUOUS
 10
123.5063829899
 20
111.6500003815
 11
123.4382978678
 21
111.7500003815
  0
LINE
  5
406
100
AcDbEntity
  8
0
100
AcDbLine
 62
7
  6
CONTINUOUS
 10
124.4936170578
 20
112.2833332062
 11
124.5617021561
 21
112.1833332062
  0
LINE
  5
407
100
AcDbEntity
  8
0
100
AcDbLine
 62
7
  6
CONTINUOUS
 10
123.0942401432
 20
114.8756529568
 11
123.0379753525
 21
114.9650574784
  0
LINE
  5
408
100
AcDbEntity
  8
0
100
AcDbLine
 62
7
  6
CONTINUOUS
 10
123.8192829744
 20
110.0705599111
 11
123.9056330674
 21
109.9265065877
  0
LINE
  5
409
100
AcDbEntity
  8
0
100
AcDbLine
 62
7
  6
CONTINUOUS
 10
123.2340425521
 20
111.7166667938
 11
123.3021276593
 21
111.5833332062
  0
LINE
  5
40A
100
AcDbEntity
  8
0
100
AcDbLine
 62
7
  6
CONTINUOUS
 10
119.5613934195
 20
122.2556882398
 11
119.6089608013
 21
122.113735077
  0
LINE
  5
40B
100
AcDbEntity
  8
0
100
AcDbLine
 62
7
  6
CONTINUOUS
 10
118.9896005199
 20
121.8627647956
 11
119.0371455303
 21
121.6731670461
  0
LINE
  5
40C
100
AcDbEntity
  8
0
100
AcDbLine
 62
7
  6
CONTINUOUS
 10
123.5438937306
 20
108.5074725584
 11
123.5800018526
 21
108.362181725
  0
LINE
  5
40D
100
AcDbEntity
  8
0
100
AcDbLine
 62
7
  6
CONTINUOUS
 10
119.7757374518
 20
122.2362784834
 11
119.751976109
 21
122.3548996618
  0
LINE
  5
40E
100
AcDbEntity
  8
0
100
AcDbLine
 62
7
  6
CONTINUOUS
 10
119.8945888282
 20
121.7384618188
 11
119.918350154
 21
121.6198406571
  0
LINE
  5
40F
100
AcDbEntity
  8
0
100
AcDbLine
 62
7
  6
CONTINUOUS
 10
120.5378669994
 20
122.2043230087
 11
120.5141280642
 21
122.3705887256
  0
LINE
  5
410
100
AcDbEntity
  8
0
100
AcDbLine
 62
7
  6
CONTINUOUS
 10
123.7172327556
 20
108.5013782872
 11
123.7067304593
 21
108.6064905935
  0
LINE
  5
411
100
AcDbEntity
  8
0
100
AcDbLine
 62
7
  6
CONTINUOUS
 10
123.8043587
 20
110.2400122894
 11
123.8192829744
 21
110.0705599111
  0
LINE
  5
412
100
AcDbEntity
  8
0
100
AcDbLine
 62
7
  6
CONTINUOUS
 10
122.0432684252
 20
120.3738900525
 11
122.027097698
 21
120.568688369
  0
LINE
  5
413
100
AcDbEntity
  8
0
100
AcDbLine
 62
7
  6
CONTINUOUS
 10
122.8206318111
 20
115.2902472246
 11
122.8260916176
 21
115.1202272879
  0
LINE
  5
414
100
AcDbEntity
  8
0
100
AcDbLine
 62
7
  6
CONTINUOUS
 10
123.8636708546
 20
115.0244587211
 11
123.8582110451
 21
115.1944786571
  0
LINE
  5
415
100
AcDbEntity
  8
0
100
AcDbLine
 62
7
  6
CONTINUOUS
 10
124.4189620457
 20
115.1908427056
 11
124.4135022363
 21
115.3608626416
  0
LINE
  5
416
100
AcDbEntity
  8
0
100
AcDbLine
 62
7
  6
CONTINUOUS
 10
123.2
 20
112.1500003815
 11
123.2
 21
111.8833332062
  0
LINE
  5
417
100
AcDbEntity
  8
0
100
AcDbLine
 62
7
  6
CONTINUOUS
 10
123.4042553186
 20
111.8833332062
 11
123.4042553186
 21
112.1500003815
  0
LINE
  5
418
100
AcDbEntity
  8
0
100
AcDbLine
 62
7
  6
CONTINUOUS
 10
123.6425531864
 20
112.4166667938
 11
123.6425531864
 21
112.6166667938
  0
LINE
  5
419
100
AcDbEntity
  8
0
100
AcDbLine
 62
7
  6
CONTINUOUS
 10
123.9148936272
 20
112.0833332062
 11
123.9148936272
 21
111.8833332062
  0
LINE
  5
41A
100
AcDbEntity
  8
0
100
AcDbLine
 62
7
  6
CONTINUOUS
 10
124.119148922
 20
111.8833332062
 11
124.119148922
 21
112.0833332062
  0
LINE
  5
41B
100
AcDbEntity
  8
0
100
AcDbLine
 62
7
  6
CONTINUOUS
 10
124.4255319595
 20
111.6833332062
 11
124.4255319595
 21
111.4833332062
  0
LINE
  5
41C
100
AcDbEntity
  8
0
100
AcDbLine
 62
7
  6
CONTINUOUS
 10
124.5957447052
 20
112.0833332062
 11
124.5957447052
 21
111.8833332062
  0
LINE
  5
41D
100
AcDbEntity
  8
0
100
AcDbLine
 62
7
  6
CONTINUOUS
 10
124.8
 20
111.9166667938
 11
124.8
 21
112.0833332062
  0
LINE
  5
41E
100
AcDbEntity
  8
0
100
AcDbLine
 62
7
  6
CONTINUOUS
 10
122.9839663937
 20
115.1920536005
 11
122.9939376901
 21
115.2972176077
  0
LINE
  5
41F
100
AcDbEntity
  8
0
100
AcDbLine
 62
7
  6
CONTINUOUS
 10
123.7003362922
 20
115.1226523501
 11
123.6903649958
 21
115.0174883429
  0
LINE
  5
420
100
AcDbEntity
  8
0
100
AcDbLine
 62
7
  6
CONTINUOUS
 10
124.25562766
 20
115.2890355923
 11
124.2456563636
 21
115.1838715851
  0
LINE
  5
421
100
AcDbEntity
  8
0
100
AcDbLine
 62
7
  6
CONTINUOUS
 10
123.1847894354
 20
111.1159157227
 11
123.1621110505
 21
110.9172056553
  0
LINE
  5
422
100
AcDbEntity
  8
0
100
AcDbLine
 62
7
  6
CONTINUOUS
 10
123.8723938545
 20
110.8361424914
 11
123.8043587
 21
110.2400122894
  0
LINE
  5
423
100
AcDbEntity
  8
0
100
AcDbLine
 62
7
  6
CONTINUOUS
 10
124.0035169438
 20
110.1837335492
 11
124.0753317714
 21
110.8129815905
  0
LINE
  5
424
100
AcDbEntity
  8
0
100
AcDbLine
 62
7
  6
CONTINUOUS
 10
124.5826766585
 20
110.7550793274
 11
124.5108618308
 21
110.1258312862
  0
LINE
  5
425
100
AcDbEntity
  8
0
100
AcDbLine
 62
7
  6
CONTINUOUS
 10
124.6837564347
 20
110.1396483746
 11
124.7744699741
 21
110.934488644
  0
LINE
  5
426
100
AcDbEntity
  8
0
100
AcDbLine
 62
7
  6
CONTINUOUS
 10
122.5098821779
 20
105.3738640846
 11
122.5243916187
 21
105.4784985496
  0
LINE
  5
427
100
AcDbEntity
  8
RUNDUNGEN
100
AcDbLine
 62
7
  6
CONTINUOUS
 10
126.0874894345
 20
128.8205786121
 11
126.094409384
 21
128.8608799662
  0
LINE
  5
428
100
AcDbEntity
  8
RUNDUNGEN
100
AcDbLine
 62
7
  6
CONTINUOUS
 10
125.9990511583
 20
128.9023402358
 11
125.8817348073
 21
128.2677544981
  0
LINE
  5
429
100
AcDbEntity
  8
RUNDUNGEN
100
AcDbLine
 62
7
  6
CONTINUOUS
 10
126.0944030582
 20
128.8608811355
 11
126.098663174
 21
128.8839248862
  0
LINE
  5
42A
100
AcDbEntity
  8
0
100
AcDbLine
 62
7
  6
CONTINUOUS
 10
123.2340425521
 20
112.3166667938
 11
123.2
 21
112.1500003815
  0
LINE
  5
42B
100
AcDbEntity
  8
0
100
AcDbLine
 62
7
  6
CONTINUOUS
 10
124.0851063728
 20
111.7166667938
 11
124.119148922
 21
111.8833332062
  0
LINE
  5
42C
100
AcDbEntity
  8
0
100
AcDbLine
 62
7
  6
CONTINUOUS
 10
124.7659574509
 20
111.7500003815
 11
124.8
 21
111.9166667938
  0
LINE
  5
42D
100
AcDbEntity
  8
0
100
AcDbLine
 62
7
  6
CONTINUOUS
 10
123.9251733607
 20
116.6099778802
 11
123.9649748889
 21
116.8013514469
  0
LINE
  5
42E
100
AcDbEntity
  8
0
100
AcDbLine
 62
7
  6
CONTINUOUS
 10
123.0002726555
 20
109.6263904459
 11
122.9549624132
 21
109.4315905949
  0
LINE
  5
42F
100
AcDbEntity
  8
0
100
AcDbLine
 62
7
  6
CONTINUOUS
 10
122.7661698518
 20
108.6199250447
 11
122.7133076719
 21
108.3926575611
  0
LINE
  5
430
100
AcDbEntity
  8
0
100
AcDbLine
 62
7
  6
CONTINUOUS
 10
123.6512682733
 20
109.2696305774
 11
123.522889138
 21
108.7176971709
  0
LINE
  5
431
100
AcDbEntity
  8
0
100
AcDbLine
 62
7
  6
CONTINUOUS
 10
123.7067304593
 20
108.6064905935
 11
123.8502127782
 21
109.2233562928
  0
LINE
  5
432
100
AcDbEntity
  8
0
100
AcDbLine
 62
7
  6
CONTINUOUS
 10
124.3475741334
 20
109.1076705598
 11
124.2040918145
 21
108.4908048605
  0
LINE
  5
433
100
AcDbEntity
  8
0
100
AcDbLine
 62
7
  6
CONTINUOUS
 10
124.3774304938
 20
108.4847091031
 11
124.5586714633
 21
109.2639085069
  0
LINE
  5
434
100
AcDbEntity
  8
0
100
AcDbLine
 62
7
  6
CONTINUOUS
 10
123.4042553186
 20
112.1500003815
 11
123.4382978678
 21
112.2833332062
  0
LINE
  5
435
100
AcDbEntity
  8
0
100
AcDbLine
 62
7
  6
CONTINUOUS
 10
123.9489361763
 20
112.2166667938
 11
123.9148936272
 21
112.0833332062
  0
LINE
  5
436
100
AcDbEntity
  8
0
100
AcDbLine
 62
7
  6
CONTINUOUS
 10
123.9148936272
 20
111.8833332062
 11
123.880851078
 21
111.7500003815
  0
LINE
  5
437
100
AcDbEntity
  8
0
100
AcDbLine
 62
7
  6
CONTINUOUS
 10
124.6310347369
 20
109.9779162967
 11
124.6837564347
 21
110.1396483746
  0
LINE
  5
438
100
AcDbEntity
  8
0
100
AcDbLine
 62
7
  6
CONTINUOUS
 10
124.3581859448
 20
115.0050625418
 11
124.4189620457
 21
115.1908427056
  0
LINE
  5
439
100
AcDbEntity
  8
0
100
AcDbLine
 62
7
  6
CONTINUOUS
 10
124.119148922
 20
112.0833332062
 11
124.1531914711
 21
112.1833332062
  0
LINE
  5
43A
100
AcDbEntity
  8
0
100
AcDbLine
 62
7
  6
CONTINUOUS
 10
124.5957447052
 20
111.8833332062
 11
124.5617021561
 21
111.7833332062
  0
LINE
  5
43B
100
AcDbEntity
  8
0
100
AcDbLine
 62
7
  6
CONTINUOUS
 10
121.0595053995
 20
104.3615249639
 11
121.104697507
 21
104.4915026955
  0
LINE
  5
43C
100
AcDbEntity
  8
0
100
AcDbLine
 62
7
  6
CONTINUOUS
 10
120.9343618226
 20
104.6042235446
 11
120.8707745819
 21
104.4464483981
  0
LINE
  5
43D
100
AcDbEntity
  8
0
100
AcDbLine
 62
7
  6
CONTINUOUS
 10
124.3065144257
 20
108.3300877793
 11
124.3774304938
 21
108.4847091031
  0
LINE
  5
43E
100
AcDbEntity
  8
0
100
AcDbLine
 62
7
  6
CONTINUOUS
 10
124.5108618308
 20
110.1258312862
 11
124.4656996523
 21
110.0303364027
  0
LINE
  5
43F
100
AcDbEntity
  8
0
100
AcDbLine
 62
7
  6
CONTINUOUS
 10
122.0775746017
 20
106.6359247606
 11
121.9877275706
 21
106.4572420502
  0
LINE
  5
440
100
AcDbEntity
  8
0
100
AcDbLine
 62
7
  6
CONTINUOUS
 10
121.6133644843
 20
105.7127298479
 11
121.5085431765
 21
105.5042671401
  0
LINE
  5
441
100
AcDbEntity
  8
0
100
AcDbLine
 62
7
  6
CONTINUOUS
 10
122.6264232255
 20
106.1360867006
 11
122.3718564091
 21
105.6298185666
  0
LINE
  5
442
100
AcDbEntity
  8
0
100
AcDbLine
 62
7
  6
CONTINUOUS
 10
122.5243916187
 20
105.4784985496
 11
122.808907674
 21
106.0443280415
  0
LINE
  5
443
100
AcDbEntity
  8
0
100
AcDbLine
 62
7
  6
CONTINUOUS
 10
123.2651188804
 20
105.814931351
 11
122.9806028251
 21
105.2491018591
  0
LINE
  5
444
100
AcDbEntity
  8
0
100
AcDbLine
 62
7
  6
CONTINUOUS
 10
123.147648161
 20
105.2024176704
 11
123.5070362852
 21
105.9171485122
  0
LINE
  5
445
100
AcDbEntity
  8
0
100
AcDbLine
 62
7
  6
CONTINUOUS
 10
124.0170212746
 20
111.5833332062
 11
124.0851063728
 21
111.7166667938
  0
LINE
  5
446
100
AcDbEntity
  8
0
100
AcDbLine
 62
7
  6
CONTINUOUS
 10
124.2040918145
 20
108.4908048605
 11
124.1482792758
 21
108.4011173157
  0
LINE
  5
447
100
AcDbEntity
  8
0
100
AcDbLine
 62
7
  6
CONTINUOUS
 10
121.3758518162
 20
105.2713716433
 11
120.9343618226
 21
104.6042235446
  0
LINE
  5
448
100
AcDbEntity
  8
0
100
AcDbLine
 62
7
  6
CONTINUOUS
 10
121.104697507
 20
104.4915026955
 11
121.4358150021
 21
104.9918637695
  0
LINE
  5
449
100
AcDbEntity
  8
0
100
AcDbLine
 62
7
  6
CONTINUOUS
 10
122.4294398507
 20
104.3343254675
 11
122.0983223555
 21
103.8339643935
  0
LINE
  5
44A
100
AcDbEntity
  8
0
100
AcDbLine
 62
7
  6
CONTINUOUS
 10
122.26865802
 20
103.7212435575
 11
122.7101480136
 21
104.3883916562
  0
LINE
  5
44B
100
AcDbEntity
  8
0
100
AcDbLine
 62
7
  6
CONTINUOUS
 10
123.0423613319
 20
105.0688080672
 11
123.147648161
 21
105.2024176704
  0
LINE
  5
44C
100
AcDbEntity
  8
0
100
AcDbLine
 62
7
  6
CONTINUOUS
 10
120.342718768
 20
103.7982825892
 11
120.2184503223
 21
103.6415747291
  0
LINE
  5
44D
100
AcDbEntity
  8
0
100
AcDbLine
 62
7
  6
CONTINUOUS
 10
121.4721132033
 20
102.6474271641
 11
121.5963816489
 21
102.8041350242
  0
LINE
  5
44E
100
AcDbEntity
  8
0
100
AcDbLine
 62
7
  6
CONTINUOUS
 10
120.0466442989
 20
103.4375857184
 11
119.9157650646
 21
103.2863553444
  0
LINE
  5
44F
100
AcDbEntity
  8
0
100
AcDbLine
 62
7
  6
CONTINUOUS
 10
121.1256080563
 20
102.2393214694
 11
121.2564872907
 21
102.3905518434
  0
LINE
  5
450
100
AcDbEntity
  8
0
100
AcDbLine
 62
7
  6
CONTINUOUS
 10
122.148292222
 20
103.6010420246
 11
122.26865802
 21
103.7212435575
  0
LINE
  5
451
100
AcDbEntity
  8
0
100
AcDbLine
 62
7
  6
CONTINUOUS
 10
119.7494678155
 20
103.0763056182
 11
119.6071627474
 21
102.9357735308
  0
LINE
  5
452
100
AcDbEntity
  8
0
100
AcDbLine
 62
7
  6
CONTINUOUS
 10
119.0142253256
 20
102.3502235239
 11
118.8007677234
 21
102.1394253928
  0
LINE
  5
453
100
AcDbEntity
  8
0
100
AcDbLine
 62
7
  6
CONTINUOUS
 10
119.9250244227
 20
101.000984848
 11
120.0673294908
 21
101.1415169354
  0
LINE
  5
454
100
AcDbEntity
  8
0
100
AcDbLine
 62
7
  6
CONTINUOUS
 10
120.6602669127
 20
101.7270669423
 11
120.8737245148
 21
101.9378650734
  0
LINE
  5
455
100
AcDbEntity
  8
0
100
AcDbLine
 62
7
  6
CONTINUOUS
 10
122.9806028251
 20
105.2491018591
 11
122.9052652348
 21
105.1750536137
  0
LINE
  5
456
100
AcDbEntity
  8
0
100
AcDbLine
 62
7
  6
CONTINUOUS
 10
122.0983223555
 20
103.8339643935
 11
121.9963516932
 21
103.7415602739
  0
LINE
  5
457
100
AcDbEntity
  8
RUNDUNGEN
100
AcDbLine
 62
7
  6
CONTINUOUS
 10
103.8525787457
 20
90.1121369517
 11
103.3616695516
 21
89.6932451426
  0
LINE
  5
458
100
AcDbEntity
  8
RUNDUNGEN
100
AcDbLine
 62
7
  6
CONTINUOUS
 10
103.42742372
 20
89.6161862813
 11
103.4452501354
 21
89.631397525
  0
LINE
  5
459
100
AcDbEntity
  8
RUNDUNGEN
100
AcDbLine
 62
7
  6
CONTINUOUS
 10
103.4452543084
 20
89.6313926344
 11
103.4687011843
 21
89.6510161647
  0
LWPOLYLINE
  5
45A
100
AcDbEntity
  8
RUNDUNGEN
100
AcDbPolyline
 62
7
  6
CONTINUOUS
 90
5
 70
0
 10
103.4687011843
 20
89.6510161647
 10
103.593377252
 20
89.7436187592
 10
103.7266584073
 20
89.8238175176
 10
103.867224813
 20
89.8907801415
 10
104.0130126172
 20
89.9435758498
  0
LINE
  5
45B
100
AcDbEntity
  8
0
100
AcDbLine
 62
7
  6
CONTINUOUS
 10
122.0179314402
 20
103.5274234385
 11
122.148292222
 21
103.6010420246
  0
LINE
  5
45C
100
AcDbEntity
  8
RUNDUNGEN
100
AcDbLine
 62
7
  6
CONTINUOUS
 10
132.6107931017
 20
106.4781147726
 11
132.6491550729
 21
106.4922725977
  0
LINE
  5
45D
100
AcDbEntity
  8
RUNDUNGEN
100
AcDbLine
 62
7
  6
CONTINUOUS
 10
132.6373816067
 20
106.5955853783
 11
132.0291560615
 21
106.3798914498
  0
LINE
  5
45E
100
AcDbEntity
  8
RUNDUNGEN
100
AcDbLine
 62
7
  6
CONTINUOUS
 10
132.6491529226
 20
106.4922786606
 11
132.671239454
 21
106.5001111674
  0
LINE
  5
45F
100
AcDbEntity
  8
0
100
AcDbLine
 62
7
  6
CONTINUOUS
 10
120.1808431781
 20
122.6972368423
 11
120.0379620779
 21
122.7419397223
  0
LINE
  5
460
100
AcDbEntity
  8
RUNDUNGEN
100
AcDbLine
 62
7
  6
CONTINUOUS
 10
132.0291560615
 20
117.6201085502
 11
132.6373816067
 21
117.4044146217
  0
LINE
  5
461
100
AcDbEntity
  8
RUNDUNGEN
100
AcDbLine
 62
7
  6
CONTINUOUS
 10
132.671239454
 20
117.4998888326
 11
132.6491529227
 21
117.5077213393
  0
LINE
  5
462
100
AcDbEntity
  8
RUNDUNGEN
100
AcDbLine
 62
7
  6
CONTINUOUS
 10
132.6491550716
 20
117.5077273985
 11
132.620437158
 21
117.5182212236
  0
LINE
  5
463
100
AcDbEntity
  8
0
100
AcDbLine
 62
7
  6
CONTINUOUS
 10
121.790608062
 20
120.8912913014
 11
121.6097040549
 21
120.9653288133
  0
LWPOLYLINE
  5
464
100
AcDbEntity
  8
RUNDUNGEN
100
AcDbPolyline
 62
7
  6
CONTINUOUS
 90
4
 70
0
 10
132.620437158
 20
117.5182212236
 10
132.4779029248
 20
117.5798925682
 10
132.341808185
 20
117.6552180553
 10
132.2135336489
 20
117.7434708216
  0
LINE
  5
465
100
AcDbEntity
  8
0
100
AcDbLine
 62
7
  6
CONTINUOUS
 10
120.0616786736
 20
122.5280294001
 11
120.1569252882
 21
122.4823459506
  0
LINE
  5
466
100
AcDbEntity
  8
0
100
AcDbLine
 62
7
  6
CONTINUOUS
 10
119.5848191935
 20
121.4223983483
 11
119.4657665059
 21
121.4914138157
  0
LINE
  5
467
100
AcDbEntity
  8
0
100
AcDbLine
 62
7
  6
CONTINUOUS
 10
120.2998958657
 20
122.6282213749
 11
120.1808431781
 21
122.6972368423
  0
LINE
  5
468
100
AcDbEntity
  8
0
100
AcDbLine
 62
7
  6
CONTINUOUS
 10
119.3227959117
 20
121.3455383744
 11
119.4656546404
 21
121.2531909246
  0
LINE
  5
469
100
AcDbEntity
  8
0
100
AcDbLine
 62
7
  6
CONTINUOUS
 10
123.8298104174
 20
117.1778222433
 11
123.6773715074
 21
117.3001752377
  0
LINE
  5
46A
100
AcDbEntity
  8
RUNDUNGEN
100
AcDbLine
 62
7
  6
CONTINUOUS
 10
103.3616695516
 20
134.3067548574
 11
103.8525787457
 21
133.8878630483
  0
LINE
  5
46B
100
AcDbEntity
  8
RUNDUNGEN
100
AcDbLine
 62
7
  6
CONTINUOUS
 10
103.4452501355
 20
134.3686024749
 11
103.42742372
 21
134.3838137187
  0
LINE
  5
46C
100
AcDbEntity
  8
0
100
AcDbLine
 62
7
  6
CONTINUOUS
 10
120.909167551
 20
119.79050074
 11
120.783174562
 21
119.904791956
  0
LINE
  5
46D
100
AcDbEntity
  8
0
100
AcDbLine
 62
7
  6
CONTINUOUS
 10
121.673037742
 20
120.7637737968
 11
121.7990306182
 21
120.6494827347
  0
LINE
  5
46E
100
AcDbEntity
  8
0
100
AcDbLine
 62
7
  6
CONTINUOUS
 10
120.6458967155
 20
119.8041580662
 11
120.7915971014
 21
119.6629833768
  0
LINE
  5
46F
100
AcDbEntity
  8
0
100
AcDbLine
 62
7
  6
CONTINUOUS
 10
121.9363084455
 20
120.7501166103
 11
121.790608062
 21
120.8912913014
  0
LINE
  5
470
100
AcDbEntity
  8
0
100
AcDbLine
 62
7
  6
CONTINUOUS
 10
119.1323473957
 20
121.5321944507
 11
119.3227959117
 21
121.3455383744
  0
LINE
  5
471
100
AcDbEntity
  8
0
100
AcDbLine
 62
7
  6
CONTINUOUS
 10
119.4657665059
 20
121.4914138157
 11
119.2753179899
 21
121.678069892
  0
LINE
  5
472
100
AcDbEntity
  8
0
100
AcDbLine
 62
7
  6
CONTINUOUS
 10
119.2516685317
 20
122.0349139469
 11
119.1088321617
 21
122.1749059874
  0
LINE
  5
473
100
AcDbEntity
  8
0
100
AcDbLine
 62
7
  6
CONTINUOUS
 10
119.6803566297
 20
121.9960944681
 11
119.8231929997
 21
121.8561024276
  0
LINE
  5
474
100
AcDbEntity
  8
0
100
AcDbLine
 62
7
  6
CONTINUOUS
 10
119.9661635773
 20
122.0019778519
 11
119.8233272073
 21
122.1419698924
  0
LINE
  5
475
100
AcDbEntity
  8
0
100
AcDbLine
 62
7
  6
CONTINUOUS
 10
120.3234558462
 20
122.0807990494
 11
120.4662922162
 21
121.9408070089
  0
LINE
  5
476
100
AcDbEntity
  8
0
100
AcDbLine
 62
7
  6
CONTINUOUS
 10
120.1569252882
 20
122.4823459506
 11
120.2997616582
 21
122.3423539101
  0
LINE
  5
477
100
AcDbEntity
  8
0
100
AcDbLine
 62
7
  6
CONTINUOUS
 10
120.4189261627
 20
122.5115613523
 11
120.2998958657
 21
122.6282213749
  0
LINE
  5
478
100
AcDbEntity
  8
0
100
AcDbLine
 62
7
  6
CONTINUOUS
 10
124.3109439515
 20
115.644835692
 11
124.173011968
 21
115.783336657
  0
LINE
  5
479
100
AcDbEntity
  8
0
100
AcDbLine
 62
7
  6
CONTINUOUS
 10
119.9812041825
 20
120.6380300455
 11
120.1120834256
 21
120.4867996791
  0
LINE
  5
47A
100
AcDbEntity
  8
0
100
AcDbLine
 62
7
  6
CONTINUOUS
 10
121.3219263568
 20
121.533833624
 11
121.1910471137
 21
121.6850639904
  0
LINE
  5
47B
100
AcDbEntity
  8
0
100
AcDbLine
 62
7
  6
CONTINUOUS
 10
119.0371455303
 20
121.6731670461
 11
119.1323473957
 21
121.5321944507
  0
LINE
  5
47C
100
AcDbEntity
  8
0
100
AcDbLine
 62
7
  6
CONTINUOUS
 10
120.0613654447
 20
121.8610052586
 11
119.9661635773
 21
122.0019778519
  0
LINE
  5
47D
100
AcDbEntity
  8
0
100
AcDbLine
 62
7
  6
CONTINUOUS
 10
120.5141280642
 20
122.3705887256
 11
120.4189261627
 21
122.5115613523
  0
LINE
  5
47E
100
AcDbEntity
  8
0
100
AcDbLine
 62
7
  6
CONTINUOUS
 10
123.5900625428
 20
115.4390529938
 11
123.6463273334
 21
115.3496484722
  0
LINE
  5
47F
100
AcDbEntity
  8
0
100
AcDbLine
 62
7
  6
CONTINUOUS
 10
124.1530693752
 20
115.5730086427
 11
124.2093341658
 21
115.483604121
  0
LINE
  5
480
100
AcDbEntity
  8
0
100
AcDbLine
 62
7
  6
CONTINUOUS
 10
122.6721074067
 20
116.3725887532
 11
122.5837485568
 21
116.5179488444
  0
LINE
  5
481
100
AcDbEntity
  8
0
100
AcDbLine
 62
7
  6
CONTINUOUS
 10
123.6808736186
 20
117.0889329223
 11
123.7692322107
 21
116.9435735491
  0
LINE
  5
482
100
AcDbEntity
  8
0
100
AcDbLine
 62
7
  6
CONTINUOUS
 10
121.6320355843
 20
119.3908974039
 11
121.8743549135
 21
118.9920750887
  0
LINE
  5
483
100
AcDbEntity
  8
0
100
AcDbLine
 62
7
  6
CONTINUOUS
 10
122.0198220032
 20
119.0804590287
 11
121.777502674
 21
119.4792813439
  0
LINE
  5
484
100
AcDbEntity
  8
0
100
AcDbLine
 62
7
  6
CONTINUOUS
 10
119.2753179899
 20
121.678069892
 11
119.2039221785
 21
121.7957104842
  0
LINE
  5
485
100
AcDbEntity
  8
0
100
AcDbLine
 62
7
  6
CONTINUOUS
 10
119.6089608013
 20
122.113735077
 11
119.6803566297
 21
121.9960944681
  0
LINE
  5
486
100
AcDbEntity
  8
0
100
AcDbLine
 62
7
  6
CONTINUOUS
 10
119.8231929997
 20
121.8561024276
 11
119.8945888282
 21
121.7384618188
  0
LINE
  5
487
100
AcDbEntity
  8
0
100
AcDbLine
 62
7
  6
CONTINUOUS
 10
122.4235480618
 20
116.460431992
 11
122.5231704593
 21
116.2836997842
  0
LINE
  5
488
100
AcDbEntity
  8
0
100
AcDbLine
 62
7
  6
CONTINUOUS
 10
123.9294326832
 20
117.0010903935
 11
123.8298104174
 21
117.1778222433
  0
LINE
  5
489
100
AcDbEntity
  8
0
100
AcDbLine
 62
7
  6
CONTINUOUS
 10
124.7659574509
 20
112.2166667938
 11
124.6978723526
 21
112.3500003815
  0
LINE
  5
48A
100
AcDbEntity
  8
0
100
AcDbLine
 62
7
  6
CONTINUOUS
 10
119.8233272073
 20
122.1419698924
 11
119.7757374518
 21
122.2362784834
  0
LINE
  5
48B
100
AcDbEntity
  8
0
100
AcDbLine
 62
7
  6
CONTINUOUS
 10
120.2997616582
 20
122.3423539101
 11
120.3473513796
 21
122.2480453525
  0
LINE
  5
48C
100
AcDbEntity
  8
0
100
AcDbLine
 62
7
  6
CONTINUOUS
 10
120.5551074654
 20
119.9855863093
 11
120.6458967155
 21
119.8041580662
  0
LINE
  5
48D
100
AcDbEntity
  8
0
100
AcDbLine
 62
7
  6
CONTINUOUS
 10
122.027097698
 20
120.568688369
 11
121.9363084455
 21
120.7501166103
  0
LINE
  5
48E
100
AcDbEntity
  8
0
100
AcDbLine
 62
7
  6
CONTINUOUS
 10
121.5263790061
 20
118.4673821108
 11
122.1193353303
 21
117.2731542279
  0
LINE
  5
48F
100
AcDbEntity
  8
0
100
AcDbLine
 62
7
  6
CONTINUOUS
 10
122.3022808953
 20
117.3639900987
 11
121.7982680282
 21
118.3790837821
  0
LINE
  5
490
100
AcDbEntity
  8
0
100
AcDbLine
 62
7
  6
CONTINUOUS
 10
122.8069979826
 20
119.1032332175
 11
123.3258347026
 21
118.058283948
  0
LINE
  5
491
100
AcDbEntity
  8
0
100
AcDbLine
 62
7
  6
CONTINUOUS
 10
123.5524089265
 20
117.9847018848
 11
122.9594526023
 21
119.1789297677
  0
LINE
  5
492
100
AcDbEntity
  8
0
100
AcDbLine
 62
7
  6
CONTINUOUS
 10
122.8646696472
 20
114.9580863525
 11
122.9363655466
 21
114.8038259027
  0
LINE
  5
493
100
AcDbEntity
  8
0
100
AcDbLine
 62
7
  6
CONTINUOUS
 10
123.8196330156
 20
115.3566195926
 11
123.7479371191
 21
115.5108800431
  0
LINE
  5
494
100
AcDbEntity
  8
0
100
AcDbLine
 62
7
  6
CONTINUOUS
 10
124.3826398479
 20
115.4905752415
 11
124.3109439515
 21
115.644835692
  0
LINE
  5
495
100
AcDbEntity
  8
0
100
AcDbLine
 62
7
  6
CONTINUOUS
 10
120.783174562
 20
119.904791956
 11
120.7120928167
 21
120.0593365684
  0
LINE
  5
496
100
AcDbEntity
  8
0
100
AcDbLine
 62
7
  6
CONTINUOUS
 10
121.7990306182
 20
120.6494827347
 11
121.8701124763
 21
120.4949379684
  0
LINE
  5
497
100
AcDbEntity
  8
0
100
AcDbLine
 62
7
  6
CONTINUOUS
 10
124.5617021561
 20
112.1833332062
 11
124.5957447052
 21
112.0833332062
  0
LINE
  5
498
100
AcDbEntity
  8
0
100
AcDbLine
 62
7
  6
CONTINUOUS
 10
120.1089328095
 20
121.7190521124
 11
120.0613654447
 21
121.8610052586
  0
LINE
  5
499
100
AcDbEntity
  8
0
100
AcDbLine
 62
7
  6
CONTINUOUS
 10
123.4382978678
 20
111.7500003815
 11
123.4042553186
 21
111.8833332062
  0
LINE
  5
49A
100
AcDbEntity
  8
0
100
AcDbLine
 62
7
  6
CONTINUOUS
 10
124.8
 20
112.0833332062
 11
124.7659574509
 21
112.2166667938
  0
LINE
  5
49B
100
AcDbEntity
  8
0
100
AcDbLine
 62
7
  6
CONTINUOUS
 10
122.8260916176
 20
115.1202272879
 11
122.8646696472
 21
114.9580863525
  0
LINE
  5
49C
100
AcDbEntity
  8
0
100
AcDbLine
 62
7
  6
CONTINUOUS
 10
123.0379753525
 20
114.9650574784
 11
122.9839663937
 21
115.1920536005
  0
LINE
  5
49D
100
AcDbEntity
  8
0
100
AcDbLine
 62
7
  6
CONTINUOUS
 10
123.6463273334
 20
115.3496484722
 11
123.7003362922
 21
115.1226523501
  0
LINE
  5
49E
100
AcDbEntity
  8
0
100
AcDbLine
 62
7
  6
CONTINUOUS
 10
123.8582110451
 20
115.1944786571
 11
123.8196330156
 21
115.3566195926
  0
LINE
  5
49F
100
AcDbEntity
  8
0
100
AcDbLine
 62
7
  6
CONTINUOUS
 10
124.118643999
 20
114.9823326781
 11
124.157221852
 21
114.8201924848
  0
LINE
  5
4A0
100
AcDbEntity
  8
0
100
AcDbLine
 62
7
  6
CONTINUOUS
 10
124.2093341658
 20
115.483604121
 11
124.25562766
 21
115.2890355923
  0
LINE
  5
4A1
100
AcDbEntity
  8
0
100
AcDbLine
 62
7
  6
CONTINUOUS
 10
124.4135022363
 20
115.3608626416
 11
124.3826398479
 21
115.4905752415
  0
LINE
  5
4A2
100
AcDbEntity
  8
0
100
AcDbLine
 62
7
  6
CONTINUOUS
 10
124.0260007375
 20
110.0805183654
 11
124.0035169438
 21
110.1837335492
  0
LINE
  5
4A3
100
AcDbEntity
  8
0
100
AcDbLine
 62
7
  6
CONTINUOUS
 10
123.2
 20
111.8833332062
 11
123.2340425521
 21
111.7166667938
  0
LINE
  5
4A4
100
AcDbEntity
  8
RUNDUNGEN
100
AcDbLine
 62
7
  6
CONTINUOUS
 10
125.8817348073
 20
95.7322455019
 11
125.9990511583
 21
95.0976597642
  0
LINE
  5
4A5
100
AcDbEntity
  8
RUNDUNGEN
100
AcDbLine
 62
7
  6
CONTINUOUS
 10
126.098663174
 20
95.1160751138
 11
126.0944030582
 21
95.1391188644
  0
LINE
  5
4A6
100
AcDbEntity
  8
0
100
AcDbLine
 62
7
  6
CONTINUOUS
 10
122.3880059879
 20
116.6601705805
 11
122.4235480618
 21
116.460431992
  0
LINE
  5
4A7
100
AcDbEntity
  8
0
100
AcDbLine
 62
7
  6
CONTINUOUS
 10
123.9649748889
 20
116.8013514469
 11
123.9294326832
 21
117.0010903935
  0
LINE
  5
4A8
100
AcDbEntity
  8
RUNDUNGEN
100
AcDbLine
 62
7
  6
CONTINUOUS
 10
126.0944093801
 20
95.139120033
 11
126.0891383423
 21
95.1692373882
  0
LINE
  5
4A9
100
AcDbEntity
  8
0
100
AcDbLine
 62
7
  6
CONTINUOUS
 10
122.5837485568
 20
116.5179488444
 11
122.5594701538
 21
116.6863149553
  0
LINE
  5
4AA
100
AcDbEntity
  8
0
100
AcDbLine
 62
7
  6
CONTINUOUS
 10
123.7692322107
 20
116.9435735491
 11
123.7935108715
 21
116.7752067202
  0
LWPOLYLINE
  5
4AB
100
AcDbEntity
  8
RUNDUNGEN
100
AcDbPolyline
 62
7
  6
CONTINUOUS
 90
5
 70
0
 10
126.0891383423
 20
95.1692373882
 10
126.0712801768
 20
95.3235113274
 10
126.0684665924
 20
95.4790355729
 10
126.0807584618
 20
95.6342509631
 10
126.1079299393
 20
95.7869047593
  0
LWPOLYLINE
  5
4AC
100
AcDbEntity
  8
RUNDUNGEN
100
AcDbPolyline
 62
7
  6
CONTINUOUS
 90
4
 70
0
 10
126.0821003915
 20
128.3555576711
 10
126.068813016
 20
128.5106656429
 10
126.0706257643
 20
128.6661846401
 10
126.0874894345
 20
128.8205786121
  0
LWPOLYLINE
  5
4AD
100
AcDbEntity
  8
RUNDUNGEN
100
AcDbPolyline
 62
7
  6
CONTINUOUS
 90
4
 70
0
 10
132.205378632
 20
106.2502713503
 10
132.3330623882
 20
106.3393325409
 10
132.4686521646
 20
106.4155221534
 10
132.6107931017
 20
106.4781147726
  0
LINE
  5
4AE
100
AcDbEntity
  8
0
100
AcDbLine
 62
7
  6
CONTINUOUS
 10
113.175
 20
128.05
 11
106.825
 21
128.05
  0
LWPOLYLINE
  5
4AF
100
AcDbEntity
  8
RUNDUNGEN
100
AcDbPolyline
 62
7
  6
CONTINUOUS
 90
5
 70
0
 10
103.8767217596
 20
134.1052863208
 10
103.7357506278
 20
134.171333102
 10
103.6019735997
 20
134.2506624866
 10
103.4766963329
 20
134.3424638394
 10
103.4452543111
 20
134.3686073685
  0
LINE
  5
4B0
100
AcDbEntity
  8
RUNDUNGEN
100
AcDbLine
 62
7
  6
CONTINUOUS
 10
126.9126908126
 20
98.9197680106
 11
126.1081488998
 21
95.790130933
  0
LINE
  5
4B1
100
AcDbEntity
  8
RUNDUNGEN
100
AcDbLine
 62
7
  6
CONTINUOUS
 10
132.0922332236
 20
106.1548687406
 11
129.7841585965
 21
103.8932961047
  0
LINE
  5
4B2
100
AcDbEntity
  8
RUNDUNGEN
100
AcDbLine
 62
7
  6
CONTINUOUS
 10
132.0947752479
 20
106.1565392682
 11
132.205378632
 21
106.2502713503
  0
LINE
  5
4B3
100
AcDbEntity
  8
RUNDUNGEN
100
AcDbLine
 62
7
  6
CONTINUOUS
 10
112.8714677839
 20
133.1869358848
 11
115.9840839542
 21
134.0550006887
  0
LINE
  5
4B4
100
AcDbEntity
  8
RUNDUNGEN
100
AcDbLine
 62
7
  6
CONTINUOUS
 10
104.0159155472
 20
134.0550008277
 11
107.1285322161
 21
133.1869358848
  0
LINE
  5
4B5
100
AcDbEntity
  8
RUNDUNGEN
100
AcDbLine
 62
7
  6
CONTINUOUS
 10
104.0131978158
 20
134.0563670215
 11
103.8767217596
 21
134.1052863208
  0
LINE
  5
4B6
100
AcDbEntity
  8
RUNDUNGEN
100
AcDbLine
 62
7
  6
CONTINUOUS
 10
132.2135336489
 20
117.7434708216
 11
132.0949173221
 21
117.8433289094
  0
LINE
  5
4B7
100
AcDbEntity
  8
RUNDUNGEN
100
AcDbLine
 62
7
  6
CONTINUOUS
 10
129.7841585965
 20
120.1067038953
 11
132.0922328539
 21
117.8451316217
  0
LINE
  5
4B8
100
AcDbEntity
  8
RUNDUNGEN
100
AcDbLine
 62
7
  6
CONTINUOUS
 10
126.1081487709
 20
128.2098695684
 11
126.9126908126
 21
125.0802319894
  0
LINE
  5
4B9
100
AcDbEntity
  8
RUNDUNGEN
100
AcDbLine
 62
7
  6
CONTINUOUS
 10
126.1079730637
 20
128.2129062897
 11
126.0821003915
 21
128.3555576711
  0
LINE
  5
4BA
100
AcDbEntity
  8
RUNDUNGEN
100
AcDbLine
 62
7
  6
CONTINUOUS
 10
133.2356273608
 20
116.5575097419
 11
133.2356273608
 21
115.7715552085
  0
LINE
  5
4BB
100
AcDbEntity
  8
RUNDUNGEN
100
AcDbLine
 62
7
  6
CONTINUOUS
 10
133.2356273608
 20
108.2284447915
 11
133.2356273608
 21
107.4424902581
  0
LINE
  5
4BC
100
AcDbEntity
  8
RUNDUNGEN
100
AcDbLine
 62
7
  6
CONTINUOUS
 10
133.3369273054
 20
107.4424902581
 11
133.3369273054
 21
108.2284447915
  0
LINE
  5
4BD
100
AcDbEntity
  8
RUNDUNGEN
100
AcDbLine
 62
7
  6
CONTINUOUS
 10
133.3369273054
 20
115.7715552085
 11
133.3369273054
 21
116.5575097419
  0
LINE
  5
4BE
100
AcDbEntity
  8
RUNDUNGEN
100
AcDbLine
 62
7
  6
CONTINUOUS
 10
125.5647328949
 20
94.1561113036
 11
124.8840763028
 21
93.7631340369
  0
LINE
  5
4BF
100
AcDbEntity
  8
RUNDUNGEN
100
AcDbLine
 62
7
  6
CONTINUOUS
 10
118.351551058
 20
89.9915788284
 11
117.6708944659
 21
89.5986015617
  0
LINE
  5
4C0
100
AcDbEntity
  8
RUNDUNGEN
100
AcDbLine
 62
7
  6
CONTINUOUS
 10
117.7215444382
 20
89.5108732363
 11
118.4022010303
 21
89.903850503
  0
LINE
  5
4C1
100
AcDbEntity
  8
RUNDUNGEN
100
AcDbLine
 62
7
  6
CONTINUOUS
 10
124.9347262751
 20
93.6754057116
 11
125.6153828672
 21
94.0683829782
  0
LINE
  5
4C2
100
AcDbEntity
  8
RUNDUNGEN
100
AcDbLine
 62
7
  6
CONTINUOUS
 10
117.6708944659
 20
134.4013984383
 11
118.351551058
 21
134.0084211716
  0
LINE
  5
4C3
100
AcDbEntity
  8
RUNDUNGEN
100
AcDbLine
 62
7
  6
CONTINUOUS
 10
124.8840763028
 20
130.2368659631
 11
125.5647328949
 21
129.8438886964
  0
LINE
  5
4C4
100
AcDbEntity
  8
RUNDUNGEN
100
AcDbLine
 62
7
  6
CONTINUOUS
 10
125.6153828672
 20
129.9316170218
 11
124.9347262751
 21
130.3245942884
  0
LINE
  5
4C5
100
AcDbEntity
  8
RUNDUNGEN
100
AcDbLine
 62
7
  6
CONTINUOUS
 10
118.4022010303
 20
134.096149497
 11
117.7215444382
 21
134.4891267637
  0
LWPOLYLINE
  5
4C6
100
AcDbEntity
  8
0
100
AcDbPolyline
 62
7
  6
CONTINUOUS
 90
3
 70
0
 10
206.4515800864
 20
130.156395426
 10
206.3811505485
 20
130.0768857873
 10
206.2971087519
 20
130.0038151491
  0
LINE
  5
4C7
100
AcDbEntity
  8
AUSFORMSCHRAEGEN
100
AcDbLine
 62
7
  6
CONTINUOUS
 10
219.9057174929
 20
89.3770323898
 11
233.0811434986
 21
89.4782143871
  0
LINE
  5
4C8
100
AcDbEntity
  8
0
100
AcDbLine
 62
7
  6
CONTINUOUS
 10
219.225
 20
89.09977786
 11
220.525
 21
89.09977786
  0
LINE
  5
4C9
100
AcDbEntity
  8
RUNDUNGEN
100
AcDbLine
 62
7
  6
CONTINUOUS
 10
219.8442825071
 20
89.3770323898
 11
219.9057174929
 21
89.3770323898
  0
LINE
  5
4CA
100
AcDbEntity
  8
AUSFORMSCHRAEGEN
100
AcDbLine
 62
7
  6
CONTINUOUS
 10
206.6688565014
 20
89.4782143871
 11
219.8442825071
 21
89.3770323898
  0
LINE
  5
4CB
100
AcDbEntity
  8
0
100
AcDbLine
 62
7
  6
CONTINUOUS
 10
206.5076275799
 20
130.238366178
 11
206.4515800864
 21
130.156395426
  0
LINE
  5
4CC
100
AcDbEntity
  8
AUSFORMSCHRAEGEN
100
AcDbLine
 62
7
  6
CONTINUOUS
 10
219.9057174929
 20
93.5147699458
 11
233.0811434986
 21
93.6159519431
  0
LINE
  5
4CD
100
AcDbEntity
  8
RUNDUNGEN
100
AcDbLine
 62
7
  6
CONTINUOUS
 10
219.8442825071
 20
93.5147699458
 11
219.9057174929
 21
93.5147699458
  0
LINE
  5
4CE
100
AcDbEntity
  8
AUSFORMSCHRAEGEN
100
AcDbLine
 62
7
  6
CONTINUOUS
 10
206.6688565014
 20
93.6159519431
 11
219.8442825071
 21
93.5147699458
  0
LWPOLYLINE
  5
4CF
100
AcDbEntity
  8
0
100
AcDbPolyline
 62
7
  6
CONTINUOUS
 90
4
 70
0
 10
217.9257687096
 20
133.2004836981
 10
217.8840237008
 20
133.156704947
 10
217.8557795266
 20
133.1324531255
 10
217.8523858293
 20
133.1299112087
  0
LWPOLYLINE
  5
4D0
100
AcDbEntity
  8
RUNDUNGEN
100
AcDbPolyline
 62
7
  6
CONTINUOUS
 90
11
 70
0
 10
205.8750297232
 20
107.1298214142
 10
205.8771208918
 20
107.0660065974
 10
205.9061636375
 20
106.873276584
 10
205.9710880335
 20
106.681049196
 10
206.0704667896
 20
106.4987018576
 10
206.2000539377
 20
106.3322658438
 10
206.3578240619
 20
106.1816679355
 10
206.5409655282
 20
106.0473547297
 10
206.7549226368
 20
105.9246994009
 10
207.008096579
 20
105.8110878823
 10
207.2203245985
 20
105.734561026
  0
LINE
  5
4D1
100
AcDbEntity
  8
0
100
AcDbLine
 62
7
  6
CONTINUOUS
 10
205.875
 20
133.7213975844
 11
205.875
 21
133.6982128534
  0
LINE
  5
4D2
100
AcDbEntity
  8
RUNDUNGEN
100
AcDbLine
 62
7
  6
CONTINUOUS
 10
205.875
 20
133.7217530911
 11
205.875
 21
132.5375040333
  0
LINE
  5
4D3
100
AcDbEntity
  8
0
100
AcDbLine
 62
7
  6
CONTINUOUS
 10
205.875
 20
133.2793210443
 11
205.875
 21
132.5375040333
  0
LINE
  5
4D4
100
AcDbEntity
  8
0
100
AcDbLine
 62
7
  6
CONTINUOUS
 10
205.875
 20
129.5840261673
 11
205.875
 21
129.4872010352
  0
LINE
  5
4D5
100
AcDbEntity
  8
RUNDUNGEN
100
AcDbLine
 62
7
  6
CONTINUOUS
 10
205.875
 20
129.5839623397
 11
205.875
 21
129.1874225238
  0
LINE
  5
4D6
100
AcDbEntity
  8
RUNDUNGEN
100
AcDbLine
 62
7
  6
CONTINUOUS
 10
205.875
 20
112.0000000006
 11
205.875
 21
96.5043437019
  0
LINE
  5
4D7
100
AcDbEntity
  8
RUNDUNGEN
100
AcDbLine
 62
7
  6
CONTINUOUS
 10
205.875
 20
95.5868175323
 11
205.875
 21
94.4160376603
  0
LINE
  5
4D8
100
AcDbEntity
  8
RUNDUNGEN
100
AcDbLine
 62
7
  6
CONTINUOUS
 10
205.875
 20
91.4624959667
 11
205.875
 21
90.2788360921
  0
LINE
  5
4D9
100
AcDbEntity
  8
0
100
AcDbLine
 62
7
  6
CONTINUOUS
 10
205.875
 20
112.0000000006
 11
205.875
 21
129.1874225238
  0
LINE
  5
4DA
100
AcDbEntity
  8
RUNDUNGEN
100
AcDbLine
 62
7
  6
CONTINUOUS
 10
217.9263733715
 20
133.2011874624
 11
217.9257687096
 21
133.2004836981
  0
LWPOLYLINE
  5
4DB
100
AcDbEntity
  8
0
100
AcDbPolyline
 62
7
  6
CONTINUOUS
 90
8
 70
0
 10
206.6063527915
 20
130.555922855
 10
206.6063706095
 20
130.5556039816
 10
206.6063344802
 20
130.5416090429
 10
206.6039289619
 20
130.5096447159
 10
206.5956693731
 20
130.4590116524
 10
206.5784555495
 20
130.3942072981
 10
206.5496915074
 20
130.3191788511
 10
206.5076275799
 20
130.238366178
  0
LWPOLYLINE
  5
4DC
100
AcDbEntity
  8
0
100
AcDbPolyline
 62
7
  6
CONTINUOUS
 90
6
 70
0
 10
205.875022546
 20
132.5374589808
 10
205.8846946655
 20
132.2934344006
 10
205.9343652685
 20
131.9344059185
 10
206.0255312388
 20
131.5839503416
 10
206.1567238755
 20
131.2465150039
 10
206.32616519
 20
130.9262894647
  0
LINE
  5
4DD
100
AcDbEntity
  8
RUNDUNGEN
100
AcDbLine
 62
7
  6
CONTINUOUS
 10
205.8851632808
 20
95.849569498
 11
205.8750182216
 21
95.5868281611
  0
LINE
  5
4DE
100
AcDbEntity
  8
RUNDUNGEN
100
AcDbLine
 62
7
  6
CONTINUOUS
 10
205.8844590022
 20
91.7003482959
 11
205.8838813346
 21
91.6960644895
  0
LINE
  5
4DF
100
AcDbEntity
  8
0
100
AcDbLine
 62
7
  6
CONTINUOUS
 10
233.875
 20
101.000984848
 11
234.125
 21
101.000984848
  0
LINE
  5
4E0
100
AcDbEntity
  8
0
100
AcDbLine
 62
7
  6
CONTINUOUS
 10
233.875
 20
102.1394253928
 11
234.125
 21
102.1394253928
  0
LINE
  5
4E1
100
AcDbEntity
  8
0
100
AcDbLine
 62
7
  6
CONTINUOUS
 10
233.875
 20
102.3502235239
 11
234.125
 21
102.3502235239
  0
LINE
  5
4E2
100
AcDbEntity
  8
RUNDUNGEN
100
AcDbLine
 62
7
  6
CONTINUOUS
 10
207.2201288493
 20
105.734618475
 11
207.9962191625
 21
105.4804823752
  0
LINE
  5
4E3
100
AcDbEntity
  8
0
100
AcDbLine
 62
7
  6
CONTINUOUS
 10
233.875
 20
102.9357735308
 11
234.125
 21
102.9357735308
  0
LINE
  5
4E4
100
AcDbEntity
  8
0
100
AcDbLine
 62
7
  6
CONTINUOUS
 10
233.875
 20
103.0763056182
 11
234.125
 21
103.0763056182
  0
LINE
  5
4E5
100
AcDbEntity
  8
0
100
AcDbLine
 62
7
  6
CONTINUOUS
 10
233.875
 20
103.2863553444
 11
234.125
 21
103.2863553444
  0
LINE
  5
4E6
100
AcDbEntity
  8
0
100
AcDbLine
 62
7
  6
CONTINUOUS
 10
233.875
 20
103.4375857184
 11
234.125
 21
103.4375857184
  0
LINE
  5
4E7
100
AcDbEntity
  8
0
100
AcDbLine
 62
7
  6
CONTINUOUS
 10
233.875
 20
103.6415747291
 11
234.125
 21
103.6415747291
  0
LINE
  5
4E8
100
AcDbEntity
  8
0
100
AcDbLine
 62
7
  6
CONTINUOUS
 10
233.875
 20
103.7982825892
 11
234.125
 21
103.7982825892
  0
LINE
  5
4E9
100
AcDbEntity
  8
0
100
AcDbLine
 62
7
  6
CONTINUOUS
 10
233.875
 20
103.8515095911
 11
234.125
 21
103.8515095911
  0
LWPOLYLINE
  5
4EA
100
AcDbEntity
  8
RUNDUNGEN
100
AcDbPolyline
 62
7
  6
CONTINUOUS
 90
5
 70
0
 10
207.9962054518
 20
105.4804865365
 10
208.5589431279
 20
105.3183687779
 10
209.2311672086
 20
105.1799990058
 10
209.9152369208
 20
105.0975029579
 10
210.5076145409
 20
105.0719377145
  0
LWPOLYLINE
  5
4EB
100
AcDbEntity
  8
RUNDUNGEN
100
AcDbPolyline
 62
7
  6
CONTINUOUS
 90
4
 70
0
 10
229.2425554901
 20
105.0719390773
 10
229.82603171
 20
105.096820037
 10
230.5102242577
 20
105.1786018868
 10
231.1827383076
 20
105.3162968262
  0
LINE
  5
4EC
100
AcDbEntity
  8
AUSFORMSCHRAEGEN
100
AcDbLine
 62
7
  6
CONTINUOUS
 10
226.2717388323
 20
105.0491243935
 11
229.2422057407
 21
105.0719363902
  0
LINE
  5
4ED
100
AcDbEntity
  8
RUNDUNGEN
100
AcDbLine
 62
7
  6
CONTINUOUS
 10
229.2421785609
 20
105.071936183
 11
229.242379674
 21
105.0719377262
  0
LINE
  5
4EE
100
AcDbEntity
  8
RUNDUNGEN
100
AcDbLine
 62
7
  6
CONTINUOUS
 10
226.2719298673
 20
105.0491258672
 11
226.272028234
 21
105.049126616
  0
LINE
  5
4EF
100
AcDbEntity
  8
0
100
AcDbLine
 62
7
  6
CONTINUOUS
 10
233.875
 20
104.4038576232
 11
234.125
 21
104.4038576232
  0
LINE
  5
4F0
100
AcDbEntity
  8
0
100
AcDbLine
 62
7
  6
CONTINUOUS
 10
233.875
 20
104.4889808252
 11
234.125
 21
104.4889808252
  0
LINE
  5
4F1
100
AcDbEntity
  8
0
100
AcDbLine
 62
7
  6
CONTINUOUS
 10
233.875
 20
104.5048834377
 11
234.125
 21
104.5048834377
  0
LINE
  5
4F2
100
AcDbEntity
  8
0
100
AcDbLine
 62
7
  6
CONTINUOUS
 10
233.875
 20
104.7274582712
 11
234.125
 21
104.7274582712
  0
LINE
  5
4F3
100
AcDbEntity
  8
0
100
AcDbLine
 62
7
  6
CONTINUOUS
 10
233.875
 20
104.9075380029
 11
234.125
 21
104.9075380029
  0
LINE
  5
4F4
100
AcDbEntity
  8
0
100
AcDbLine
 62
7
  6
CONTINUOUS
 10
233.875
 20
104.9892847492
 11
234.125
 21
104.9892847492
  0
LINE
  5
4F5
100
AcDbEntity
  8
0
100
AcDbLine
 62
7
  6
CONTINUOUS
 10
233.875
 20
105.4483190717
 11
234.125
 21
105.4483190717
  0
LINE
  5
4F6
100
AcDbEntity
  8
AUSFORMSCHRAEGEN
100
AcDbLine
 62
7
  6
CONTINUOUS
 10
210.5077944961
 20
105.0719363883
 11
213.4782016428
 21
105.0491248506
  0
LINE
  5
4F7
100
AcDbEntity
  8
RUNDUNGEN
100
AcDbLine
 62
7
  6
CONTINUOUS
 10
210.5077745268
 20
105.0719365423
 11
210.5078243676
 21
105.0719361605
  0
LINE
  5
4F8
100
AcDbEntity
  8
RUNDUNGEN
100
AcDbLine
 62
7
  6
CONTINUOUS
 10
213.4779763188
 20
105.0491265811
 11
213.478066026
 21
105.0491258976
  0
LWPOLYLINE
  5
4F9
100
AcDbEntity
  8
RUNDUNGEN
100
AcDbPolyline
 62
7
  6
CONTINUOUS
 90
14
 70
0
 10
213.4780521424
 20
105.0491265611
 10
213.5048415919
 20
105.048601413
 10
213.6163857443
 20
105.0398478545
 10
213.7449125825
 20
105.0171573812
 10
213.8872693197
 20
104.9763612256
 10
214.0406636163
 20
104.9129631914
 10
214.1982909884
 20
104.8241606956
 10
214.3543179336
 20
104.707566241
 10
214.4996868188
 20
104.5647315034
 10
214.6270349028
 20
104.3991391411
 10
214.7306518114
 20
104.2161395769
 10
214.806803193
 20
104.0227108785
 10
214.8541831525
 20
103.8266770294
 10
214.8739040091
 20
103.6378727999
  0
LINE
  5
4FA
100
AcDbEntity
  8
RUNDUNGEN
100
AcDbLine
 62
7
  6
CONTINUOUS
 10
214.8739040091
 20
103.6378727999
 11
214.8749977114
 21
103.5846994525
  0
LINE
  5
4FB
100
AcDbEntity
  8
RUNDUNGEN
100
AcDbLine
 62
7
  6
CONTINUOUS
 10
214.875
 20
102.5724585018
 11
214.8749969126
 21
103.5846994508
  0
LINE
  5
4FC
100
AcDbEntity
  8
0
100
AcDbLine
 62
7
  6
CONTINUOUS
 10
233.875
 20
106.548616627
 11
234.125
 21
106.548616627
  0
LINE
  5
4FD
100
AcDbEntity
  8
0
100
AcDbLine
 62
7
  6
CONTINUOUS
 10
233.875
 20
106.6466149318
 11
234.125
 21
106.6466149318
  0
LINE
  5
4FE
100
AcDbEntity
  8
0
100
AcDbLine
 62
7
  6
CONTINUOUS
 10
233.875
 20
107.3025416551
 11
234.125
 21
107.3025416551
  0
LINE
  5
4FF
100
AcDbEntity
  8
0
100
AcDbLine
 62
7
  6
CONTINUOUS
 10
233.875
 20
107.5969067182
 11
234.125
 21
107.5969067182
  0
LINE
  5
500
100
AcDbEntity
  8
0
100
AcDbLine
 62
7
  6
CONTINUOUS
 10
233.875
 20
107.8115832511
 11
234.125
 21
107.8115832511
  0
LINE
  5
501
100
AcDbEntity
  8
0
100
AcDbLine
 62
7
  6
CONTINUOUS
 10
233.875
 20
108.1590426073
 11
234.125
 21
108.1590426073
  0
LINE
  5
502
100
AcDbEntity
  8
0
100
AcDbLine
 62
7
  6
CONTINUOUS
 10
218.1251382785
 20
133.8176677056
 11
218.1223158669
 21
133.7504358115
  0
LWPOLYLINE
  5
503
100
AcDbEntity
  8
RUNDUNGEN
100
AcDbPolyline
 62
7
  6
CONTINUOUS
 90
11
 70
0
 10
206.6628780107
 20
109.6140853503
 10
206.5258144322
 20
109.5516360682
 10
206.4007928303
 20
109.4821400901
 10
206.2852162374
 20
109.4028466894
 10
206.1795365646
 20
109.3119340529
 10
206.0843141776
 20
109.2068471754
 10
206.0036227642
 20
109.0886447124
 10
205.9409384809
 20
108.9599164655
 10
205.8983184417
 20
108.8230877279
 10
205.8773443624
 20
108.6826232078
 10
205.8750297807
 20
108.6208204822
  0
LINE
  5
504
100
AcDbEntity
  8
RUNDUNGEN
100
AcDbLine
 62
7
  6
CONTINUOUS
 10
219.8442085132
 20
110.1420060206
 11
208.63389321
 21
110.0549683073
  0
LINE
  5
505
100
AcDbEntity
  8
0
100
AcDbLine
 62
7
  6
CONTINUOUS
 10
233.875
 20
108.5690669732
 11
234.125
 21
108.5690669732
  0
LINE
  5
506
100
AcDbEntity
  8
0
100
AcDbLine
 62
7
  6
CONTINUOUS
 10
233.875
 20
108.8721326291
 11
234.125
 21
108.8721326291
  0
LINE
  5
507
100
AcDbEntity
  8
0
100
AcDbLine
 62
7
  6
CONTINUOUS
 10
233.875
 20
108.9522179378
 11
234.125
 21
108.9522179378
  0
LINE
  5
508
100
AcDbEntity
  8
0
100
AcDbLine
 62
7
  6
CONTINUOUS
 10
233.875
 20
108.9885724645
 11
234.125
 21
108.9885724645
  0
LINE
  5
509
100
AcDbEntity
  8
0
100
AcDbLine
 62
7
  6
CONTINUOUS
 10
233.875
 20
109.2462153913
 11
234.125
 21
109.2462153913
  0
LINE
  5
50A
100
AcDbEntity
  8
0
100
AcDbLine
 62
7
  6
CONTINUOUS
 10
233.875
 20
109.2696305774
 11
234.125
 21
109.2696305774
  0
LINE
  5
50B
100
AcDbEntity
  8
0
100
AcDbLine
 62
7
  6
CONTINUOUS
 10
233.875
 20
109.3493234511
 11
234.125
 21
109.3493234511
  0
LINE
  5
50C
100
AcDbEntity
  8
0
100
AcDbLine
 62
7
  6
CONTINUOUS
 10
233.875
 20
109.6593046352
 11
234.125
 21
109.6593046352
  0
LINE
  5
50D
100
AcDbEntity
  8
0
100
AcDbLine
 62
7
  6
CONTINUOUS
 10
233.875
 20
109.7064063835
 11
234.125
 21
109.7064063835
  0
LINE
  5
50E
100
AcDbEntity
  8
RUNDUNGEN
100
AcDbLine
 62
7
  6
CONTINUOUS
 10
231.116106802
 20
110.0549683072
 11
219.905790539
 21
110.142006028
  0
LINE
  5
50F
100
AcDbEntity
  8
RUNDUNGEN
100
AcDbLine
 62
7
  6
CONTINUOUS
 10
229.8803739733
 20
100.6474228729
 11
229.8804065204
 21
100.6473970551
  0
LINE
  5
510
100
AcDbEntity
  8
RUNDUNGEN
100
AcDbLine
 62
7
  6
CONTINUOUS
 10
233.2252245277
 20
93.3638951553
 11
233.0068970195
 21
93.6153817598
  0
LINE
  5
511
100
AcDbEntity
  8
RUNDUNGEN
100
AcDbLine
 62
7
  6
CONTINUOUS
 10
219.875
 20
112.0000000006
 11
219.874987539
 21
110.0985258813
  0
LWPOLYLINE
  5
512
100
AcDbEntity
  8
0
100
AcDbPolyline
 62
7
  6
CONTINUOUS
 90
3
 70
0
 10
233.1435924589
 20
130.5366425229
 10
233.2251113617
 20
130.6359578465
 10
233.4295550068
 20
130.9357763298
  0
LINE
  5
513
100
AcDbEntity
  8
RUNDUNGEN
100
AcDbLine
 62
7
  6
CONTINUOUS
 10
208.4781403187
 20
110.043950896
 11
208.4289669068
 21
110.0353388551
  0
LINE
  5
514
100
AcDbEntity
  8
RUNDUNGEN
100
AcDbLine
 62
7
  6
CONTINUOUS
 10
208.5629451819
 20
110.0525750298
 11
208.4781403187
 21
110.043950896
  0
LINE
  5
515
100
AcDbEntity
  8
RUNDUNGEN
100
AcDbLine
 62
7
  6
CONTINUOUS
 10
208.6338939553
 20
110.0549660877
 11
208.5629451819
 21
110.0525750298
  0
LINE
  5
516
100
AcDbEntity
  8
0
100
AcDbLine
 62
7
  6
CONTINUOUS
 10
233.875
 20
110.6181904223
 11
234.125
 21
110.6181904223
  0
LINE
  5
517
100
AcDbEntity
  8
0
100
AcDbLine
 62
7
  6
CONTINUOUS
 10
233.875
 20
110.8160651921
 11
234.125
 21
110.8160651921
  0
LINE
  5
518
100
AcDbEntity
  8
0
100
AcDbLine
 62
7
  6
CONTINUOUS
 10
233.875
 20
111.6531222626
 11
234.125
 21
111.6531222626
  0
LINE
  5
519
100
AcDbEntity
  8
0
100
AcDbLine
 62
7
  6
CONTINUOUS
 10
233.875
 20
111.9661979582
 11
234.125
 21
111.9661979582
  0
LINE
  5
51A
100
AcDbEntity
  8
0
100
AcDbLine
 62
7
  6
CONTINUOUS
 10
234.125
 20
111.9997652305
 11
233.875
 21
111.9997652305
  0
LINE
  5
51B
100
AcDbEntity
  8
DEFAULT_1
100
AcDbLine
 62
7
  6
CENTER
 10
202.875
 20
112.0
 11
205.875
 21
112.0000000006
  0
LINE
  5
51C
100
AcDbEntity
  8
DEFAULT_1
100
AcDbLine
 62
7
  6
CENTER
 10
234.125
 20
111.9997652305
 11
237.125
 21
112.0
  0
LINE
  5
51D
100
AcDbEntity
  8
0
100
AcDbLine
 62
2
  6
CONTINUOUS
 10
205.875
 20
112.0000000006
 11
233.875
 21
112.0000000006
  0
LINE
  5
51E
100
AcDbEntity
  8
0
100
AcDbLine
 62
7
  6
CONTINUOUS
 10
233.875
 20
112.1500003815
 11
234.125
 21
112.1500003815
  0
LWPOLYLINE
  5
51F
100
AcDbEntity
  8
RUNDUNGEN
100
AcDbPolyline
 62
7
  6
CONTINUOUS
 90
3
 70
0
 10
231.2719003163
 20
110.0439448125
 10
231.1870860372
 20
110.0525731683
 10
231.1161060561
 20
110.0549660511
  0
LINE
  5
520
100
AcDbEntity
  8
RUNDUNGEN
100
AcDbLine
 62
7
  6
CONTINUOUS
 10
231.3210250232
 20
110.035340312
 11
231.2719003163
 21
110.0439448125
  0
LWPOLYLINE
  5
521
100
AcDbEntity
  8
RUNDUNGEN
100
AcDbPolyline
 62
7
  6
CONTINUOUS
 90
5
 70
0
 10
232.053832534
 20
98.7650243456
 10
231.5365030477
 20
99.2429890753
 10
230.9165267076
 20
99.7903818075
 10
230.2838969075
 20
100.32202763
 10
229.8803960148
 20
100.6474053929
  0
LINE
  5
522
100
AcDbEntity
  8
RUNDUNGEN
100
AcDbLine
 62
7
  6
CONTINUOUS
 10
232.8299221172
 20
98.0327827956
 11
232.0538318062
 21
98.7650249413
  0
LINE
  5
523
100
AcDbEntity
  8
0
100
AcDbLine
 62
7
  6
CONTINUOUS
 10
206.32616519
 20
130.9262894647
 11
206.5316411477
 21
130.6272188747
  0
LWPOLYLINE
  5
524
100
AcDbEntity
  8
0
100
AcDbPolyline
 62
7
  6
CONTINUOUS
 90
5
 70
0
 10
206.6062170849
 20
130.5400491039
 10
206.6015463629
 20
130.5473073088
 10
206.6006901582
 20
130.5487088096
 10
206.605610055
 20
130.5365223864
 10
206.6058815916
 20
130.5355910974
  0
LWPOLYLINE
  5
525
100
AcDbEntity
  8
RUNDUNGEN
100
AcDbPolyline
 62
7
  6
CONTINUOUS
 90
8
 70
0
 10
206.7424465217
 20
93.6153868012
 10
206.5315054907
 20
93.3726061823
 10
206.3261024426
 20
93.0736068784
 10
206.1567150383
 20
92.7534656679
 10
206.0255554721
 20
92.4161245969
 10
205.9344001893
 20
92.0657698665
 10
205.8847168017
 20
91.7068450801
 10
205.875022546
 20
91.4625409403
  0
LWPOLYLINE
  5
526
100
AcDbEntity
  8
RUNDUNGEN
100
AcDbPolyline
 62
7
  6
CONTINUOUS
 90
8
 70
0
 10
206.9200833608
 20
98.0327676404
 10
206.7561891474
 20
97.8666043379
 10
206.5231261179
 20
97.5825796818
 10
206.3220399062
 20
97.2727638113
 10
206.1555588412
 20
96.9407579073
 10
206.0259373152
 20
96.590198085
 10
205.9352119112
 20
96.2250476172
 10
205.884343311
 20
95.8387208419
  0
LINE
  5
527
100
AcDbEntity
  8
RUNDUNGEN
100
AcDbLine
 62
7
  6
CONTINUOUS
 10
207.6961681868
 20
98.7650249347
 11
206.9200781586
 21
98.0327830557
  0
LWPOLYLINE
  5
528
100
AcDbEntity
  8
RUNDUNGEN
100
AcDbPolyline
 62
7
  6
CONTINUOUS
 90
5
 70
0
 10
207.3068571115
 20
109.8025187335
 10
207.1771052328
 20
109.7738909774
 10
206.9846787405
 20
109.7242336651
 10
206.8146057916
 20
109.6711902554
 10
206.6628780107
 20
109.6140853503
  0
LINE
  5
529
100
AcDbEntity
  8
RUNDUNGEN
100
AcDbLine
 62
7
  6
CONTINUOUS
 10
208.4283534066
 20
110.0352121232
 11
207.3065632851
 21
109.8024621805
  0
LINE
  5
52A
100
AcDbEntity
  8
0
100
AcDbLine
 62
7
  6
CONTINUOUS
 10
233.875
 20
112.3166667938
 11
234.125
 21
112.3166667938
  0
LINE
  5
52B
100
AcDbEntity
  8
0
100
AcDbLine
 62
7
  6
CONTINUOUS
 10
233.875
 20
112.4833332062
 11
234.125
 21
112.4833332062
  0
LINE
  5
52C
100
AcDbEntity
  8
0
100
AcDbLine
 62
7
  6
CONTINUOUS
 10
233.875
 20
112.5833332062
 11
234.125
 21
112.5833332062
  0
LINE
  5
52D
100
AcDbEntity
  8
0
100
AcDbLine
 62
7
  6
CONTINUOUS
 10
233.875
 20
112.6166667938
 11
234.125
 21
112.6166667938
  0
LINE
  5
52E
100
AcDbEntity
  8
RUNDUNGEN
100
AcDbLine
 62
7
  6
CONTINUOUS
 10
232.4434367991
 20
109.8024621631
 11
231.3216572832
 21
110.0352099053
  0
LINE
  5
52F
100
AcDbEntity
  8
0
100
AcDbLine
 62
7
  6
CONTINUOUS
 10
206.5316411477
 20
130.6272188747
 11
206.6059850397
 21
130.5369657068
  0
LINE
  5
530
100
AcDbEntity
  8
RUNDUNGEN
100
AcDbLine
 62
7
  6
CONTINUOUS
 10
233.4295988378
 20
93.0641506854
 11
233.2184945093
 21
93.3726061823
  0
LINE
  5
531
100
AcDbEntity
  8
0
100
AcDbLine
 62
7
  6
CONTINUOUS
 10
221.6275021834
 20
133.7531689616
 11
221.6248616498
 21
133.8176677397
  0
LWPOLYLINE
  5
532
100
AcDbEntity
  8
0
100
AcDbPolyline
 62
7
  6
CONTINUOUS
 90
6
 70
0
 10
233.4295550068
 20
130.9357763298
 10
233.5978647671
 20
131.2565980931
 10
233.7278450206
 20
131.5944549297
 10
233.817750364
 20
131.9451569785
 10
233.8661424741
 20
132.304250048
 10
233.8749774458
 20
132.5374576981
  0
LWPOLYLINE
  5
533
100
AcDbEntity
  8
RUNDUNGEN
100
AcDbPolyline
 62
7
  6
CONTINUOUS
 90
5
 70
0
 10
209.8696013908
 20
100.647403583
 10
209.4739107413
 20
100.3284237087
 10
208.841202754
 20
99.7970385594
 10
208.2210436709
 20
99.2498150863
 10
207.6961675014
 20
98.7650243986
  0
LINE
  5
534
100
AcDbEntity
  8
RUNDUNGEN
100
AcDbLine
 62
7
  6
CONTINUOUS
 10
209.8695909484
 20
100.6473952955
 11
209.86963435
 21
100.6474297235
  0
LINE
  5
535
100
AcDbEntity
  8
0
100
AcDbLine
 62
7
  6
CONTINUOUS
 10
233.875
 20
114.5741016973
 11
234.125
 21
114.5741016973
  0
LINE
  5
536
100
AcDbEntity
  8
0
100
AcDbLine
 62
7
  6
CONTINUOUS
 10
233.875
 20
114.5995596491
 11
234.125
 21
114.5995596491
  0
LINE
  5
537
100
AcDbEntity
  8
0
100
AcDbLine
 62
7
  6
CONTINUOUS
 10
233.875
 20
114.6653249397
 11
234.125
 21
114.6653249397
  0
LINE
  5
538
100
AcDbEntity
  8
0
100
AcDbLine
 62
7
  6
CONTINUOUS
 10
233.875
 20
114.8038259027
 11
234.125
 21
114.8038259027
  0
LINE
  5
539
100
AcDbEntity
  8
0
100
AcDbLine
 62
7
  6
CONTINUOUS
 10
233.875
 20
114.9580863525
 11
234.125
 21
114.9580863525
  0
LINE
  5
53A
100
AcDbEntity
  8
0
100
AcDbLine
 62
7
  6
CONTINUOUS
 10
233.875
 20
115.1202272879
 11
234.125
 21
115.1202272879
  0
LINE
  5
53B
100
AcDbEntity
  8
0
100
AcDbLine
 62
7
  6
CONTINUOUS
 10
233.875
 20
115.2902472246
 11
234.125
 21
115.2902472246
  0
LINE
  5
53C
100
AcDbEntity
  8
0
100
AcDbLine
 62
7
  6
CONTINUOUS
 10
233.875
 20
115.4760266482
 11
234.125
 21
115.4760266482
  0
LINE
  5
53D
100
AcDbEntity
  8
0
100
AcDbLine
 62
7
  6
CONTINUOUS
 10
233.875
 20
115.6048298864
 11
234.125
 21
115.6048298864
  0
LINE
  5
53E
100
AcDbEntity
  8
0
100
AcDbLine
 62
7
  6
CONTINUOUS
 10
233.875
 20
115.7090852767
 11
234.125
 21
115.7090852767
  0
LINE
  5
53F
100
AcDbEntity
  8
0
100
AcDbLine
 62
7
  6
CONTINUOUS
 10
233.875
 20
115.7966710804
 11
234.125
 21
115.7966710804
  0
LINE
  5
540
100
AcDbEntity
  8
0
100
AcDbLine
 62
7
  6
CONTINUOUS
 10
233.875
 20
115.8518292796
 11
234.125
 21
115.8518292796
  0
LINE
  5
541
100
AcDbEntity
  8
0
100
AcDbLine
 62
7
  6
CONTINUOUS
 10
233.875
 20
115.8745598856
 11
234.125
 21
115.8745598856
  0
LINE
  5
542
100
AcDbEntity
  8
0
100
AcDbLine
 62
7
  6
CONTINUOUS
 10
233.875
 20
116.0850072859
 11
234.125
 21
116.0850072859
  0
LINE
  5
543
100
AcDbEntity
  8
0
100
AcDbLine
 62
7
  6
CONTINUOUS
 10
233.875
 20
116.1017387555
 11
234.125
 21
116.1017387555
  0
LINE
  5
544
100
AcDbEntity
  8
0
100
AcDbLine
 62
7
  6
CONTINUOUS
 10
233.875
 20
116.1613464337
 11
234.125
 21
116.1613464337
  0
LWPOLYLINE
  5
545
100
AcDbEntity
  8
RUNDUNGEN
100
AcDbPolyline
 62
7
  6
CONTINUOUS
 90
6
 70
0
 10
233.2297814232
 20
109.548812673
 10
233.093048295
 20
109.6116237406
 10
232.9416792611
 20
109.6690284288
 10
232.7719752231
 20
109.7223374348
 10
232.5798830283
 20
109.7722470874
 10
232.4431596248
 20
109.802515266
  0
LINE
  5
546
100
AcDbEntity
  8
RUNDUNGEN
100
AcDbLine
 62
7
  6
CONTINUOUS
 10
233.5978586609
 20
92.7434153879
 11
233.4238975574
 21
93.0736068784
  0
LINE
  5
547
100
AcDbEntity
  8
RUNDUNGEN
100
AcDbLine
 62
7
  6
CONTINUOUS
 10
224.875
 20
102.5724607282
 11
224.8750031296
 21
103.5847205304
  0
LINE
  5
548
100
AcDbEntity
  8
RUNDUNGEN
100
AcDbLine
 62
7
  6
CONTINUOUS
 10
224.8750025318
 20
103.5847205317
 11
224.8761010192
 21
103.6379968838
  0
LWPOLYLINE
  5
549
100
AcDbEntity
  8
RUNDUNGEN
100
AcDbPolyline
 62
7
  6
CONTINUOUS
 90
14
 70
0
 10
224.8761010192
 20
103.6379968838
 10
224.895859223
 20
103.8269257994
 10
224.943312016
 20
104.0230768805
 10
225.0195705815
 20
104.2166059061
 10
225.1233265763
 20
104.3996837103
 10
225.2508311603
 20
104.5653152716
 10
225.3963532048
 20
104.7081404684
 10
225.5525185189
 20
104.824685298
 10
225.7102608667
 20
104.9134096248
 10
225.8637278535
 20
104.9767057734
 10
226.006097124
 20
105.0173877008
 10
226.1345749654
 20
105.0399671845
 10
226.2460069935
 20
105.0486277395
 10
226.2719421067
 20
105.0491266201
  0
LINE
  5
54A
100
AcDbEntity
  8
0
100
AcDbLine
 62
7
  6
CONTINUOUS
 10
233.875
 20
116.2836997842
 11
234.125
 21
116.2836997842
  0
LINE
  5
54B
100
AcDbEntity
  8
0
100
AcDbLine
 62
7
  6
CONTINUOUS
 10
233.875
 20
116.460431992
 11
234.125
 21
116.460431992
  0
LINE
  5
54C
100
AcDbEntity
  8
0
100
AcDbLine
 62
7
  6
CONTINUOUS
 10
233.875
 20
116.6601705805
 11
234.125
 21
116.6601705805
  0
LINE
  5
54D
100
AcDbEntity
  8
0
100
AcDbLine
 62
7
  6
CONTINUOUS
 10
233.875
 20
116.8515437912
 11
234.125
 21
116.8515437912
  0
LINE
  5
54E
100
AcDbEntity
  8
0
100
AcDbLine
 62
7
  6
CONTINUOUS
 10
233.875
 20
116.9801716907
 11
234.125
 21
116.9801716907
  0
LINE
  5
54F
100
AcDbEntity
  8
0
100
AcDbLine
 62
7
  6
CONTINUOUS
 10
233.875
 20
117.0889304865
 11
234.125
 21
117.0889304865
  0
LINE
  5
550
100
AcDbEntity
  8
0
100
AcDbLine
 62
7
  6
CONTINUOUS
 10
233.875
 20
117.1548130697
 11
234.125
 21
117.1548130697
  0
LINE
  5
551
100
AcDbEntity
  8
0
100
AcDbLine
 62
7
  6
CONTINUOUS
 10
233.875
 20
117.2437024068
 11
234.125
 21
117.2437024068
  0
LINE
  5
552
100
AcDbEntity
  8
0
100
AcDbLine
 62
7
  6
CONTINUOUS
 10
233.875
 20
117.2731542279
 11
234.125
 21
117.2731542279
  0
LINE
  5
553
100
AcDbEntity
  8
RUNDUNGEN
100
AcDbLine
 62
7
  6
CONTINUOUS
 10
233.7278101344
 20
92.4056542687
 11
233.5932849617
 21
92.7534656679
  0
LINE
  5
554
100
AcDbEntity
  8
0
100
AcDbLine
 62
7
  6
CONTINUOUS
 10
233.875
 20
118.4673821108
 11
234.125
 21
118.4673821108
  0
LINE
  5
555
100
AcDbEntity
  8
0
100
AcDbLine
 62
7
  6
CONTINUOUS
 10
233.875
 20
118.5884966017
 11
234.125
 21
118.5884966017
  0
LINE
  5
556
100
AcDbEntity
  8
0
100
AcDbLine
 62
7
  6
CONTINUOUS
 10
233.875
 20
118.9920750887
 11
234.125
 21
118.9920750887
  0
LINE
  5
557
100
AcDbEntity
  8
0
100
AcDbLine
 62
7
  6
CONTINUOUS
 10
233.875
 20
119.3908974039
 11
234.125
 21
119.3908974039
  0
LINE
  5
558
100
AcDbEntity
  8
0
100
AcDbLine
 62
7
  6
CONTINUOUS
 10
233.875
 20
119.4792813439
 11
234.125
 21
119.4792813439
  0
LINE
  5
559
100
AcDbEntity
  8
0
100
AcDbLine
 62
7
  6
CONTINUOUS
 10
233.875
 20
119.5686754696
 11
234.125
 21
119.5686754696
  0
LINE
  5
55A
100
AcDbEntity
  8
0
100
AcDbLine
 62
7
  6
CONTINUOUS
 10
233.875
 20
119.5889457164
 11
234.125
 21
119.5889457164
  0
LINE
  5
55B
100
AcDbEntity
  8
0
100
AcDbLine
 62
7
  6
CONTINUOUS
 10
233.875
 20
119.6629833768
 11
234.125
 21
119.6629833768
  0
LINE
  5
55C
100
AcDbEntity
  8
0
100
AcDbLine
 62
7
  6
CONTINUOUS
 10
233.875
 20
119.8041580662
 11
234.125
 21
119.8041580662
  0
LINE
  5
55D
100
AcDbEntity
  8
0
100
AcDbLine
 62
7
  6
CONTINUOUS
 10
233.875
 20
119.9855863093
 11
234.125
 21
119.9855863093
  0
LWPOLYLINE
  5
55E
100
AcDbEntity
  8
RUNDUNGEN
100
AcDbPolyline
 62
7
  6
CONTINUOUS
 90
11
 70
0
 10
232.5296610111
 20
105.7345562913
 10
232.7346455594
 20
105.8082205605
 10
232.9881919831
 20
105.9212131714
 10
233.2025054582
 20
106.0431416539
 10
233.3860471395
 20
106.1765843647
 10
233.544338683
 20
106.3261283352
 10
233.674693793
 20
106.4914089414
 10
233.7751914785
 20
106.6726517655
 10
233.8415472565
 20
106.8639673566
 10
233.8722246804
 20
107.0561302646
 10
233.8749709881
 20
107.1299448051
  0
LINE
  5
55F
100
AcDbEntity
  8
RUNDUNGEN
100
AcDbLine
 62
7
  6
CONTINUOUS
 10
231.7537808467
 20
105.4804823783
 11
232.5298708413
 21
105.7346183737
  0
LINE
  5
560
100
AcDbEntity
  8
RUNDUNGEN
100
AcDbLine
 62
7
  6
CONTINUOUS
 10
231.1827383076
 20
105.3162968262
 11
231.7537935751
 21
105.4804861404
  0
LINE
  5
561
100
AcDbEntity
  8
0
100
AcDbLine
 62
7
  6
CONTINUOUS
 10
233.875
 20
120.1803844773
 11
234.125
 21
120.1803844773
  0
LINE
  5
562
100
AcDbEntity
  8
0
100
AcDbLine
 62
7
  6
CONTINUOUS
 10
233.875
 20
120.3214155429
 11
234.125
 21
120.3214155429
  0
LINE
  5
563
100
AcDbEntity
  8
0
100
AcDbLine
 62
7
  6
CONTINUOUS
 10
233.875
 20
120.4556897616
 11
234.125
 21
120.4556897616
  0
LINE
  5
564
100
AcDbEntity
  8
0
100
AcDbLine
 62
7
  6
CONTINUOUS
 10
233.875
 20
120.4867996791
 11
234.125
 21
120.4867996791
  0
LINE
  5
565
100
AcDbEntity
  8
0
100
AcDbLine
 62
7
  6
CONTINUOUS
 10
233.875
 20
120.6380300455
 11
234.125
 21
120.6380300455
  0
LINE
  5
566
100
AcDbEntity
  8
0
100
AcDbLine
 62
7
  6
CONTINUOUS
 10
233.875
 20
121.2084880677
 11
234.125
 21
121.2084880677
  0
LINE
  5
567
100
AcDbEntity
  8
0
100
AcDbLine
 62
7
  6
CONTINUOUS
 10
233.875
 20
121.2531909246
 11
234.125
 21
121.2531909246
  0
LINE
  5
568
100
AcDbEntity
  8
0
100
AcDbLine
 62
7
  6
CONTINUOUS
 10
233.875
 20
121.3455383744
 11
234.125
 21
121.3455383744
  0
LINE
  5
569
100
AcDbEntity
  8
0
100
AcDbLine
 62
7
  6
CONTINUOUS
 10
233.875
 20
121.5321944507
 11
234.125
 21
121.5321944507
  0
LINE
  5
56A
100
AcDbEntity
  8
0
100
AcDbLine
 62
7
  6
CONTINUOUS
 10
233.875
 20
121.6731670461
 11
234.125
 21
121.6731670461
  0
LINE
  5
56B
100
AcDbEntity
  8
0
100
AcDbLine
 62
7
  6
CONTINUOUS
 10
233.875
 20
121.8627647956
 11
234.125
 21
121.8627647956
  0
LINE
  5
56C
100
AcDbEntity
  8
0
100
AcDbLine
 62
7
  6
CONTINUOUS
 10
233.875
 20
122.0543236971
 11
234.125
 21
122.0543236971
  0
LINE
  5
56D
100
AcDbEntity
  8
RUNDUNGEN
100
AcDbLine
 62
7
  6
CONTINUOUS
 10
233.8177092613
 20
92.055053828
 11
233.7244445279
 21
92.4161245969
  0
LINE
  5
56E
100
AcDbEntity
  8
0
100
AcDbLine
 62
7
  6
CONTINUOUS
 10
233.875
 20
122.1749059874
 11
234.125
 21
122.1749059874
  0
LINE
  5
56F
100
AcDbEntity
  8
0
100
AcDbLine
 62
7
  6
CONTINUOUS
 10
233.875
 20
122.2556882398
 11
234.125
 21
122.2556882398
  0
LINE
  5
570
100
AcDbEntity
  8
0
100
AcDbLine
 62
7
  6
CONTINUOUS
 10
233.875
 20
122.4462665525
 11
234.125
 21
122.4462665525
  0
LINE
  5
571
100
AcDbEntity
  8
0
100
AcDbLine
 62
7
  6
CONTINUOUS
 10
233.875
 20
122.5668488449
 11
234.125
 21
122.5668488449
  0
LINE
  5
572
100
AcDbEntity
  8
0
100
AcDbLine
 62
7
  6
CONTINUOUS
 10
233.875
 20
122.6640991959
 11
234.125
 21
122.6640991959
  0
LINE
  5
573
100
AcDbEntity
  8
0
100
AcDbLine
 62
7
  6
CONTINUOUS
 10
233.875
 20
122.7380174692
 11
234.125
 21
122.7380174692
  0
LINE
  5
574
100
AcDbEntity
  8
RUNDUNGEN
100
AcDbLine
 62
7
  6
CONTINUOUS
 10
233.8661186654
 20
91.6960644895
 11
233.8155998107
 21
92.0657698665
  0
LWPOLYLINE
  5
575
100
AcDbEntity
  8
RUNDUNGEN
100
AcDbPolyline
 62
7
  6
CONTINUOUS
 90
8
 70
0
 10
233.865656689
 20
95.8387208419
 10
233.8168311269
 20
96.2142218817
 10
233.7273175568
 20
96.5795745694
 10
233.5988697756
 20
96.9305092313
 10
233.4334935136
 20
97.2630662156
 10
233.2334273701
 20
97.5735876663
 10
233.0012679509
 20
97.8584575257
 10
232.8299167825
 20
98.0327674249
  0
LINE
  5
576
100
AcDbEntity
  8
RUNDUNGEN
100
AcDbLine
 62
7
  6
CONTINUOUS
 10
233.874977454
 20
91.4625409403
 11
233.8652831983
 21
91.7068450801
  0
LINE
  5
577
100
AcDbEntity
  8
RUNDUNGEN
100
AcDbLine
 62
7
  6
CONTINUOUS
 10
233.8749817784
 20
95.5868281611
 11
233.8648367192
 21
95.849569498
  0
LWPOLYLINE
  5
578
100
AcDbEntity
  8
RUNDUNGEN
100
AcDbPolyline
 62
7
  6
CONTINUOUS
 90
10
 70
0
 10
233.87496982
 20
108.6209091768
 10
233.8731153431
 20
108.6758110622
 10
233.8531603499
 20
108.8165208654
 10
233.8115110716
 20
108.9536887187
 10
233.7497030824
 20
109.0828865199
 10
233.6697379446
 20
109.2016938112
 10
233.5750789948
 20
109.3074345077
 10
233.469779022
 20
109.3990026741
 10
233.3544971517
 20
109.4788673469
 10
233.2297814232
 20
109.548812673
  0
LINE
  5
579
100
AcDbEntity
  8
0
100
AcDbLine
 62
7
  6
CONTINUOUS
 10
233.875
 20
133.7213975844
 11
233.875
 21
133.6982128534
  0
LINE
  5
57A
100
AcDbEntity
  8
0
100
AcDbLine
 62
7
  6
CONTINUOUS
 10
233.875
 20
129.5840261673
 11
233.875
 21
129.4872010352
  0
LINE
  5
57B
100
AcDbEntity
  8
RUNDUNGEN
100
AcDbLine
 62
7
  6
CONTINUOUS
 10
233.875
 20
90.2804842067
 11
233.875
 21
91.4624959667
  0
LINE
  5
57C
100
AcDbEntity
  8
RUNDUNGEN
100
AcDbLine
 62
7
  6
CONTINUOUS
 10
233.875
 20
94.4159683256
 11
233.875
 21
95.5868175323
  0
LINE
  5
57D
100
AcDbEntity
  8
RUNDUNGEN
100
AcDbLine
 62
7
  6
CONTINUOUS
 10
233.875
 20
96.5043437019
 11
233.875
 21
112.0000000006
  0
LINE
  5
57E
100
AcDbEntity
  8
0
100
AcDbLine
 62
7
  6
CONTINUOUS
 10
233.875
 20
112.0000000006
 11
233.875
 21
129.1874225238
  0
LINE
  5
57F
100
AcDbEntity
  8
RUNDUNGEN
100
AcDbLine
 62
7
  6
CONTINUOUS
 10
233.875
 20
129.1874225238
 11
233.875
 21
129.5839623397
  0
LINE
  5
580
100
AcDbEntity
  8
RUNDUNGEN
100
AcDbLine
 62
7
  6
CONTINUOUS
 10
233.875
 20
132.5375040333
 11
233.875
 21
133.7217530911
  0
LINE
  5
581
100
AcDbEntity
  8
0
100
AcDbLine
 62
7
  6
CONTINUOUS
 10
205.875
 20
124.3483551536
 11
233.875
 21
124.3483551536
  0
LINE
  5
582
100
AcDbEntity
  8
0
100
AcDbLine
 62
7
  6
CONTINUOUS
 10
234.125
 20
122.7380174692
 11
234.125
 21
119.5686754696
  0
LINE
  5
583
100
AcDbEntity
  8
0
100
AcDbLine
 62
7
  6
CONTINUOUS
 10
234.125
 20
119.4792813439
 11
234.125
 21
116.0850072859
  0
LINE
  5
584
100
AcDbEntity
  8
0
100
AcDbLine
 62
7
  6
CONTINUOUS
 10
234.125
 20
115.8745598856
 11
234.125
 21
114.5741016973
  0
LINE
  5
585
100
AcDbEntity
  8
0
100
AcDbLine
 62
7
  6
CONTINUOUS
 10
234.125
 20
112.6166667938
 11
234.125
 21
111.971307814
  0
LINE
  5
586
100
AcDbEntity
  8
0
100
AcDbLine
 62
7
  6
CONTINUOUS
 10
234.125
 20
111.9661979582
 11
234.125
 21
111.6531222626
  0
LINE
  5
587
100
AcDbEntity
  8
0
100
AcDbLine
 62
7
  6
CONTINUOUS
 10
234.125
 20
111.6470625438
 11
234.125
 21
101.000984848
  0
LINE
  5
588
100
AcDbEntity
  8
0
100
AcDbLine
 62
7
  6
CONTINUOUS
 10
233.875
 20
128.05
 11
205.875
 21
128.05
  0
LINE
  5
589
100
AcDbEntity
  8
RUNDUNGEN
100
AcDbLine
 62
7
  6
CONTINUOUS
 10
221.8237534167
 20
133.2009940647
 11
221.8239363612
 21
133.200781064
  0
LWPOLYLINE
  5
58A
100
AcDbEntity
  8
0
100
AcDbPolyline
 62
7
  6
CONTINUOUS
 90
3
 70
0
 10
221.8237534167
 20
133.2009940647
 10
221.8181740394
 20
133.2076656928
 10
221.7933358383
 20
133.2410188776
  0
LINE
  5
58B
100
AcDbEntity
  8
0
100
AcDbLine
 62
7
  6
CONTINUOUS
 10
206.8592926827
 20
130.1872991563
 11
214.1883063503
 21
130.3024325033
  0
LINE
  5
58C
100
AcDbEntity
  8
0
100
AcDbLine
 62
7
  6
CONTINUOUS
 10
225.5616936511
 20
130.3024325032
 11
232.8907073173
 21
130.1872991563
  0
LWPOLYLINE
  5
58D
100
AcDbEntity
  8
0
100
AcDbPolyline
 62
7
  6
CONTINUOUS
 90
5
 70
0
 10
221.8935996006
 20
133.1312430046
 10
221.903006269
 20
133.1261124275
 10
221.8965166046
 20
133.1307219531
 10
221.8708526603
 20
133.1521944713
 10
221.8239450948
 20
133.2007885752
  0
LINE
  5
58E
100
AcDbEntity
  8
0
100
AcDbLine
 62
7
  6
CONTINUOUS
 10
233.2975841128
 20
130.157491055
 11
233.2416395463
 21
130.2396051346
  0
LWPOLYLINE
  5
58F
100
AcDbEntity
  8
0
100
AcDbPolyline
 62
7
  6
CONTINUOUS
 90
6
 70
0
 10
233.2416395463
 20
130.2396051346
 10
233.1997146092
 20
130.3205014541
 10
233.1711037578
 20
130.3955615252
 10
233.1540305913
 20
130.4604080042
 10
233.1459201106
 20
130.5109444042
 10
233.1438692452
 20
130.5364153342
  0
LINE
  5
590
100
AcDbEntity
  8
0
100
AcDbLine
 62
7
  6
CONTINUOUS
 10
206.6688565014
 20
134.5217856129
 11
218.4862399314
 21
134.6125383869
  0
LINE
  5
591
100
AcDbEntity
  8
0
100
AcDbLine
 62
7
  6
CONTINUOUS
 10
219.225
 20
134.90022214
 11
220.525
 21
134.90022214
  0
LINE
  5
592
100
AcDbEntity
  8
0
100
AcDbLine
 62
7
  6
CONTINUOUS
 10
221.2637601383
 20
134.6125383863
 11
233.0811434986
 21
134.5217856129
  0
LWPOLYLINE
  5
593
100
AcDbEntity
  8
0
100
AcDbPolyline
 62
7
  6
CONTINUOUS
 90
3
 70
0
 10
233.4523362599
 20
130.0042606047
 10
233.3680275027
 20
130.0777268237
 10
233.2975841128
 20
130.157491055
  0
ARC
  5
594
100
AcDbEntity
  8
RUNDUNGEN
100
AcDbCircle
 62
7
  6
CONTINUOUS
 10
91.9805121166
 20
98.0037923516
 40
1.2999784962
100
AcDbArc
 50
14.4169624671
 51
84.3337383255
  0
ARC
  5
595
100
AcDbEntity
  8
RUNDUNGEN
100
AcDbCircle
 62
7
  6
CONTINUOUS
 10
95.6652147496
 20
94.7145340477
 40
1.1998820492
100
AcDbArc
 50
240.0
 51
317.5
  0
ARC
  5
596
100
AcDbEntity
  8
RUNDUNGEN
100
AcDbCircle
 62
7
  6
CONTINUOUS
 10
95.6652147496
 20
94.7145340477
 40
1.0985821047
100
AcDbArc
 50
240.0
 51
317.5
  0
ARC
  5
597
100
AcDbEntity
  8
RUNDUNGEN
100
AcDbCircle
 62
7
  6
CONTINUOUS
 10
94.8845581574
 20
94.9343062337
 40
0.9998820492
100
AcDbArc
 50
169.5259415796
 51
240.0
  0
ARC
  5
598
100
AcDbEntity
  8
RUNDUNGEN
100
AcDbCircle
 62
7
  6
CONTINUOUS
 10
94.8845581574
 20
94.9343062337
 40
0.8985821047
100
AcDbArc
 50
169.5259415796
 51
240.0
  0
ARC
  5
599
100
AcDbEntity
  8
0
100
AcDbCircle
 62
7
  6
CONTINUOUS
 10
95.2174474264
 20
104.9821916529
 40
7.9121079962
100
AcDbArc
 50
84.0226206017
 51
86.8429988252
  0
ARC
  5
59A
100
AcDbEntity
  8
0
100
AcDbCircle
 62
7
  6
CONTINUOUS
 10
93.9853649482
 20
111.4983805818
 40
7.2651478782
100
AcDbArc
 50
62.6248281014
 51
65.5466426884
  0
ARC
  5
59B
100
AcDbEntity
  8
RUNDUNGEN
100
AcDbCircle
 62
7
  6
CONTINUOUS
 10
92.3586008059
 20
101.8147334264
 40
2.5296889928
100
AcDbArc
 50
155.6656413602
 51
264.3343586398
  0
ARC
  5
59C
100
AcDbEntity
  8
RUNDUNGEN
100
AcDbCircle
 62
7
  6
CONTINUOUS
 10
88.8691890144
 20
103.3927653051
 40
1.2999753137
100
AcDbArc
 50
335.6663535563
 51
45.585111571
  0
ARC
  5
59D
100
AcDbEntity
  8
RUNDUNGEN
100
AcDbCircle
 62
7
  6
CONTINUOUS
 10
87.8629547439
 20
108.2284447915
 40
1.1998820492
100
AcDbArc
 50
102.5
 51
180.0
  0
ARC
  5
59E
100
AcDbEntity
  8
RUNDUNGEN
100
AcDbCircle
 62
7
  6
CONTINUOUS
 10
87.8629547439
 20
108.2284447915
 40
1.0985821047
100
AcDbArc
 50
102.5
 51
180.0
  0
ARC
  5
59F
100
AcDbEntity
  8
RUNDUNGEN
100
AcDbCircle
 62
7
  6
CONTINUOUS
 10
92.3408365067
 20
110.7972140326
 40
1.0000904832
100
AcDbArc
 50
267.4806745544
 51
3.8889629423
  0
ARC
  5
5A0
100
AcDbEntity
  8
RUNDUNGEN
100
AcDbCircle
 62
7
  6
CONTINUOUS
 10
87.6629547439
 20
107.4424902581
 40
0.9998820492
100
AcDbArc
 50
180.0
 51
250.4740584204
  0
ARC
  5
5A1
100
AcDbEntity
  8
RUNDUNGEN
100
AcDbCircle
 62
7
  6
CONTINUOUS
 10
87.6629547439
 20
107.4424902581
 40
0.8985821047
100
AcDbArc
 50
180.0
 51
250.4740584204
  0
ARC
  5
5A2
100
AcDbEntity
  8
RUNDUNGEN
100
AcDbCircle
 62
7
  6
CONTINUOUS
 10
106.8886784093
 20
89.3965635365
 40
1.2999753137
100
AcDbArc
 50
35.6663535563
 51
105.585111571
  0
ARC
  5
5A3
100
AcDbEntity
  8
RUNDUNGEN
100
AcDbCircle
 62
7
  6
CONTINUOUS
 10
102.1977399943
 20
90.9429788392
 40
1.1998820492
100
AcDbArc
 50
162.5
 51
240.0
  0
ARC
  5
5A4
100
AcDbEntity
  8
RUNDUNGEN
100
AcDbCircle
 62
7
  6
CONTINUOUS
 10
102.1977399943
 20
90.9429788392
 40
1.0985821047
100
AcDbArc
 50
162.5
 51
240.0
  0
ARC
  5
5A5
100
AcDbEntity
  8
RUNDUNGEN
100
AcDbCircle
 62
7
  6
CONTINUOUS
 10
100.1287709507
 20
97.3081109691
 40
1.0000907426
100
AcDbArc
 50
56.1110191762
 51
152.5196153515
  0
ARC
  5
5A6
100
AcDbEntity
  8
RUNDUNGEN
100
AcDbCircle
 62
7
  6
CONTINUOUS
 10
102.2120614576
 20
96.1053228214
 40
1.0000904823
100
AcDbArc
 50
327.4806745276
 51
63.8889630025
  0
ARC
  5
5A7
100
AcDbEntity
  8
RUNDUNGEN
100
AcDbCircle
 62
7
  6
CONTINUOUS
 10
102.7783965864
 20
90.3767964918
 40
0.9998820492
100
AcDbArc
 50
240.0
 51
310.4740584204
  0
ARC
  5
5A8
100
AcDbEntity
  8
RUNDUNGEN
100
AcDbCircle
 62
7
  6
CONTINUOUS
 10
102.7783965864
 20
90.3767964918
 40
0.8985821047
100
AcDbArc
 50
240.0
 51
310.4740584204
  0
ARC
  5
5A9
100
AcDbEntity
  8
0
100
AcDbCircle
 62
7
  6
CONTINUOUS
 10
97.3041379414
 20
102.2247763312
 40
7.2664736563
100
AcDbArc
 50
98.4214331248
 51
101.3427145072
  0
ARC
  5
5AA
100
AcDbEntity
  8
RUNDUNGEN
100
AcDbCircle
 62
7
  6
CONTINUOUS
 10
92.3586008059
 20
122.1852665736
 40
2.5296889928
100
AcDbArc
 50
95.6656413602
 51
204.3343586398
  0
ARC
  5
5AB
100
AcDbEntity
  8
RUNDUNGEN
100
AcDbCircle
 62
7
  6
CONTINUOUS
 10
88.8691846782
 20
120.607230446
 40
1.2999784962
100
AcDbArc
 50
314.4169624671
 51
24.3337383255
  0
ARC
  5
5AC
100
AcDbEntity
  8
RUNDUNGEN
100
AcDbCircle
 62
7
  6
CONTINUOUS
 10
87.8629547439
 20
115.7715552085
 40
1.1998820492
100
AcDbArc
 50
180.0
 51
257.5
  0
ARC
  5
5AD
100
AcDbEntity
  8
RUNDUNGEN
100
AcDbCircle
 62
7
  6
CONTINUOUS
 10
87.8629547439
 20
115.7715552085
 40
1.0985821047
100
AcDbArc
 50
180.0
 51
257.5
  0
ARC
  5
5AE
100
AcDbEntity
  8
RUNDUNGEN
100
AcDbCircle
 62
7
  6
CONTINUOUS
 10
92.3408344071
 20
113.202793488
 40
1.0000901015
100
AcDbArc
 50
356.1108620959
 51
92.5195116891
  0
ARC
  5
5AF
100
AcDbEntity
  8
RUNDUNGEN
100
AcDbCircle
 62
7
  6
CONTINUOUS
 10
87.6629547439
 20
116.5575097419
 40
0.9998820492
100
AcDbArc
 50
109.5259415796
 51
180.0
  0
ARC
  5
5B0
100
AcDbEntity
  8
RUNDUNGEN
100
AcDbCircle
 62
7
  6
CONTINUOUS
 10
87.6629547439
 20
116.5575097419
 40
0.8985821047
100
AcDbArc
 50
109.5259415796
 51
180.0
  0
ARC
  5
5B1
100
AcDbEntity
  8
RUNDUNGEN
100
AcDbCircle
 62
7
  6
CONTINUOUS
 10
91.9805106051
 20
125.9962017686
 40
1.2999753137
100
AcDbArc
 50
275.6663535563
 51
345.585111571
  0
ARC
  5
5B2
100
AcDbEntity
  8
RUNDUNGEN
100
AcDbCircle
 62
7
  6
CONTINUOUS
 10
95.6652147496
 20
129.2854659523
 40
1.1998820492
100
AcDbArc
 50
42.5
 51
120.0
  0
ARC
  5
5B3
100
AcDbEntity
  8
RUNDUNGEN
100
AcDbCircle
 62
7
  6
CONTINUOUS
 10
95.6652147496
 20
129.2854659523
 40
1.0985821047
100
AcDbArc
 50
42.5
 51
120.0
  0
ARC
  5
5B4
100
AcDbEntity
  8
RUNDUNGEN
100
AcDbCircle
 62
7
  6
CONTINUOUS
 10
94.8845581574
 20
129.0656937663
 40
0.9998820492
100
AcDbArc
 50
120.0
 51
190.4740584204
  0
ARC
  5
5B5
100
AcDbEntity
  8
RUNDUNGEN
100
AcDbCircle
 62
7
  6
CONTINUOUS
 10
94.8845581574
 20
129.0656937663
 40
0.8985821047
100
AcDbArc
 50
120.0
 51
190.4740584204
  0
ARC
  5
5B6
100
AcDbEntity
  8
RUNDUNGEN
100
AcDbCircle
 62
7
  6
CONTINUOUS
 10
101.0
 20
128.3917662258
 40
2.0
100
AcDbArc
 50
298.7692579515
 51
347.3515649428
  0
ARC
  5
5B7
100
AcDbEntity
  8
RUNDUNGEN
100
AcDbCircle
 62
7
  6
CONTINUOUS
 10
106.8886725616
 20
134.6034380944
 40
1.2999784962
100
AcDbArc
 50
254.4169624671
 51
324.3337383255
  0
ARC
  5
5B8
100
AcDbEntity
  8
RUNDUNGEN
100
AcDbCircle
 62
7
  6
CONTINUOUS
 10
102.1977399943
 20
133.0570211608
 40
1.1998820492
100
AcDbArc
 50
120.0
 51
197.5
  0
ARC
  5
5B9
100
AcDbEntity
  8
RUNDUNGEN
100
AcDbCircle
 62
7
  6
CONTINUOUS
 10
102.1977399943
 20
133.0570211608
 40
1.0985821047
100
AcDbArc
 50
120.0
 51
197.5
  0
ARC
  5
5BA
100
AcDbEntity
  8
RUNDUNGEN
100
AcDbCircle
 62
7
  6
CONTINUOUS
 10
101.9753756713
 20
128.1727067947
 40
1.0003320746
100
AcDbArc
 50
347.3611366221
 51
48.6752992226
  0
ARC
  5
5BB
100
AcDbEntity
  8
RUNDUNGEN
100
AcDbCircle
 62
7
  6
CONTINUOUS
 10
100.1287648472
 20
126.6918849088
 40
1.0000907932
100
AcDbArc
 50
207.4940822327
 51
303.8890012604
  0
ARC
  5
5BC
100
AcDbEntity
  8
RUNDUNGEN
100
AcDbCircle
 62
7
  6
CONTINUOUS
 10
102.7783965864
 20
133.6232035082
 40
0.9998820492
100
AcDbArc
 50
49.5259415796
 51
120.0
  0
ARC
  5
5BD
100
AcDbEntity
  8
RUNDUNGEN
100
AcDbCircle
 62
7
  6
CONTINUOUS
 10
102.7783965864
 20
133.6232035082
 40
0.8985821047
100
AcDbArc
 50
49.5259415796
 51
120.0
  0
ARC
  5
5BE
100
AcDbEntity
  8
RUNDUNGEN
100
AcDbCircle
 62
7
  6
CONTINUOUS
 10
110.0
 20
91.6294668528
 40
2.5296889928
100
AcDbArc
 50
215.6656413602
 51
324.3343586398
  0
ARC
  5
5BF
100
AcDbEntity
  8
RUNDUNGEN
100
AcDbCircle
 62
7
  6
CONTINUOUS
 10
113.1113274384
 20
89.3965619056
 40
1.2999784962
100
AcDbArc
 50
74.4169624671
 51
144.3337383255
  0
ARC
  5
5C0
100
AcDbEntity
  8
RUNDUNGEN
100
AcDbCircle
 62
7
  6
CONTINUOUS
 10
117.8022600057
 20
90.9429788392
 40
1.1998820492
100
AcDbArc
 50
300.0
 51
17.5
  0
ARC
  5
5C1
100
AcDbEntity
  8
RUNDUNGEN
100
AcDbCircle
 62
7
  6
CONTINUOUS
 10
117.8022600057
 20
90.9429788392
 40
1.0985821047
100
AcDbArc
 50
300.0
 51
17.5
  0
ARC
  5
5C2
100
AcDbEntity
  8
RUNDUNGEN
100
AcDbCircle
 62
7
  6
CONTINUOUS
 10
117.7879320166
 20
96.1053190981
 40
1.0000907396
100
AcDbArc
 50
116.1110101376
 51
212.5190744251
  0
ARC
  5
5C3
100
AcDbEntity
  8
RUNDUNGEN
100
AcDbCircle
 62
7
  6
CONTINUOUS
 10
119.8712165146
 20
97.308102404
 40
1.0000906754
100
AcDbArc
 50
27.4871659193
 51
123.8889346483
  0
ARC
  5
5C4
100
AcDbEntity
  8
RUNDUNGEN
100
AcDbCircle
 62
7
  6
CONTINUOUS
 10
117.2216034136
 20
90.3767964918
 40
0.9998820492
100
AcDbArc
 50
229.5259415796
 51
300.0
  0
ARC
  5
5C5
100
AcDbEntity
  8
RUNDUNGEN
100
AcDbCircle
 62
7
  6
CONTINUOUS
 10
117.2216034136
 20
90.3767964918
 40
0.8985821047
100
AcDbArc
 50
229.5259415796
 51
300.0
  0
ARC
  5
5C6
100
AcDbEntity
  8
RUNDUNGEN
100
AcDbCircle
 62
7
  6
CONTINUOUS
 10
128.0194893949
 20
98.0037982314
 40
1.2999753137
100
AcDbArc
 50
95.6663535563
 51
165.585111571
  0
ARC
  5
5C7
100
AcDbEntity
  8
RUNDUNGEN
100
AcDbCircle
 62
7
  6
CONTINUOUS
 10
124.3347852504
 20
94.7145340477
 40
1.1998820492
100
AcDbArc
 50
222.5
 51
300.0
  0
ARC
  5
5C8
100
AcDbEntity
  8
RUNDUNGEN
100
AcDbCircle
 62
7
  6
CONTINUOUS
 10
124.3347852504
 20
94.7145340477
 40
1.0985821047
100
AcDbArc
 50
222.5
 51
300.0
  0
ARC
  5
5C9
100
AcDbEntity
  8
RUNDUNGEN
100
AcDbCircle
 62
7
  6
CONTINUOUS
 10
125.1154418426
 20
94.9343062337
 40
0.9998820492
100
AcDbArc
 50
300.0
 51
10.4740584204
  0
ARC
  5
5CA
100
AcDbEntity
  8
RUNDUNGEN
100
AcDbCircle
 62
7
  6
CONTINUOUS
 10
125.1154418426
 20
94.9343062337
 40
0.8985821047
100
AcDbArc
 50
300.0
 51
10.4740584204
  0
ARC
  5
5CB
100
AcDbEntity
  8
RUNDUNGEN
100
AcDbCircle
 62
7
  6
CONTINUOUS
 10
127.6413991941
 20
101.8147334264
 40
2.5296889928
100
AcDbArc
 50
275.6656413602
 51
24.3343586398
  0
ARC
  5
5CC
100
AcDbEntity
  8
RUNDUNGEN
100
AcDbCircle
 62
7
  6
CONTINUOUS
 10
131.1308153218
 20
103.392769554
 40
1.2999784962
100
AcDbArc
 50
134.4169624671
 51
204.3337383255
  0
ARC
  5
5CD
100
AcDbEntity
  8
RUNDUNGEN
100
AcDbCircle
 62
7
  6
CONTINUOUS
 10
132.1370452561
 20
108.2284447915
 40
1.1998820492
100
AcDbArc
 50
0.0
 51
77.5
  0
ARC
  5
5CE
100
AcDbEntity
  8
RUNDUNGEN
100
AcDbCircle
 62
7
  6
CONTINUOUS
 10
132.1370452561
 20
108.2284447915
 40
1.0985821047
100
AcDbArc
 50
0.0
 51
77.5
  0
ARC
  5
5CF
100
AcDbEntity
  8
RUNDUNGEN
100
AcDbCircle
 62
7
  6
CONTINUOUS
 10
127.6591644336
 20
110.79722072
 40
1.0000907478
100
AcDbArc
 50
176.1110553735
 51
272.5116999362
  0
ARC
  5
5D0
100
AcDbEntity
  8
RUNDUNGEN
100
AcDbCircle
 62
7
  6
CONTINUOUS
 10
132.3370452561
 20
107.4424902581
 40
0.9998820492
100
AcDbArc
 50
289.5259415796
 51
360.0
  0
ARC
  5
5D1
100
AcDbEntity
  8
RUNDUNGEN
100
AcDbCircle
 62
7
  6
CONTINUOUS
 10
132.3370452561
 20
107.4424902581
 40
0.8985821047
100
AcDbArc
 50
289.5259415796
 51
360.0
  0
ARC
  5
5D2
100
AcDbEntity
  8
RUNDUNGEN
100
AcDbCircle
 62
7
  6
CONTINUOUS
 10
110.0
 20
112.0
 40
16.7
100
AcDbArc
 50
56.1030867047
 51
61.2307420485
  0
ARC
  5
5D3
100
AcDbEntity
  8
RUNDUNGEN
100
AcDbCircle
 62
7
  6
CONTINUOUS
 10
110.0
 20
112.0
 40
16.7
100
AcDbArc
 50
118.7692579515
 51
123.8969515207
  0
ARC
  5
5D4
100
AcDbEntity
  8
RUNDUNGEN
100
AcDbCircle
 62
7
  6
CONTINUOUS
 10
110.0
 20
112.0
 40
16.7
100
AcDbArc
 50
176.1030734904
 51
183.8969126998
  0
ARC
  5
5D5
100
AcDbEntity
  8
RUNDUNGEN
100
AcDbCircle
 62
7
  6
CONTINUOUS
 10
110.0
 20
112.0
 40
16.7
100
AcDbArc
 50
236.1030724766
 51
243.8969126991
  0
ARC
  5
5D6
100
AcDbEntity
  8
RUNDUNGEN
100
AcDbCircle
 62
7
  6
CONTINUOUS
 10
110.0
 20
112.0
 40
16.7
100
AcDbArc
 50
296.1030631344
 51
303.8968781554
  0
ARC
  5
5D7
100
AcDbEntity
  8
RUNDUNGEN
100
AcDbCircle
 62
7
  6
CONTINUOUS
 10
110.0
 20
112.0
 40
16.7
100
AcDbArc
 50
356.1031092819
 51
3.8969738662
  0
ARC
  5
5D8
100
AcDbEntity
  8
0
100
AcDbCircle
 62
7
  6
CONTINUOUS
 10
110.0
 20
112.0
 40
12.75
100
AcDbArc
 50
104.4195052217
 51
75.5804947783
  0
ARC
  5
5D9
100
AcDbEntity
  8
RUNDUNGEN
100
AcDbCircle
 62
7
  6
CONTINUOUS
 10
115.8590983337
 20
131.141057052
 40
2.5925950878
100
AcDbArc
 50
304.7391579748
 51
307.5479428621
  0
ARC
  5
5DA
100
AcDbEntity
  8
RUNDUNGEN
100
AcDbCircle
 62
7
  6
CONTINUOUS
 10
110.0
 20
132.3705331472
 40
2.5296889928
100
AcDbArc
 50
35.6656413602
 51
144.3343586398
  0
ARC
  5
5DB
100
AcDbEntity
  8
RUNDUNGEN
100
AcDbCircle
 62
7
  6
CONTINUOUS
 10
115.9695658794
 20
130.9847432626
 40
2.4011951208
100
AcDbArc
 50
303.6885471798
 51
304.6985176534
  0
ARC
  5
5DC
100
AcDbEntity
  8
RUNDUNGEN
100
AcDbCircle
 62
7
  6
CONTINUOUS
 10
119.0
 20
128.3917662258
 40
2.0
100
AcDbArc
 50
192.6468353034
 51
241.2307420485
  0
ARC
  5
5DD
100
AcDbEntity
  8
RUNDUNGEN
100
AcDbCircle
 62
7
  6
CONTINUOUS
 10
113.1113215907
 20
134.6034364635
 40
1.2999753137
100
AcDbArc
 50
215.6663535563
 51
285.585111571
  0
ARC
  5
5DE
100
AcDbEntity
  8
RUNDUNGEN
100
AcDbCircle
 62
7
  6
CONTINUOUS
 10
117.8022600057
 20
133.0570211608
 40
1.1998820492
100
AcDbArc
 50
342.5
 51
60.0
  0
ARC
  5
5DF
100
AcDbEntity
  8
RUNDUNGEN
100
AcDbCircle
 62
7
  6
CONTINUOUS
 10
117.8022600057
 20
133.0570211608
 40
1.0985821047
100
AcDbArc
 50
342.5
 51
60.0
  0
ARC
  5
5E0
100
AcDbEntity
  8
RUNDUNGEN
100
AcDbCircle
 62
7
  6
CONTINUOUS
 10
118.0245633791
 20
128.1727578434
 40
1.000269481
100
AcDbArc
 50
131.3194112783
 51
192.6392833428
  0
ARC
  5
5E1
100
AcDbEntity
  8
RUNDUNGEN
100
AcDbCircle
 62
7
  6
CONTINUOUS
 10
119.8712254276
 20
126.6918914847
 40
1.0000907555
100
AcDbArc
 50
236.1110324694
 51
332.5114248869
  0
ARC
  5
5E2
100
AcDbEntity
  8
RUNDUNGEN
100
AcDbCircle
 62
7
  6
CONTINUOUS
 10
117.2216034136
 20
133.6232035082
 40
0.9998820492
100
AcDbArc
 50
60.0
 51
130.4740584204
  0
ARC
  5
5E3
100
AcDbEntity
  8
RUNDUNGEN
100
AcDbCircle
 62
7
  6
CONTINUOUS
 10
117.2216034136
 20
133.6232035082
 40
0.8985821047
100
AcDbArc
 50
60.0
 51
130.4740584204
  0
ARC
  5
5E4
100
AcDbEntity
  8
RUNDUNGEN
100
AcDbCircle
 62
7
  6
CONTINUOUS
 10
127.6413991941
 20
122.1852665736
 40
2.5296889928
100
AcDbArc
 50
335.6656413602
 51
84.3343586398
  0
ARC
  5
5E5
100
AcDbEntity
  8
RUNDUNGEN
100
AcDbCircle
 62
7
  6
CONTINUOUS
 10
131.1308109856
 20
120.6072346949
 40
1.2999753137
100
AcDbArc
 50
155.6663535563
 51
225.585111571
  0
ARC
  5
5E6
100
AcDbEntity
  8
RUNDUNGEN
100
AcDbCircle
 62
7
  6
CONTINUOUS
 10
132.1370452561
 20
115.7715552085
 40
1.1998820492
100
AcDbArc
 50
282.5
 51
360.0
  0
ARC
  5
5E7
100
AcDbEntity
  8
RUNDUNGEN
100
AcDbCircle
 62
7
  6
CONTINUOUS
 10
132.1370452561
 20
115.7715552085
 40
1.0985821047
100
AcDbArc
 50
282.5
 51
360.0
  0
ARC
  5
5E8
100
AcDbEntity
  8
RUNDUNGEN
100
AcDbCircle
 62
7
  6
CONTINUOUS
 10
127.6591626503
 20
113.2028048025
 40
1.000090774
100
AcDbArc
 50
87.4767806556
 51
183.8890214068
  0
ARC
  5
5E9
100
AcDbEntity
  8
RUNDUNGEN
100
AcDbCircle
 62
7
  6
CONTINUOUS
 10
132.3370452561
 20
116.5575097419
 40
0.9998820492
100
AcDbArc
 50
0.0
 51
70.4740584204
  0
ARC
  5
5EA
100
AcDbEntity
  8
RUNDUNGEN
100
AcDbCircle
 62
7
  6
CONTINUOUS
 10
132.3370452561
 20
116.5575097419
 40
0.8985821047
100
AcDbArc
 50
0.0
 51
70.4740584204
  0
ARC
  5
5EB
100
AcDbEntity
  8
RUNDUNGEN
100
AcDbCircle
 62
7
  6
CONTINUOUS
 10
128.0194878834
 20
125.9962076484
 40
1.2999784962
100
AcDbArc
 50
194.4169624671
 51
264.3337383255
  0
ARC
  5
5EC
100
AcDbEntity
  8
RUNDUNGEN
100
AcDbCircle
 62
7
  6
CONTINUOUS
 10
124.3347852504
 20
129.2854659523
 40
1.1998820492
100
AcDbArc
 50
60.0
 51
137.5
  0
ARC
  5
5ED
100
AcDbEntity
  8
RUNDUNGEN
100
AcDbCircle
 62
7
  6
CONTINUOUS
 10
124.3347852504
 20
129.2854659523
 40
1.0985821047
100
AcDbArc
 50
60.0
 51
137.5
  0
ARC
  5
5EE
100
AcDbEntity
  8
RUNDUNGEN
100
AcDbCircle
 62
7
  6
CONTINUOUS
 10
125.1154418426
 20
129.0656937663
 40
0.9998820492
100
AcDbArc
 50
349.5259415796
 51
60.0
  0
ARC
  5
5EF
100
AcDbEntity
  8
RUNDUNGEN
100
AcDbCircle
 62
7
  6
CONTINUOUS
 10
125.1154418426
 20
129.0656937663
 40
0.8985821047
100
AcDbArc
 50
349.5259415796
 51
60.0
  0
ARC
  5
5F0
100
AcDbEntity
  8
RUNDUNGEN
100
AcDbCircle
 62
7
  6
CONTINUOUS
 10
219.875
 20
106.1420572163
 40
4.0000769259
100
AcDbArc
 50
89.5551667556
 51
89.9984800741
  0
ARC
  5
5F1
100
AcDbEntity
  8
0
100
AcDbCircle
 62
7
  6
CONTINUOUS
 10
222.075
 20
129.8272987214
 40
2.8
100
AcDbArc
 50
22.8366124087
 51
78.0391398948
  0
ARC
  5
5F2
100
AcDbEntity
  8
0
100
AcDbCircle
 62
7
  6
CONTINUOUS
 10
217.675
 20
129.8272987214
 40
2.8
100
AcDbArc
 50
101.9608631626
 51
157.1633881725
  0
ARC
  5
5F3
100
AcDbEntity
  8
0
100
AcDbCircle
 62
7
  6
CONTINUOUS
 10
216.8253016873
 20
133.8382851944
 40
1.3000000941
100
AcDbArc
 50
281.9608613823
 51
356.1251596564
  0
ARC
  5
5F4
100
AcDbEntity
  8
0
100
AcDbCircle
 62
7
  6
CONTINUOUS
 10
222.9246981448
 20
133.8382852667
 40
1.2999999985
100
AcDbArc
 50
183.7541160632
 51
258.0391399329
  0
ARC
  5
5F5
100
AcDbEntity
  8
0
100
AcDbCircle
 62
7
  6
CONTINUOUS
 10
219.225
 20
133.80022214
 40
1.1
100
AcDbArc
 50
90.0
 51
179.0912735233
  0
ARC
  5
5F6
100
AcDbEntity
  8
0
100
AcDbCircle
 62
7
  6
CONTINUOUS
 10
220.525
 20
133.80022214
 40
1.1
100
AcDbArc
 50
0.9087283128
 51
90.0
  0
ARC
  5
5F7
100
AcDbEntity
  8
RUNDUNGEN
100
AcDbCircle
 62
7
  6
CONTINUOUS
 10
220.525
 20
90.19977786
 40
1.1
100
AcDbArc
 50
270.0
 51
312.2852635835
  0
ARC
  5
5F8
100
AcDbEntity
  8
RUNDUNGEN
100
AcDbCircle
 62
7
  6
CONTINUOUS
 10
219.225
 20
90.19977786
 40
1.1
100
AcDbArc
 50
227.7148148443
 51
270.0
  0
ARC
  5
5F9
100
AcDbEntity
  8
0
100
AcDbCircle
 62
7
  6
CONTINUOUS
 10
206.875
 20
129.1874225238
 40
1.0
100
AcDbArc
 50
90.9
 51
180.0
  0
ARC
  5
5FA
100
AcDbEntity
  8
0
100
AcDbCircle
 62
7
  6
CONTINUOUS
 10
232.875
 20
129.1874225238
 40
1.0
100
AcDbArc
 50
0.0
 51
89.1
  0
ARC
  5
5FB
100
AcDbEntity
  8
0
100
AcDbCircle
 62
7
  6
CONTINUOUS
 10
214.1725990329
 20
131.3023091358
 40
1.0
100
AcDbArc
 50
270.9000000009
 51
337.1579795155
  0
ARC
  5
5FC
100
AcDbEntity
  8
0
100
AcDbCircle
 62
7
  6
CONTINUOUS
 10
225.5774009684
 20
131.3023091357
 40
1.0
100
AcDbArc
 50
202.8420188265
 51
269.0999999991
  0
ARC
  5
5FD
100
AcDbEntity
  8
RUNDUNGEN
100
AcDbCircle
 62
7
  6
CONTINUOUS
 10
232.875
 20
96.5043437019
 40
1.0
100
AcDbArc
 50
341.2470369267
 51
360.0
  0
ARC
  5
5FE
100
AcDbEntity
  8
RUNDUNGEN
100
AcDbCircle
 62
7
  6
CONTINUOUS
 10
206.875
 20
96.5043437019
 40
1.0
100
AcDbArc
 50
180.0
 51
198.8099232779
  0
ARC
  5
5FF
100
AcDbEntity
  8
0
100
AcDbCircle
 62
7
  6
CONTINUOUS
 10
206.675
 20
133.7218092024
 40
0.8
100
AcDbArc
 50
90.44
 51
180.0
  0
ARC
  5
600
100
AcDbEntity
  8
0
100
AcDbCircle
 62
7
  6
CONTINUOUS
 10
206.675
 20
129.5840716464
 40
0.8
100
AcDbArc
 50
97.4567670802
 51
180.0
  0
ARC
  5
601
100
AcDbEntity
  8
0
100
AcDbCircle
 62
7
  6
CONTINUOUS
 10
233.075
 20
129.5840716464
 40
0.8
100
AcDbArc
 50
0.0
 51
82.5406552694
  0
ARC
  5
602
100
AcDbEntity
  8
0
100
AcDbCircle
 62
7
  6
CONTINUOUS
 10
233.075
 20
133.7218092024
 40
0.8
100
AcDbArc
 50
0.0
 51
89.56
  0
ARC
  5
603
100
AcDbEntity
  8
RUNDUNGEN
100
AcDbCircle
 62
7
  6
CONTINUOUS
 10
206.675
 20
90.2781907976
 40
0.8
100
AcDbArc
 50
180.0
 51
269.56
  0
ARC
  5
604
100
AcDbEntity
  8
RUNDUNGEN
100
AcDbCircle
 62
7
  6
CONTINUOUS
 10
206.675
 20
94.4159283536
 40
0.8
100
AcDbArc
 50
180.0
 51
269.56
  0
ARC
  5
605
100
AcDbEntity
  8
RUNDUNGEN
100
AcDbCircle
 62
7
  6
CONTINUOUS
 10
233.075
 20
94.4159283536
 40
0.8
100
AcDbArc
 50
270.44
 51
360.0
  0
ARC
  5
606
100
AcDbEntity
  8
RUNDUNGEN
100
AcDbCircle
 62
7
  6
CONTINUOUS
 10
233.075
 20
90.2781907976
 40
0.8
100
AcDbArc
 50
270.44
 51
360.0
  0
SPLINE
  5
607
100
AcDbEntity
  8
0
100
AcDbSpline
 62
7
  6
CONTINUOUS
 70
0
 71
3
 72
8
 73
4
 74
0
 42
0.0000001
 43
0.0000001
 44
0.0000000001
 40
0.0
 40
0.0
 40
0.0
 40
0.0
 40
1.0
 40
1.0
 40
1.0
 40
1.0
 10
97.9565941434
 20
107.8144444368
 30
0.0
 10
97.7960756791
 20
108.008455944
 30
0.0
 10
97.566285691
 20
108.0417352621
 30
0.0
 10
97.2550386688
 20
107.9281535252
 30
0.0
  0
SPLINE
  5
608
100
AcDbEntity
  8
0
100
AcDbSpline
 62
7
  6
CONTINUOUS
 70
0
 71
3
 72
8
 73
4
 74
0
 42
0.0000001
 43
0.0000001
 44
0.0000000001
 40
0.0
 40
0.0
 40
0.0
 40
0.0
 40
1.0
 40
1.0
 40
1.0
 40
1.0
 10
96.6484679557
 20
107.7068008688
 30
0.0
 10
96.5258157565
 20
107.6620420476
 30
0.0
 10
96.4179601192
 20
107.6252098705
 30
0.0
 10
96.3196269918
 20
107.5969067182
 30
0.0
  0
SPLINE
  5
609
100
AcDbEntity
  8
0
100
AcDbSpline
 62
7
  6
CONTINUOUS
 70
0
 71
3
 72
8
 73
4
 74
0
 42
0.0000001
 43
0.0000001
 44
0.0000000001
 40
0.0
 40
0.0
 40
0.0
 40
0.0
 40
1.0
 40
1.0
 40
1.0
 40
1.0
 10
96.5604593794
 20
107.338591673
 30
0.0
 10
96.4831052062
 20
107.2320258281
 30
0.0
 10
96.4676213548
 20
107.1151868288
 30
0.0
 10
96.517263051
 20
106.9791541307
 30
0.0
  0
SPLINE
  5
60A
100
AcDbEntity
  8
0
100
AcDbSpline
 62
7
  6
CONTINUOUS
 70
0
 71
3
 72
8
 73
4
 74
0
 42
0.0000001
 43
0.0000001
 44
0.0000000001
 40
0.0
 40
0.0
 40
0.0
 40
0.0
 40
1.0
 40
1.0
 40
1.0
 40
1.0
 10
96.517263051
 20
106.9791541307
 30
0.0
 10
96.5726011896
 20
106.8275115224
 30
0.0
 10
96.6775710137
 20
106.726831909
 30
0.0
 10
96.8301902654
 20
106.6770682792
 30
0.0
  0
SPLINE
  5
60B
100
AcDbEntity
  8
0
100
AcDbSpline
 62
7
  6
CONTINUOUS
 70
0
 71
3
 72
8
 73
4
 74
0
 42
0.0000001
 43
0.0000001
 44
0.0000000001
 40
0.0
 40
0.0
 40
0.0
 40
0.0
 40
1.0
 40
1.0
 40
1.0
 40
1.0
 10
96.8301902654
 20
106.6770682792
 30
0.0
 10
96.9701387977
 20
106.6314361136
 30
0.0
 10
97.1171732325
 20
106.6370793744
 30
0.0
 10
97.2732759623
 20
106.6940451216
 30
0.0
  0
SPLINE
  5
60C
100
AcDbEntity
  8
0
100
AcDbSpline
 62
7
  6
CONTINUOUS
 70
0
 71
3
 72
8
 73
4
 74
0
 42
0.0000001
 43
0.0000001
 44
0.0000000001
 40
0.0
 40
0.0
 40
0.0
 40
0.0
 40
1.0
 40
1.0
 40
1.0
 40
1.0
 10
97.2732759623
 20
106.6940451216
 30
0.0
 10
97.4204585835
 20
106.7477557005
 30
0.0
 10
97.5284624071
 20
106.8326551958
 30
0.0
 10
97.599818839
 20
106.9476439397
 30
0.0
  0
SPLINE
  5
60D
100
AcDbEntity
  8
0
100
AcDbSpline
 62
7
  6
CONTINUOUS
 70
0
 71
3
 72
8
 73
4
 74
0
 42
0.0000001
 43
0.0000001
 44
0.0000000001
 40
0.0
 40
0.0
 40
0.0
 40
0.0
 40
1.0
 40
1.0
 40
1.0
 40
1.0
 10
97.599818839
 20
106.9476439397
 30
0.0
 10
97.6764489614
 20
107.0711310771
 30
0.0
 10
97.6884663018
 20
107.2043941497
 30
0.0
 10
97.6355695517
 20
107.3493466429
 30
0.0
  0
SPLINE
  5
60E
100
AcDbEntity
  8
0
100
AcDbSpline
 62
7
  6
CONTINUOUS
 70
0
 71
3
 72
8
 73
4
 74
0
 42
0.0000001
 43
0.0000001
 44
0.0000000001
 40
0.0
 40
0.0
 40
0.0
 40
0.0
 40
1.0
 40
1.0
 40
1.0
 40
1.0
 10
97.6355695517
 20
107.3493466429
 30
0.0
 10
97.5891830401
 20
107.4764591876
 30
0.0
 10
97.50654518
 20
107.5574911474
 30
0.0
 10
97.387655849
 20
107.5924428836
 30
0.0
  0
SPLINE
  5
60F
100
AcDbEntity
  8
0
100
AcDbSpline
 62
7
  6
CONTINUOUS
 70
0
 71
3
 72
8
 73
4
 74
0
 42
0.0000001
 43
0.0000001
 44
0.0000000001
 40
0.0
 40
0.0
 40
0.0
 40
0.0
 40
1.0
 40
1.0
 40
1.0
 40
1.0
 10
97.4551594738
 20
107.6221306514
 30
0.0
 10
97.6469428677
 20
107.6921171554
 30
0.0
 10
97.7770139891
 20
107.6334487914
 30
0.0
 10
97.8461867931
 20
107.4438951727
 30
0.0
  0
SPLINE
  5
610
100
AcDbEntity
  8
0
100
AcDbSpline
 62
7
  6
CONTINUOUS
 70
0
 71
3
 72
8
 73
4
 74
0
 42
0.0000001
 43
0.0000001
 44
0.0000000001
 40
0.0
 40
0.0
 40
0.0
 40
0.0
 40
1.0
 40
1.0
 40
1.0
 40
1.0
 10
97.8461867931
 20
107.4438951727
 30
0.0
 10
97.8885041931
 20
107.3279331781
 30
0.0
 10
97.8999921521
 20
107.2133558215
 30
0.0
 10
97.8792343943
 20
107.097119256
 30
0.0
  0
SPLINE
  5
611
100
AcDbEntity
  8
0
100
AcDbSpline
 62
7
  6
CONTINUOUS
 70
0
 71
3
 72
8
 73
4
 74
0
 42
0.0000001
 43
0.0000001
 44
0.0000000001
 40
0.0
 40
0.0
 40
0.0
 40
0.0
 40
1.0
 40
1.0
 40
1.0
 40
1.0
 10
98.1623328515
 20
107.1246185042
 30
0.0
 10
98.1685547268
 20
107.1638737337
 30
0.0
 10
98.1705048048
 20
107.2053123915
 30
0.0
 10
98.1682878068
 20
107.2488857542
 30
0.0
  0
SPLINE
  5
612
100
AcDbEntity
  8
0
100
AcDbSpline
 62
7
  6
CONTINUOUS
 70
0
 71
3
 72
8
 73
4
 74
0
 42
0.0000001
 43
0.0000001
 44
0.0000000001
 40
0.0
 40
0.0
 40
0.0
 40
0.0
 40
1.0
 40
1.0
 40
1.0
 40
1.0
 10
97.2540962024
 20
111.6768338176
 30
0.0
 10
97.1600442046
 20
111.9109042656
 30
0.0
 10
96.9510388358
 20
112.0124716465
 30
0.0
 10
96.6196449147
 20
111.998502176
 30
0.0
  0
SPLINE
  5
613
100
AcDbEntity
  8
0
100
AcDbSpline
 62
7
  6
CONTINUOUS
 70
0
 71
3
 72
8
 73
4
 74
0
 42
0.0000001
 43
0.0000001
 44
0.0000000001
 40
0.0
 40
0.0
 40
0.0
 40
0.0
 40
1.0
 40
1.0
 40
1.0
 40
1.0
 10
95.9745205119
 20
111.971307814
 30
0.0
 10
95.8440725277
 20
111.9658089526
 30
0.0
 10
95.7301271343
 20
111.9633813484
 30
0.0
 10
95.6278405539
 20
111.9661979582
 30
0.0
  0
SPLINE
  5
614
100
AcDbEntity
  8
0
100
AcDbSpline
 62
7
  6
CONTINUOUS
 70
0
 71
3
 72
8
 73
4
 74
0
 42
0.0000001
 43
0.0000001
 44
0.0000000001
 40
0.0
 40
0.0
 40
0.0
 40
0.0
 40
1.0
 40
1.0
 40
1.0
 40
1.0
 10
95.7791010475
 20
111.6470625438
 30
0.0
 10
95.6730984536
 20
111.5689379406
 30
0.0
 10
95.6229466042
 20
111.4622801073
 30
0.0
 10
95.6290453209
 20
111.3176019207
 30
0.0
  0
SPLINE
  5
615
100
AcDbEntity
  8
0
100
AcDbSpline
 62
7
  6
CONTINUOUS
 70
0
 71
3
 72
8
 73
4
 74
0
 42
0.0000001
 43
0.0000001
 44
0.0000000001
 40
0.0
 40
0.0
 40
0.0
 40
0.0
 40
1.0
 40
1.0
 40
1.0
 40
1.0
 10
95.6290453209
 20
111.3176019207
 30
0.0
 10
95.6358439083
 20
111.1563208944
 30
0.0
 10
95.7053808363
 20
111.0285720635
 30
0.0
 10
95.8357527222
 20
110.9349119002
 30
0.0
  0
SPLINE
  5
616
100
AcDbEntity
  8
0
100
AcDbSpline
 62
7
  6
CONTINUOUS
 70
0
 71
3
 72
8
 73
4
 74
0
 42
0.0000001
 43
0.0000001
 44
0.0000000001
 40
0.0
 40
0.0
 40
0.0
 40
0.0
 40
1.0
 40
1.0
 40
1.0
 40
1.0
 10
95.8357527222
 20
110.9349119002
 30
0.0
 10
95.9553009044
 20
110.8490275688
 30
0.0
 10
96.0971355815
 20
110.8098621478
 30
0.0
 10
96.263160215
 20
110.8168606957
 30
0.0
  0
SPLINE
  5
617
100
AcDbEntity
  8
0
100
AcDbSpline
 62
7
  6
CONTINUOUS
 70
0
 71
3
 72
8
 73
4
 74
0
 42
0.0000001
 43
0.0000001
 44
0.0000000001
 40
0.0
 40
0.0
 40
0.0
 40
0.0
 40
1.0
 40
1.0
 40
1.0
 40
1.0
 10
96.263160215
 20
110.8168606957
 30
0.0
 10
96.4196977769
 20
110.8234593286
 30
0.0
 10
96.5483460874
 20
110.8716502244
 30
0.0
 10
96.6511845455
 20
110.9596187806
 30
0.0
  0
SPLINE
  5
618
100
AcDbEntity
  8
0
100
AcDbSpline
 62
7
  6
CONTINUOUS
 70
0
 71
3
 72
8
 73
4
 74
0
 42
0.0000001
 43
0.0000001
 44
0.0000000001
 40
0.0
 40
0.0
 40
0.0
 40
0.0
 40
1.0
 40
1.0
 40
1.0
 40
1.0
 10
96.6511845455
 20
110.9596187806
 30
0.0
 10
96.7616232222
 20
111.0540886036
 30
0.0
 10
96.813447006
 20
111.1774492569
 30
0.0
 10
96.8069483724
 20
111.3316145626
 30
0.0
  0
SPLINE
  5
619
100
AcDbEntity
  8
0
100
AcDbSpline
 62
7
  6
CONTINUOUS
 70
0
 71
3
 72
8
 73
4
 74
0
 42
0.0000001
 43
0.0000001
 44
0.0000000001
 40
0.0
 40
0.0
 40
0.0
 40
0.0
 40
1.0
 40
1.0
 40
1.0
 40
1.0
 10
96.8069483724
 20
111.3316145626
 30
0.0
 10
96.8012495405
 20
111.4668063922
 30
0.0
 10
96.7470430534
 20
111.5690651385
 30
0.0
 10
96.6443289203
 20
111.6383908019
 30
0.0
  0
SPLINE
  5
61A
100
AcDbEntity
  8
0
100
AcDbSpline
 62
7
  6
CONTINUOUS
 70
0
 71
3
 72
8
 73
4
 74
0
 42
0.0000001
 43
0.0000001
 44
0.0000000001
 40
0.0
 40
0.0
 40
0.0
 40
0.0
 40
1.0
 40
1.0
 40
1.0
 40
1.0
 10
96.7176541654
 20
111.6462337188
 30
0.0
 10
96.9216273292
 20
111.6548319365
 30
0.0
 10
97.0278130238
 20
111.5595162932
 30
0.0
 10
97.0363112419
 20
111.3579153915
 30
0.0
  0
SPLINE
  5
61B
100
AcDbEntity
  8
0
100
AcDbSpline
 62
7
  6
CONTINUOUS
 70
0
 71
3
 72
8
 73
4
 74
0
 42
0.0000001
 43
0.0000001
 44
0.0000000001
 40
0.0
 40
0.0
 40
0.0
 40
0.0
 40
1.0
 40
1.0
 40
1.0
 40
1.0
 10
97.0363112419
 20
111.3579153915
 30
0.0
 10
97.0415101617
 20
111.234582842
 30
0.0
 10
97.0177478438
 20
111.1219090596
 30
0.0
 10
96.9627524037
 20
111.0174234273
 30
0.0
  0
SPLINE
  5
61C
100
AcDbEntity
  8
0
100
AcDbSpline
 62
7
  6
CONTINUOUS
 70
0
 71
3
 72
8
 73
4
 74
0
 42
0.0000001
 43
0.0000001
 44
0.0000000001
 40
0.0
 40
0.0
 40
0.0
 40
0.0
 40
1.0
 40
1.0
 40
1.0
 40
1.0
 10
97.2408784002
 20
110.9578668668
 30
0.0
 10
97.2584640035
 20
110.9929222273
 30
0.0
 10
97.2727297093
 20
111.0312637321
 30
0.0
 10
97.283757224
 20
111.0728162743
 30
0.0
  0
SPLINE
  5
61D
100
AcDbEntity
  8
0
100
AcDbSpline
 62
7
  6
CONTINUOUS
 70
0
 71
3
 72
8
 73
4
 74
0
 42
0.0000001
 43
0.0000001
 44
0.0000000001
 40
0.0
 40
0.0
 40
0.0
 40
0.0
 40
1.0
 40
1.0
 40
1.0
 40
1.0
 10
96.7399654381
 20
113.1410918283
 30
0.0
 10
96.8342305666
 20
113.1980740113
 30
0.0
 10
96.8894504242
 20
113.2925507631
 30
0.0
 10
96.9040040236
 20
113.4318522405
 30
0.0
  0
SPLINE
  5
61E
100
AcDbEntity
  8
0
100
AcDbSpline
 62
7
  6
CONTINUOUS
 70
0
 71
3
 72
8
 73
4
 74
0
 42
0.0000001
 43
0.0000001
 44
0.0000000001
 40
0.0
 40
0.0
 40
0.0
 40
0.0
 40
1.0
 40
1.0
 40
1.0
 40
1.0
 10
96.9040040236
 20
113.4318522405
 30
0.0
 10
96.921270959
 20
113.5971247298
 30
0.0
 10
96.8710898866
 20
113.7336421717
 30
0.0
 10
96.755461181
 20
113.8428710794
 30
0.0
  0
SPLINE
  5
61F
100
AcDbEntity
  8
0
100
AcDbSpline
 62
7
  6
CONTINUOUS
 70
0
 71
3
 72
8
 73
4
 74
0
 42
0.0000001
 43
0.0000001
 44
0.0000000001
 40
0.0
 40
0.0
 40
0.0
 40
0.0
 40
1.0
 40
1.0
 40
1.0
 40
1.0
 10
96.755461181
 20
113.8428710794
 30
0.0
 10
96.6495044344
 20
113.94296335
 30
0.0
 10
96.5125289533
 20
114.0026228815
 30
0.0
 10
96.3401732625
 20
114.0206298382
 30
0.0
  0
SPLINE
  5
620
100
AcDbEntity
  8
0
100
AcDbSpline
 62
7
  6
CONTINUOUS
 70
0
 71
3
 72
8
 73
4
 74
0
 42
0.0000001
 43
0.0000001
 44
0.0000000001
 40
0.0
 40
0.0
 40
0.0
 40
0.0
 40
1.0
 40
1.0
 40
1.0
 40
1.0
 10
96.3401732625
 20
114.0206298382
 30
0.0
 10
96.1819837851
 20
114.037156772
 30
0.0
 10
96.0455724348
 20
114.0108330952
 30
0.0
 10
95.9256223421
 20
113.943215946
 30
0.0
  0
SPLINE
  5
621
100
AcDbEntity
  8
0
100
AcDbSpline
 62
7
  6
CONTINUOUS
 70
0
 71
3
 72
8
 73
4
 74
0
 42
0.0000001
 43
0.0000001
 44
0.0000000001
 40
0.0
 40
0.0
 40
0.0
 40
0.0
 40
1.0
 40
1.0
 40
1.0
 40
1.0
 10
95.9256223421
 20
113.943215946
 30
0.0
 10
95.7919550435
 20
113.8678662613
 30
0.0
 10
95.7179879628
 20
113.7538672603
 30
0.0
 10
95.7022010505
 20
113.6027609844
 30
0.0
  0
SPLINE
  5
622
100
AcDbEntity
  8
0
100
AcDbSpline
 62
7
  6
CONTINUOUS
 70
0
 71
3
 72
8
 73
4
 74
0
 42
0.0000001
 43
0.0000001
 44
0.0000000001
 40
0.0
 40
0.0
 40
0.0
 40
0.0
 40
1.0
 40
1.0
 40
1.0
 40
1.0
 10
95.7022010505
 20
113.6027609844
 30
0.0
 10
95.684687405
 20
113.4351270802
 30
0.0
 10
95.7325074122
 20
113.2988563118
 30
0.0
 10
95.8485156227
 20
113.1984248288
 30
0.0
  0
SPLINE
  5
623
100
AcDbEntity
  8
0
100
AcDbSpline
 62
7
  6
CONTINUOUS
 70
0
 71
3
 72
8
 73
4
 74
0
 42
0.0000001
 43
0.0000001
 44
0.0000000001
 40
0.0
 40
0.0
 40
0.0
 40
0.0
 40
1.0
 40
1.0
 40
1.0
 40
1.0
 10
97.028294571
 20
112.7481738786
 30
0.0
 10
97.1395735464
 20
112.7365479456
 30
0.0
 10
97.2385066491
 20
112.7962753459
 30
0.0
 10
97.2812258821
 20
112.8917874956
 30
0.0
  0
SPLINE
  5
624
100
AcDbEntity
  8
0
100
AcDbSpline
 62
7
  6
CONTINUOUS
 70
0
 71
3
 72
8
 73
4
 74
0
 42
0.0000001
 43
0.0000001
 44
0.0000000001
 40
0.0
 40
0.0
 40
0.0
 40
0.0
 40
1.0
 40
1.0
 40
1.0
 40
1.0
 10
98.2545818428
 20
119.6374560183
 30
0.0
 10
98.2770427851
 20
119.5854749123
 30
0.0
 10
98.3008178987
 20
119.5354712037
 30
0.0
 10
98.32524413
 20
119.4907362894
 30
0.0
  0
SPLINE
  5
625
100
AcDbEntity
  8
0
100
AcDbSpline
 62
7
  6
CONTINUOUS
 70
0
 71
3
 72
8
 73
4
 74
0
 42
0.0000001
 43
0.0000001
 44
0.0000000001
 40
0.0
 40
0.0
 40
0.0
 40
0.0
 40
1.0
 40
1.0
 40
1.0
 40
1.0
 10
98.7973868899
 20
119.4420434162
 30
0.0
 10
99.0113781794
 20
119.4337951518
 30
0.0
 10
99.1271779381
 20
119.4879528725
 30
0.0
 10
99.2441162301
 20
119.6639143536
 30
0.0
  0
SPLINE
  5
626
100
AcDbEntity
  8
0
100
AcDbSpline
 62
7
  6
CONTINUOUS
 70
0
 71
3
 72
8
 73
4
 74
0
 42
0.0000001
 43
0.0000001
 44
0.0000000001
 40
0.0
 40
0.0
 40
0.0
 40
0.0
 40
1.0
 40
1.0
 40
1.0
 40
1.0
 10
97.5697574735
 20
118.9569275581
 30
0.0
 10
97.4473290358
 20
118.9377506534
 30
0.0
 10
97.3539310089
 20
118.8658249918
 30
0.0
 10
97.289511989
 20
118.7414581454
 30
0.0
  0
SPLINE
  5
627
100
AcDbEntity
  8
0
100
AcDbSpline
 62
7
  6
CONTINUOUS
 70
0
 71
3
 72
8
 73
4
 74
0
 42
0.0000001
 43
0.0000001
 44
0.0000000001
 40
0.0
 40
0.0
 40
0.0
 40
0.0
 40
1.0
 40
1.0
 40
1.0
 40
1.0
 10
97.289511989
 20
118.7414581454
 30
0.0
 10
97.2152669456
 20
118.5981212564
 30
0.0
 10
97.2154806338
 20
118.4643393518
 30
0.0
 10
97.2911683178
 20
118.3369109598
 30
0.0
  0
SPLINE
  5
628
100
AcDbEntity
  8
0
100
AcDbSpline
 62
7
  6
CONTINUOUS
 70
0
 71
3
 72
8
 73
4
 74
0
 42
0.0000001
 43
0.0000001
 44
0.0000000001
 40
0.0
 40
0.0
 40
0.0
 40
0.0
 40
1.0
 40
1.0
 40
1.0
 40
1.0
 10
97.5994513025
 20
118.2146551491
 30
0.0
 10
97.489840698
 20
118.2714307925
 30
0.0
 10
97.4330487261
 20
118.3837256384
 30
0.0
 10
97.4898243475
 20
118.4933362006
 30
0.0
  0
SPLINE
  5
629
100
AcDbEntity
  8
0
100
AcDbSpline
 62
7
  6
CONTINUOUS
 70
0
 71
3
 72
8
 73
4
 74
0
 42
0.0000001
 43
0.0000001
 44
0.0000000001
 40
0.0
 40
0.0
 40
0.0
 40
0.0
 40
1.0
 40
1.0
 40
1.0
 40
1.0
 10
97.4898243475
 20
118.4933362006
 30
0.0
 10
97.5455079546
 20
118.6008385286
 30
0.0
 10
97.6476724562
 20
118.6174301266
 30
0.0
 10
97.7973331161
 20
118.5399095227
 30
0.0
  0
SPLINE
  5
62A
100
AcDbEntity
  8
0
100
AcDbSpline
 62
7
  6
CONTINUOUS
 70
0
 71
3
 72
8
 73
4
 74
0
 42
0.0000001
 43
0.0000001
 44
0.0000000001
 40
0.0
 40
0.0
 40
0.0
 40
0.0
 40
1.0
 40
1.0
 40
1.0
 40
1.0
 10
98.1472439051
 20
118.3586641928
 30
0.0
 10
98.2673939974
 20
118.2964293496
 30
0.0
 10
98.4209812967
 20
118.3452000367
 30
0.0
 10
98.4832155862
 20
118.4653490598
 30
0.0
  0
SPLINE
  5
62B
100
AcDbEntity
  8
0
100
AcDbSpline
 62
7
  6
CONTINUOUS
 70
0
 71
3
 72
8
 73
4
 74
0
 42
0.0000001
 43
0.0000001
 44
0.0000000001
 40
0.0
 40
0.0
 40
0.0
 40
0.0
 40
1.0
 40
1.0
 40
1.0
 40
1.0
 10
97.925350465
 20
118.8799627492
 30
0.0
 10
97.7946609062
 20
118.9476567813
 30
0.0
 10
97.6771798648
 20
118.9737539507
 30
0.0
 10
97.5697574735
 20
118.9569275581
 30
0.0
  0
SPLINE
  5
62C
100
AcDbEntity
  8
0
100
AcDbSpline
 62
7
  6
CONTINUOUS
 70
0
 71
3
 72
8
 73
4
 74
0
 42
0.0000001
 43
0.0000001
 44
0.0000000001
 40
0.0
 40
0.0
 40
0.0
 40
0.0
 40
1.0
 40
1.0
 40
1.0
 40
1.0
 10
96.321984176
 20
117.8731200327
 30
0.0
 10
96.2673191384
 20
117.7441678855
 30
0.0
 10
96.3252377265
 20
117.6010105967
 30
0.0
 10
96.4541889078
 20
117.5463459686
 30
0.0
  0
SPLINE
  5
62D
100
AcDbEntity
  8
0
100
AcDbSpline
 62
7
  6
CONTINUOUS
 70
0
 71
3
 72
8
 73
4
 74
0
 42
0.0000001
 43
0.0000001
 44
0.0000000001
 40
0.0
 40
0.0
 40
0.0
 40
0.0
 40
1.0
 40
1.0
 40
1.0
 40
1.0
 10
97.311737336
 20
116.4635283505
 30
0.0
 10
97.4432245448
 20
116.4152817342
 30
0.0
 10
97.5833562376
 20
116.4801818458
 30
0.0
 10
97.6316026979
 20
116.6116686294
 30
0.0
  0
SPLINE
  5
62E
100
AcDbEntity
  8
0
100
AcDbSpline
 62
7
  6
CONTINUOUS
 70
0
 71
3
 72
8
 73
4
 74
0
 42
0.0000001
 43
0.0000001
 44
0.0000000001
 40
0.0
 40
0.0
 40
0.0
 40
0.0
 40
1.0
 40
1.0
 40
1.0
 40
1.0
 10
97.0061258885
 20
115.8595478111
 30
0.0
 10
97.0728373205
 20
115.7987803628
 30
0.0
 10
97.0955506635
 20
115.7307006613
 30
0.0
 10
97.0729764367
 20
115.6507405051
 30
0.0
  0
SPLINE
  5
62F
100
AcDbEntity
  8
0
100
AcDbSpline
 62
7
  6
CONTINUOUS
 70
0
 71
3
 72
8
 73
4
 74
0
 42
0.0000001
 43
0.0000001
 44
0.0000000001
 40
0.0
 40
0.0
 40
0.0
 40
0.0
 40
1.0
 40
1.0
 40
1.0
 40
1.0
 10
97.0729764367
 20
115.6507405051
 30
0.0
 10
97.0504020025
 20
115.5707796147
 30
0.0
 10
96.9964342405
 20
115.5194158435
 30
0.0
 10
96.910229115
 20
115.5011658662
 30
0.0
  0
SPLINE
  5
630
100
AcDbEntity
  8
0
100
AcDbSpline
 62
7
  6
CONTINUOUS
 70
0
 71
3
 72
8
 73
4
 74
0
 42
0.0000001
 43
0.0000001
 44
0.0000000001
 40
0.0
 40
0.0
 40
0.0
 40
0.0
 40
1.0
 40
1.0
 40
1.0
 40
1.0
 10
96.910229115
 20
115.5011658662
 30
0.0
 10
96.8416490646
 20
115.4866471894
 30
0.0
 10
96.7640274921
 20
115.4912948527
 30
0.0
 10
96.6749285773
 20
115.5164491196
 30
0.0
  0
SPLINE
  5
631
100
AcDbEntity
  8
0
100
AcDbSpline
 62
7
  6
CONTINUOUS
 70
0
 71
3
 72
8
 73
4
 74
0
 42
0.0000001
 43
0.0000001
 44
0.0000000001
 40
0.0
 40
0.0
 40
0.0
 40
0.0
 40
1.0
 40
1.0
 40
1.0
 40
1.0
 10
96.6749285773
 20
115.5164491196
 30
0.0
 10
96.5858296626
 20
115.5416033866
 30
0.0
 10
96.5172376608
 20
115.578234512
 30
0.0
 10
96.466380088
 20
115.6264695078
 30
0.0
  0
SPLINE
  5
632
100
AcDbEntity
  8
0
100
AcDbSpline
 62
7
  6
CONTINUOUS
 70
0
 71
3
 72
8
 73
4
 74
0
 42
0.0000001
 43
0.0000001
 44
0.0000000001
 40
0.0
 40
0.0
 40
0.0
 40
0.0
 40
1.0
 40
1.0
 40
1.0
 40
1.0
 10
96.466380088
 20
115.6264695078
 30
0.0
 10
96.4024415291
 20
115.6871109413
 30
0.0
 10
96.3810178488
 20
115.7597591072
 30
0.0
 10
96.4035922829
 20
115.8397199976
 30
0.0
  0
SPLINE
  5
633
100
AcDbEntity
  8
0
100
AcDbSpline
 62
7
  6
CONTINUOUS
 70
0
 71
3
 72
8
 73
4
 74
0
 42
0.0000001
 43
0.0000001
 44
0.0000000001
 40
0.0
 40
0.0
 40
0.0
 40
0.0
 40
1.0
 40
1.0
 40
1.0
 40
1.0
 10
96.4035922829
 20
115.8397199976
 30
0.0
 10
96.4255216325
 20
115.9173959346
 30
0.0
 10
96.4811291954
 20
115.9658304797
 30
0.0
 10
96.5676765283
 20
115.9823397837
 30
0.0
  0
SPLINE
  5
634
100
AcDbEntity
  8
0
100
AcDbSpline
 62
7
  6
CONTINUOUS
 70
0
 71
3
 72
8
 73
4
 74
0
 42
0.0000001
 43
0.0000001
 44
0.0000000001
 40
0.0
 40
0.0
 40
0.0
 40
0.0
 40
1.0
 40
1.0
 40
1.0
 40
1.0
 10
96.5676765283
 20
115.9823397837
 30
0.0
 10
96.6375538503
 20
115.9956692059
 30
0.0
 10
96.7151755843
 20
115.9910222898
 30
0.0
 10
96.7997053262
 20
115.9671579846
 30
0.0
  0
SPLINE
  5
635
100
AcDbEntity
  8
0
100
AcDbSpline
 62
7
  6
CONTINUOUS
 70
0
 71
3
 72
8
 73
4
 74
0
 42
0.0000001
 43
0.0000001
 44
0.0000000001
 40
0.0
 40
0.0
 40
0.0
 40
0.0
 40
1.0
 40
1.0
 40
1.0
 40
1.0
 10
96.7997053262
 20
115.9671579846
 30
0.0
 10
96.8865196546
 20
115.9426486986
 30
0.0
 10
96.9551114949
 20
115.9060168259
 30
0.0
 10
97.0061258885
 20
115.8595478111
 30
0.0
  0
SPLINE
  5
636
100
AcDbEntity
  8
0
100
AcDbSpline
 62
7
  6
CONTINUOUS
 70
0
 71
3
 72
8
 73
4
 74
0
 42
0.0000001
 43
0.0000001
 44
0.0000000001
 40
0.0
 40
0.0
 40
0.0
 40
0.0
 40
1.0
 40
1.0
 40
1.0
 40
1.0
 10
96.4340580572
 20
116.2905390425
 30
0.0
 10
96.2974150844
 20
116.2150304718
 30
0.0
 10
96.2061707453
 20
116.092789849
 30
0.0
 10
96.1584421609
 20
115.9237304568
 30
0.0
  0
SPLINE
  5
637
100
AcDbEntity
  8
0
100
AcDbSpline
 62
7
  6
CONTINUOUS
 70
0
 71
3
 72
8
 73
4
 74
0
 42
0.0000001
 43
0.0000001
 44
0.0000000001
 40
0.0
 40
0.0
 40
0.0
 40
0.0
 40
1.0
 40
1.0
 40
1.0
 40
1.0
 10
96.1584421609
 20
115.9237304568
 30
0.0
 10
96.1074885684
 20
115.7432477656
 30
0.0
 10
96.1187552794
 20
115.5821996772
 30
0.0
 10
96.1959015222
 20
115.4426312538
 30
0.0
  0
SPLINE
  5
638
100
AcDbEntity
  8
0
100
AcDbSpline
 62
7
  6
CONTINUOUS
 70
0
 71
3
 72
8
 73
4
 74
0
 42
0.0000001
 43
0.0000001
 44
0.0000000001
 40
0.0
 40
0.0
 40
0.0
 40
0.0
 40
1.0
 40
1.0
 40
1.0
 40
1.0
 10
96.1959015222
 20
115.4426312538
 30
0.0
 10
96.2722334118
 20
115.3045361103
 30
0.0
 10
96.4006829047
 20
115.2090722164
 30
0.0
 10
96.5811653205
 20
115.1581187016
 30
0.0
  0
SPLINE
  5
639
100
AcDbEntity
  8
0
100
AcDbSpline
 62
7
  6
CONTINUOUS
 70
0
 71
3
 72
8
 73
4
 74
0
 42
0.0000001
 43
0.0000001
 44
0.0000000001
 40
0.0
 40
0.0
 40
0.0
 40
0.0
 40
1.0
 40
1.0
 40
1.0
 40
1.0
 10
96.5811653205
 20
115.1581187016
 30
0.0
 10
96.7525093909
 20
115.1097451103
 30
0.0
 10
96.9067036853
 20
115.1229463774
 30
0.0
 10
97.0439756284
 20
115.2007409144
 30
0.0
  0
SPLINE
  5
63A
100
AcDbEntity
  8
0
100
AcDbSpline
 62
7
  6
CONTINUOUS
 70
0
 71
3
 72
8
 73
4
 74
0
 42
0.0000001
 43
0.0000001
 44
0.0000000001
 40
0.0
 40
0.0
 40
0.0
 40
0.0
 40
1.0
 40
1.0
 40
1.0
 40
1.0
 10
97.0439756284
 20
115.2007409144
 30
0.0
 10
97.179798521
 20
115.2777142478
 30
0.0
 10
97.2716879704
 20
115.4022398168
 30
0.0
 10
97.3200614321
 20
115.5735834283
 30
0.0
  0
SPLINE
  5
63B
100
AcDbEntity
  8
0
100
AcDbSpline
 62
7
  6
CONTINUOUS
 70
0
 71
3
 72
8
 73
4
 74
0
 42
0.0000001
 43
0.0000001
 44
0.0000000001
 40
0.0
 40
0.0
 40
0.0
 40
0.0
 40
1.0
 40
1.0
 40
1.0
 40
1.0
 10
97.3200614321
 20
115.5735834283
 30
0.0
 10
97.3703701474
 20
115.7517819002
 30
0.0
 10
97.3555288624
 20
115.908905804
 30
0.0
 10
97.2777422218
 20
116.0461817727
 30
0.0
  0
SPLINE
  5
63C
100
AcDbEntity
  8
0
100
AcDbSpline
 62
7
  6
CONTINUOUS
 70
0
 71
3
 72
8
 73
4
 74
0
 42
0.0000001
 43
0.0000001
 44
0.0000000001
 40
0.0
 40
0.0
 40
0.0
 40
0.0
 40
1.0
 40
1.0
 40
1.0
 40
1.0
 10
97.2777422218
 20
116.0461817727
 30
0.0
 10
97.1991212578
 20
116.1849301349
 30
0.0
 10
97.0706717879
 20
116.2803940224
 30
0.0
 10
96.8924739584
 20
116.3307025563
 30
0.0
  0
SPLINE
  5
63D
100
AcDbEntity
  8
0
100
AcDbSpline
 62
7
  6
CONTINUOUS
 70
0
 71
3
 72
8
 73
4
 74
0
 42
0.0000001
 43
0.0000001
 44
0.0000000001
 40
0.0
 40
0.0
 40
0.0
 40
0.0
 40
1.0
 40
1.0
 40
1.0
 40
1.0
 10
96.8924739584
 20
116.3307025563
 30
0.0
 10
96.721129888
 20
116.3790761475
 30
0.0
 10
96.5692199497
 20
116.3652291719
 30
0.0
 10
96.4340580572
 20
116.2905390425
 30
0.0
  0
SPLINE
  5
63E
100
AcDbEntity
  8
0
100
AcDbSpline
 62
7
  6
CONTINUOUS
 70
0
 71
3
 72
8
 73
4
 74
0
 42
0.0000001
 43
0.0000001
 44
0.0000000001
 40
0.0
 40
0.0
 40
0.0
 40
0.0
 40
1.0
 40
1.0
 40
1.0
 40
1.0
 10
95.9338982049
 20
115.034810707
 30
0.0
 10
95.9061664011
 20
114.8926835103
 30
0.0
 10
95.9812933799
 20
114.7570921183
 30
0.0
 10
96.111543338
 20
114.6808864744
 30
0.0
  0
SPLINE
  5
63F
100
AcDbEntity
  8
0
100
AcDbSpline
 62
7
  6
CONTINUOUS
 70
0
 71
3
 72
8
 73
4
 74
0
 42
0.0000001
 43
0.0000001
 44
0.0000000001
 40
0.0
 40
0.0
 40
0.0
 40
0.0
 40
1.0
 40
1.0
 40
1.0
 40
1.0
 10
95.8358713898
 20
114.3960640728
 30
0.0
 10
95.9020192618
 20
114.3879946313
 30
0.0
 10
96.0282909942
 20
114.3657748038
 30
0.0
 10
96.2123569723
 20
114.3298599212
 30
0.0
  0
SPLINE
  5
640
100
AcDbEntity
  8
0
100
AcDbSpline
 62
7
  6
CONTINUOUS
 70
0
 71
3
 72
8
 73
4
 74
0
 42
0.0000001
 43
0.0000001
 44
0.0000000001
 40
0.0
 40
0.0
 40
0.0
 40
0.0
 40
1.0
 40
1.0
 40
1.0
 40
1.0
 10
96.4701848639
 20
114.647187883
 30
0.0
 10
96.2977686253
 20
114.680829673
 30
0.0
 10
96.2279268201
 20
114.7815286835
 30
0.0
 10
96.2602048093
 20
114.9469553591
 30
0.0
  0
SPLINE
  5
641
100
AcDbEntity
  8
0
100
AcDbSpline
 62
7
  6
CONTINUOUS
 70
0
 71
3
 72
8
 73
4
 74
0
 42
0.0000001
 43
0.0000001
 44
0.0000000001
 40
0.0
 40
0.0
 40
0.0
 40
0.0
 40
1.0
 40
1.0
 40
1.0
 40
1.0
 10
96.2602048093
 20
114.9469553591
 30
0.0
 10
96.2652055402
 20
114.9725844117
 30
0.0
 10
96.2739001476
 20
115.0047490638
 30
0.0
 10
96.2886185795
 20
115.042994697
 30
0.0
  0
SPLINE
  5
642
100
AcDbEntity
  8
0
100
AcDbSpline
 62
7
  6
CONTINUOUS
 70
0
 71
3
 72
8
 73
4
 74
0
 42
0.0000001
 43
0.0000001
 44
0.0000000001
 40
0.0
 40
0.0
 40
0.0
 40
0.0
 40
1.0
 40
1.0
 40
1.0
 40
1.0
 10
95.9554358418
 20
115.1080051843
 30
0.0
 10
95.945775069
 20
115.08328462
 30
0.0
 10
95.9388989358
 20
115.0604397595
 30
0.0
 10
95.9338982049
 20
115.034810707
 30
0.0
  0
SPLINE
  5
643
100
AcDbEntity
  8
0
100
AcDbSpline
 62
7
  6
CONTINUOUS
 70
0
 71
3
 72
8
 73
4
 74
0
 42
0.0000001
 43
0.0000001
 44
0.0000000001
 40
0.0
 40
0.0
 40
0.0
 40
0.0
 40
1.0
 40
1.0
 40
1.0
 40
1.0
 10
96.5340471454
 20
113.5766512203
 30
0.0
 10
96.5987606086
 20
113.5257996879
 30
0.0
 10
96.6275161018
 20
113.4583520471
 30
0.0
 10
96.6186359636
 20
113.3733547669
 30
0.0
  0
SPLINE
  5
644
100
AcDbEntity
  8
0
100
AcDbSpline
 62
7
  6
CONTINUOUS
 70
0
 71
3
 72
8
 73
4
 74
0
 42
0.0000001
 43
0.0000001
 44
0.0000000001
 40
0.0
 40
0.0
 40
0.0
 40
0.0
 40
1.0
 40
1.0
 40
1.0
 40
1.0
 10
96.6186359636
 20
113.3733547669
 30
0.0
 10
96.6134558433
 20
113.3237726407
 30
0.0
 10
96.5922418152
 20
113.2806392792
 30
0.0
 10
96.554962023
 20
113.2439879233
 30
0.0
  0
SPLINE
  5
645
100
AcDbEntity
  8
0
100
AcDbSpline
 62
7
  6
CONTINUOUS
 70
0
 71
3
 72
8
 73
4
 74
0
 42
0.0000001
 43
0.0000001
 44
0.0000000001
 40
0.0
 40
0.0
 40
0.0
 40
0.0
 40
1.0
 40
1.0
 40
1.0
 40
1.0
 10
96.554962023
 20
113.2439879233
 30
0.0
 10
96.504460774
 20
113.1943379884
 30
0.0
 10
96.4377527441
 20
113.1726656678
 30
0.0
 10
96.350394381
 20
113.1817924815
 30
0.0
  0
SPLINE
  5
646
100
AcDbEntity
  8
0
100
AcDbSpline
 62
7
  6
CONTINUOUS
 70
0
 71
3
 72
8
 73
4
 74
0
 42
0.0000001
 43
0.0000001
 44
0.0000000001
 40
0.0
 40
0.0
 40
0.0
 40
0.0
 40
1.0
 40
1.0
 40
1.0
 40
1.0
 10
96.1922049036
 20
113.1983194152
 30
0.0
 10
96.0599868648
 20
113.2121329685
 30
0.0
 10
95.9562772524
 20
113.3160539289
 30
0.0
 10
95.9698441698
 20
113.4459112641
 30
0.0
  0
SPLINE
  5
647
100
AcDbEntity
  8
0
100
AcDbSpline
 62
7
  6
CONTINUOUS
 70
0
 71
3
 72
8
 73
4
 74
0
 42
0.0000001
 43
0.0000001
 44
0.0000000001
 40
0.0
 40
0.0
 40
0.0
 40
0.0
 40
1.0
 40
1.0
 40
1.0
 40
1.0
 10
95.9698441698
 20
113.4459112641
 30
0.0
 10
95.9784775978
 20
113.5285471293
 30
0.0
 10
96.0205533694
 20
113.5885954014
 30
0.0
 10
96.0937034083
 20
113.6234314414
 30
0.0
  0
SPLINE
  5
648
100
AcDbEntity
  8
0
100
AcDbSpline
 62
7
  6
CONTINUOUS
 70
0
 71
3
 72
8
 73
4
 74
0
 42
0.0000001
 43
0.0000001
 44
0.0000000001
 40
0.0
 40
0.0
 40
0.0
 40
0.0
 40
1.0
 40
1.0
 40
1.0
 40
1.0
 10
96.0937034083
 20
113.6234314414
 30
0.0
 10
96.1561894241
 20
113.6531889832
 30
0.0
 10
96.2313548905
 20
113.6644304821
 30
0.0
 10
96.3187132536
 20
113.6553036684
 30
0.0
  0
SPLINE
  5
649
100
AcDbEntity
  8
0
100
AcDbSpline
 62
7
  6
CONTINUOUS
 70
0
 71
3
 72
8
 73
4
 74
0
 42
0.0000001
 43
0.0000001
 44
0.0000000001
 40
0.0
 40
0.0
 40
0.0
 40
0.0
 40
1.0
 40
1.0
 40
1.0
 40
1.0
 10
96.3187132536
 20
113.6553036684
 30
0.0
 10
96.4084326524
 20
113.6459301843
 30
0.0
 10
96.4796514381
 20
113.6193951092
 30
0.0
 10
96.5340471454
 20
113.5766512203
 30
0.0
  0
SPLINE
  5
64A
100
AcDbEntity
  8
0
100
AcDbSpline
 62
7
  6
CONTINUOUS
 70
0
 71
3
 72
8
 73
4
 74
0
 42
0.0000001
 43
0.0000001
 44
0.0000000001
 40
0.0
 40
0.0
 40
0.0
 40
0.0
 40
1.0
 40
1.0
 40
1.0
 40
1.0
 10
96.5367098522
 20
111.4295187542
 30
0.0
 10
96.5400091506
 20
111.351250402
 30
0.0
 10
96.5093037301
 20
111.2905558167
 30
0.0
 10
96.4444306221
 20
111.2454451555
 30
0.0
  0
SPLINE
  5
64B
100
AcDbEntity
  8
0
100
AcDbSpline
 62
7
  6
CONTINUOUS
 70
0
 71
3
 72
8
 73
4
 74
0
 42
0.0000001
 43
0.0000001
 44
0.0000000001
 40
0.0
 40
0.0
 40
0.0
 40
0.0
 40
1.0
 40
1.0
 40
1.0
 40
1.0
 10
96.4444306221
 20
111.2454451555
 30
0.0
 10
96.3892704314
 20
111.2070885428
 30
0.0
 10
96.3212886034
 20
111.1852149048
 30
0.0
 10
96.2382762628
 20
111.1817156299
 30
0.0
  0
SPLINE
  5
64C
100
AcDbEntity
  8
0
100
AcDbSpline
 62
7
  6
CONTINUOUS
 70
0
 71
3
 72
8
 73
4
 74
0
 42
0.0000001
 43
0.0000001
 44
0.0000000001
 40
0.0
 40
0.0
 40
0.0
 40
0.0
 40
1.0
 40
1.0
 40
1.0
 40
1.0
 10
96.2382762628
 20
111.1817156299
 30
0.0
 10
96.1528921425
 20
111.1781163758
 30
0.0
 10
96.0786671302
 20
111.1916190972
 30
0.0
 10
96.0155512735
 20
111.224692309
 30
0.0
  0
SPLINE
  5
64D
100
AcDbEntity
  8
0
100
AcDbSpline
 62
7
  6
CONTINUOUS
 70
0
 71
3
 72
8
 73
4
 74
0
 42
0.0000001
 43
0.0000001
 44
0.0000000001
 40
0.0
 40
0.0
 40
0.0
 40
0.0
 40
1.0
 40
1.0
 40
1.0
 40
1.0
 10
96.0155512735
 20
111.224692309
 30
0.0
 10
95.9401763036
 20
111.2641893938
 30
0.0
 10
95.9020000514
 20
111.3243559761
 30
0.0
 10
95.8986007577
 20
111.4049964893
 30
0.0
  0
SPLINE
  5
64E
100
AcDbEntity
  8
0
100
AcDbSpline
 62
7
  6
CONTINUOUS
 70
0
 71
3
 72
8
 73
4
 74
0
 42
0.0000001
 43
0.0000001
 44
0.0000000001
 40
0.0
 40
0.0
 40
0.0
 40
0.0
 40
1.0
 40
1.0
 40
1.0
 40
1.0
 10
95.8986007577
 20
111.4049964893
 30
0.0
 10
95.893401838
 20
111.5283290387
 30
0.0
 10
95.9897173864
 20
111.6107965225
 30
0.0
 10
96.1154217633
 20
111.6160954234
 30
0.0
  0
SPLINE
  5
64F
100
AcDbEntity
  8
0
100
AcDbSpline
 62
7
  6
CONTINUOUS
 70
0
 71
3
 72
8
 73
4
 74
0
 42
0.0000001
 43
0.0000001
 44
0.0000000001
 40
0.0
 40
0.0
 40
0.0
 40
0.0
 40
1.0
 40
1.0
 40
1.0
 40
1.0
 10
96.2861900041
 20
111.6232939317
 30
0.0
 10
96.4474711018
 20
111.6300925221
 30
0.0
 10
96.5310110202
 20
111.5647105838
 30
0.0
 10
96.5367098522
 20
111.4295187542
 30
0.0
  0
SPLINE
  5
650
100
AcDbEntity
  8
0
100
AcDbSpline
 62
7
  6
CONTINUOUS
 70
0
 71
3
 72
8
 73
4
 74
0
 42
0.0000001
 43
0.0000001
 44
0.0000000001
 40
0.0
 40
0.0
 40
0.0
 40
0.0
 40
1.0
 40
1.0
 40
1.0
 40
1.0
 10
95.84866725
 20
110.3722508994
 30
0.0
 10
95.7605824946
 20
110.2850882508
 30
0.0
 10
95.7268972058
 20
110.1721186994
 30
0.0
 10
95.747389533
 20
110.0335670495
 30
0.0
  0
SPLINE
  5
651
100
AcDbEntity
  8
0
100
AcDbSpline
 62
7
  6
CONTINUOUS
 70
0
 71
3
 72
8
 73
4
 74
0
 42
0.0000001
 43
0.0000001
 44
0.0000000001
 40
0.0
 40
0.0
 40
0.0
 40
0.0
 40
1.0
 40
1.0
 40
1.0
 40
1.0
 10
95.747389533
 20
110.0335670495
 30
0.0
 10
95.7710079287
 20
109.8738795898
 30
0.0
 10
95.8494311806
 20
109.7654931593
 30
0.0
 10
95.985355107
 20
109.7064063835
 30
0.0
  0
SPLINE
  5
652
100
AcDbEntity
  8
0
100
AcDbSpline
 62
7
  6
CONTINUOUS
 70
0
 71
3
 72
8
 73
4
 74
0
 42
0.0000001
 43
0.0000001
 44
0.0000000001
 40
0.0
 40
0.0
 40
0.0
 40
0.0
 40
1.0
 40
1.0
 40
1.0
 40
1.0
 10
96.306911832
 20
109.7875618219
 30
0.0
 10
96.1847981337
 20
109.7695007315
 30
0.0
 10
96.0730523532
 20
109.8273641277
 30
0.0
 10
96.0549912698
 20
109.9494777788
 30
0.0
  0
SPLINE
  5
653
100
AcDbEntity
  8
0
100
AcDbSpline
 62
7
  6
CONTINUOUS
 70
0
 71
3
 72
8
 73
4
 74
0
 42
0.0000001
 43
0.0000001
 44
0.0000000001
 40
0.0
 40
0.0
 40
0.0
 40
0.0
 40
1.0
 40
1.0
 40
1.0
 40
1.0
 10
96.0549912698
 20
109.9494777788
 30
0.0
 10
96.0372775149
 20
110.0692430905
 30
0.0
 10
96.1104388538
 20
110.1424564145
 30
0.0
 10
96.2771710487
 20
110.1671167539
 30
0.0
  0
SPLINE
  5
654
100
AcDbEntity
  8
0
100
AcDbSpline
 62
7
  6
CONTINUOUS
 70
0
 71
3
 72
8
 73
4
 74
0
 42
0.0000001
 43
0.0000001
 44
0.0000000001
 40
0.0
 40
0.0
 40
0.0
 40
0.0
 40
1.0
 40
1.0
 40
1.0
 40
1.0
 10
96.6669955617
 20
110.2247733139
 30
0.0
 10
96.800850969
 20
110.2445710486
 30
0.0
 10
96.8968995521
 20
110.37396312
 30
0.0
 10
96.8771017702
 20
110.5078188458
 30
0.0
  0
SPLINE
  5
655
100
AcDbEntity
  8
0
100
AcDbSpline
 62
7
  6
CONTINUOUS
 70
0
 71
3
 72
8
 73
4
 74
0
 42
0.0000001
 43
0.0000001
 44
0.0000000001
 40
0.0
 40
0.0
 40
0.0
 40
0.0
 40
1.0
 40
1.0
 40
1.0
 40
1.0
 10
96.1821069554
 20
110.5178124291
 30
0.0
 10
96.0365098626
 20
110.4962780535
 30
0.0
 10
95.9259563505
 20
110.4487309063
 30
0.0
 10
95.84866725
 20
110.3722508994
 30
0.0
  0
SPLINE
  5
656
100
AcDbEntity
  8
RUNDUNGEN
100
AcDbSpline
 62
7
  6
CONTINUOUS
 70
0
 71
3
 72
9
 73
5
 74
0
 42
0.0000001
 43
0.0000001
 44
0.0000000001
 40
0.0
 40
0.0
 40
0.0
 40
0.0
 40
0.5048486353
 40
1.0
 40
1.0
 40
1.0
 40
1.0
 10
121.0645018331
 20
126.442083914
 30
0.0
 10
121.0570743184
 20
126.5333425976
 30
0.0
 10
121.0505445451
 20
126.7149789206
 30
0.0
 10
121.0651901914
 20
126.8961819044
 30
0.0
 10
121.0769614141
 20
126.9852088031
 30
0.0
  0
SPLINE
  5
657
100
AcDbEntity
  8
0
100
AcDbSpline
 62
7
  6
CONTINUOUS
 70
0
 71
3
 72
8
 73
4
 74
0
 42
0.0000001
 43
0.0000001
 44
0.0000000001
 40
0.0
 40
0.0
 40
0.0
 40
0.0
 40
1.0
 40
1.0
 40
1.0
 40
1.0
 10
95.4705228728
 20
108.7633427453
 30
0.0
 10
95.5016086094
 20
108.626776721
 30
0.0
 10
95.6323202365
 20
108.5445374806
 30
0.0
 10
95.7688863538
 20
108.5756232384
 30
0.0
  0
SPLINE
  5
658
100
AcDbEntity
  8
0
100
AcDbSpline
 62
7
  6
CONTINUOUS
 70
0
 71
3
 72
8
 73
4
 74
0
 42
0.0000001
 43
0.0000001
 44
0.0000000001
 40
0.0
 40
0.0
 40
0.0
 40
0.0
 40
1.0
 40
1.0
 40
1.0
 40
1.0
 10
97.0977910668
 20
108.1989344376
 30
0.0
 10
97.2326602278
 20
108.2367091838
 30
0.0
 10
97.3083609654
 20
108.3713128522
 30
0.0
 10
97.2705862385
 20
108.5061819444
 30
0.0
  0
SPLINE
  5
659
100
AcDbEntity
  8
0
100
AcDbSpline
 62
7
  6
CONTINUOUS
 70
0
 71
3
 72
8
 73
4
 74
0
 42
0.0000001
 43
0.0000001
 44
0.0000000001
 40
0.0
 40
0.0
 40
0.0
 40
0.0
 40
1.0
 40
1.0
 40
1.0
 40
1.0
 10
97.3483703717
 20
107.3607835488
 30
0.0
 10
97.3752257756
 20
107.2871919247
 30
0.0
 10
97.3643501424
 20
107.2200478196
 30
0.0
 10
97.3161916313
 20
107.1574039846
 30
0.0
  0
SPLINE
  5
65A
100
AcDbEntity
  8
0
100
AcDbSpline
 62
7
  6
CONTINUOUS
 70
0
 71
3
 72
8
 73
4
 74
0
 42
0.0000001
 43
0.0000001
 44
0.0000000001
 40
0.0
 40
0.0
 40
0.0
 40
0.0
 40
1.0
 40
1.0
 40
1.0
 40
1.0
 10
97.3161916313
 20
107.1574039846
 30
0.0
 10
97.2752433762
 20
107.1041391374
 30
0.0
 10
97.2170825883
 20
107.0626987257
 30
0.0
 10
97.139031201
 20
107.0342158439
 30
0.0
  0
SPLINE
  5
65B
100
AcDbEntity
  8
0
100
AcDbSpline
 62
7
  6
CONTINUOUS
 70
0
 71
3
 72
8
 73
4
 74
0
 42
0.0000001
 43
0.0000001
 44
0.0000000001
 40
0.0
 40
0.0
 40
0.0
 40
0.0
 40
1.0
 40
1.0
 40
1.0
 40
1.0
 10
97.139031201
 20
107.0342158439
 30
0.0
 10
97.0587497754
 20
107.004919166
 30
0.0
 10
96.9839220132
 20
106.9953017537
 30
0.0
 10
96.9137529126
 20
107.0077000917
 30
0.0
  0
SPLINE
  5
65C
100
AcDbEntity
  8
0
100
AcDbSpline
 62
7
  6
CONTINUOUS
 70
0
 71
3
 72
8
 73
4
 74
0
 42
0.0000001
 43
0.0000001
 44
0.0000000001
 40
0.0
 40
0.0
 40
0.0
 40
0.0
 40
1.0
 40
1.0
 40
1.0
 40
1.0
 10
96.9137529126
 20
107.0077000917
 30
0.0
 10
96.829954509
 20
107.0225066223
 30
0.0
 10
96.775345144
 20
107.0682806445
 30
0.0
 10
96.7476759439
 20
107.144102307
 30
0.0
  0
SPLINE
  5
65D
100
AcDbEntity
  8
0
100
AcDbSpline
 62
7
  6
CONTINUOUS
 70
0
 71
3
 72
8
 73
4
 74
0
 42
0.0000001
 43
0.0000001
 44
0.0000000001
 40
0.0
 40
0.0
 40
0.0
 40
0.0
 40
1.0
 40
1.0
 40
1.0
 40
1.0
 10
96.7476759439
 20
107.144102307
 30
0.0
 10
96.7053585439
 20
107.2600643016
 30
0.0
 10
96.7721649713
 20
107.3678350386
 30
0.0
 10
96.890357049
 20
107.4109662511
 30
0.0
  0
SPLINE
  5
65E
100
AcDbEntity
  8
0
100
AcDbSpline
 62
7
  6
CONTINUOUS
 70
0
 71
3
 72
8
 73
4
 74
0
 42
0.0000001
 43
0.0000001
 44
0.0000000001
 40
0.0
 40
0.0
 40
0.0
 40
0.0
 40
1.0
 40
1.0
 40
1.0
 40
1.0
 10
97.0509199003
 20
107.469559607
 30
0.0
 10
97.2025625758
 20
107.5248977701
 30
0.0
 10
97.3019839908
 20
107.4878957352
 30
0.0
 10
97.3483703717
 20
107.3607835488
 30
0.0
  0
SPLINE
  5
65F
100
AcDbEntity
  8
0
100
AcDbSpline
 62
7
  6
CONTINUOUS
 70
0
 71
3
 72
8
 73
4
 74
0
 42
0.0000001
 43
0.0000001
 44
0.0000000001
 40
0.0
 40
0.0
 40
0.0
 40
0.0
 40
1.0
 40
1.0
 40
1.0
 40
1.0
 10
97.2487996443
 20
105.8667277665
 30
0.0
 10
97.1920781955
 20
105.9843269433
 30
0.0
 10
97.253080484
 20
106.0928178503
 30
0.0
 10
97.3728178707
 20
106.1505706188
 30
0.0
  0
SPLINE
  5
660
100
AcDbEntity
  8
0
100
AcDbSpline
 62
7
  6
CONTINUOUS
 70
0
 71
3
 72
8
 73
4
 74
0
 42
0.0000001
 43
0.0000001
 44
0.0000000001
 40
0.0
 40
0.0
 40
0.0
 40
0.0
 40
1.0
 40
1.0
 40
1.0
 40
1.0
 10
97.5584517858
 20
105.7657004136
 30
0.0
 10
97.4314953057
 20
105.722914813
 30
0.0
 10
97.305521093
 20
105.7491285896
 30
0.0
 10
97.2487996443
 20
105.8667277665
 30
0.0
  0
SPLINE
  5
661
100
AcDbEntity
  8
0
100
AcDbSpline
 62
7
  6
CONTINUOUS
 70
0
 71
3
 72
8
 73
4
 74
0
 42
0.0000001
 43
0.0000001
 44
0.0000000001
 40
0.0
 40
0.0
 40
0.0
 40
0.0
 40
1.0
 40
1.0
 40
1.0
 40
1.0
 10
97.0078832533
 20
106.2016062933
 30
0.0
 10
96.9480291509
 20
106.0695558931
 30
0.0
 10
96.952403379
 20
105.9293435336
 30
0.0
 10
97.0245943137
 20
105.779671854
 30
0.0
  0
SPLINE
  5
662
100
AcDbEntity
  8
0
100
AcDbSpline
 62
7
  6
CONTINUOUS
 70
0
 71
3
 72
8
 73
4
 74
0
 42
0.0000001
 43
0.0000001
 44
0.0000000001
 40
0.0
 40
0.0
 40
0.0
 40
0.0
 40
1.0
 40
1.0
 40
1.0
 40
1.0
 10
97.0245943137
 20
105.779671854
 30
0.0
 10
97.1009105277
 20
105.6214473351
 30
0.0
 10
97.2162426431
 20
105.5189398007
 30
0.0
 10
97.3693305051
 20
105.4735224129
 30
0.0
  0
SPLINE
  5
663
100
AcDbEntity
  8
0
100
AcDbSpline
 62
7
  6
CONTINUOUS
 70
0
 71
3
 72
8
 73
4
 74
0
 42
0.0000001
 43
0.0000001
 44
0.0000000001
 40
0.0
 40
0.0
 40
0.0
 40
0.0
 40
1.0
 40
1.0
 40
1.0
 40
1.0
 10
97.3693305051
 20
105.4735224129
 30
0.0
 10
97.5207382493
 20
105.4286034746
 30
0.0
 10
97.6770245986
 20
105.4433660281
 30
0.0
 10
97.8373871554
 20
105.520713479
 30
0.0
  0
SPLINE
  5
664
100
AcDbEntity
  8
0
100
AcDbSpline
 62
7
  6
CONTINUOUS
 70
0
 71
3
 72
8
 73
4
 74
0
 42
0.0000001
 43
0.0000001
 44
0.0000000001
 40
0.0
 40
0.0
 40
0.0
 40
0.0
 40
1.0
 40
1.0
 40
1.0
 40
1.0
 10
97.8373871554
 20
105.520713479
 30
0.0
 10
98.1794940236
 20
105.6857214128
 30
0.0
 10
98.2687991472
 20
105.9923552325
 30
0.0
 10
98.1027599144
 20
106.3366002675
 30
0.0
  0
SPLINE
  5
665
100
AcDbEntity
  8
0
100
AcDbSpline
 62
7
  6
CONTINUOUS
 70
0
 71
3
 72
8
 73
4
 74
0
 42
0.0000001
 43
0.0000001
 44
0.0000000001
 40
0.0
 40
0.0
 40
0.0
 40
0.0
 40
1.0
 40
1.0
 40
1.0
 40
1.0
 10
98.1027599144
 20
106.3366002675
 30
0.0
 10
98.0316002787
 20
106.4841337803
 30
0.0
 10
97.9493718715
 20
106.5999728005
 30
0.0
 10
97.8539366918
 20
106.6830856855
 30
0.0
  0
SPLINE
  5
666
100
AcDbEntity
  8
0
100
AcDbSpline
 62
7
  6
CONTINUOUS
 70
0
 71
3
 72
8
 73
4
 74
0
 42
0.0000001
 43
0.0000001
 44
0.0000000001
 40
0.0
 40
0.0
 40
0.0
 40
0.0
 40
1.0
 40
1.0
 40
1.0
 40
1.0
 10
97.65433138
 20
106.5340984926
 30
0.0
 10
97.7265489992
 20
106.460871849
 30
0.0
 10
97.7879247081
 20
106.3718732623
 30
0.0
 10
97.8384583625
 20
106.2671030866
 30
0.0
  0
SPLINE
  5
667
100
AcDbEntity
  8
0
100
AcDbSpline
 62
7
  6
CONTINUOUS
 70
0
 71
3
 72
8
 73
4
 74
0
 42
0.0000001
 43
0.0000001
 44
0.0000000001
 40
0.0
 40
0.0
 40
0.0
 40
0.0
 40
1.0
 40
1.0
 40
1.0
 40
1.0
 10
97.8384583625
 20
106.2671030866
 30
0.0
 10
97.8745538298
 20
106.1922672467
 30
0.0
 10
97.8905256339
 20
106.1209031477
 30
0.0
 10
97.8866716841
 20
106.0541697106
 30
0.0
  0
SPLINE
  5
668
100
AcDbEntity
  8
0
100
AcDbSpline
 62
7
  6
CONTINUOUS
 70
0
 71
3
 72
8
 73
4
 74
0
 42
0.0000001
 43
0.0000001
 44
0.0000000001
 40
0.0
 40
0.0
 40
0.0
 40
0.0
 40
1.0
 40
1.0
 40
1.0
 40
1.0
 10
97.8866716841
 20
106.0541697106
 30
0.0
 10
97.882070818
 20
105.9745029731
 30
0.0
 10
97.8472555771
 20
105.9155411155
 30
0.0
 10
97.7797899253
 20
105.875093725
 30
0.0
  0
SPLINE
  5
669
100
AcDbEntity
  8
0
100
AcDbSpline
 62
7
  6
CONTINUOUS
 70
0
 71
3
 72
8
 73
4
 74
0
 42
0.0000001
 43
0.0000001
 44
0.0000000001
 40
0.0
 40
0.0
 40
0.0
 40
0.0
 40
1.0
 40
1.0
 40
1.0
 40
1.0
 10
97.454930553
 20
106.548616627
 30
0.0
 10
97.4090733188
 20
106.5344051462
 30
0.0
 10
97.3642473407
 20
106.5180554778
 30
0.0
 10
97.3214840036
 20
106.4974294965
 30
0.0
  0
SPLINE
  5
66A
100
AcDbEntity
  8
0
100
AcDbSpline
 62
7
  6
CONTINUOUS
 70
0
 71
3
 72
8
 73
4
 74
0
 42
0.0000001
 43
0.0000001
 44
0.0000000001
 40
0.0
 40
0.0
 40
0.0
 40
0.0
 40
1.0
 40
1.0
 40
1.0
 40
1.0
 10
97.3214840036
 20
106.4974294965
 30
0.0
 10
97.1696740712
 20
106.4242072212
 30
0.0
 10
97.0642236911
 20
106.3259048305
 30
0.0
 10
97.0078832533
 20
106.2016062933
 30
0.0
  0
SPLINE
  5
66B
100
AcDbEntity
  8
0
100
AcDbSpline
 62
7
  6
CONTINUOUS
 70
0
 71
3
 72
8
 73
4
 74
0
 42
0.0000001
 43
0.0000001
 44
0.0000000001
 40
0.0
 40
0.0
 40
0.0
 40
0.0
 40
1.0
 40
1.0
 40
1.0
 40
1.0
 10
97.0664715598
 20
104.6307735931
 30
0.0
 10
97.1363709585
 20
104.5094034864
 30
0.0
 10
97.285496234
 20
104.4692738092
 30
0.0
 10
97.4068663408
 20
104.5391732078
 30
0.0
  0
SPLINE
  5
66C
100
AcDbEntity
  8
0
100
AcDbSpline
 62
7
  6
CONTINUOUS
 70
0
 71
3
 72
8
 73
4
 74
0
 42
0.0000001
 43
0.0000001
 44
0.0000000001
 40
0.0
 40
0.0
 40
0.0
 40
0.0
 40
1.0
 40
1.0
 40
1.0
 40
1.0
 10
98.322651828
 20
104.6162718163
 30
0.0
 10
98.3206640786
 20
104.5721597448
 30
0.0
 10
98.332346647
 20
104.4858866052
 30
0.0
 10
98.3588757292
 20
104.3522720282
 30
0.0
  0
SPLINE
  5
66D
100
AcDbEntity
  8
0
100
AcDbSpline
 62
7
  6
CONTINUOUS
 70
0
 71
3
 72
8
 73
4
 74
0
 42
0.0000001
 43
0.0000001
 44
0.0000000001
 40
0.0
 40
0.0
 40
0.0
 40
0.0
 40
1.0
 40
1.0
 40
1.0
 40
1.0
 10
98.3588757292
 20
104.3522720282
 30
0.0
 10
98.3773333955
 20
104.2593093974
 30
0.0
 10
98.369321988
 20
104.2027027564
 30
0.0
 10
98.3357000311
 20
104.1803829019
 30
0.0
  0
SPLINE
  5
66E
100
AcDbEntity
  8
0
100
AcDbSpline
 62
7
  6
CONTINUOUS
 70
0
 71
3
 72
8
 73
4
 74
0
 42
0.0000001
 43
0.0000001
 44
0.0000000001
 40
0.0
 40
0.0
 40
0.0
 40
0.0
 40
1.0
 40
1.0
 40
1.0
 40
1.0
 10
98.3357000311
 20
104.1803829019
 30
0.0
 10
98.2842781353
 20
104.1462466011
 30
0.0
 10
98.2336215073
 20
104.1667559582
 30
0.0
 10
98.1824171088
 20
104.2438887225
 30
0.0
  0
SPLINE
  5
66F
100
AcDbEntity
  8
0
100
AcDbSpline
 62
7
  6
CONTINUOUS
 70
0
 71
3
 72
8
 73
4
 74
0
 42
0.0000001
 43
0.0000001
 44
0.0000000001
 40
0.0
 40
0.0
 40
0.0
 40
0.0
 40
1.0
 40
1.0
 40
1.0
 40
1.0
 10
98.1824171088
 20
104.2438887225
 30
0.0
 10
98.1364644408
 20
104.3131104381
 30
0.0
 10
98.1083116322
 20
104.3941485473
 30
0.0
 10
98.0966458564
 20
104.4889808252
 30
0.0
  0
SPLINE
  5
670
100
AcDbEntity
  8
0
100
AcDbSpline
 62
7
  6
CONTINUOUS
 70
0
 71
3
 72
8
 73
4
 74
0
 42
0.0000001
 43
0.0000001
 44
0.0000000001
 40
0.0
 40
0.0
 40
0.0
 40
0.0
 40
1.0
 40
1.0
 40
1.0
 40
1.0
 10
97.8568221312
 20
104.4038576232
 30
0.0
 10
97.8704490749
 20
104.3017790994
 30
0.0
 10
97.9097534475
 20
104.1996504359
 30
0.0
 10
97.9793389026
 20
104.0948290013
 30
0.0
  0
SPLINE
  5
671
100
AcDbEntity
  8
0
100
AcDbSpline
 62
7
  6
CONTINUOUS
 70
0
 71
3
 72
8
 73
4
 74
0
 42
0.0000001
 43
0.0000001
 44
0.0000000001
 40
0.0
 40
0.0
 40
0.0
 40
0.0
 40
1.0
 40
1.0
 40
1.0
 40
1.0
 10
97.9793389026
 20
104.0948290013
 30
0.0
 10
98.0489243578
 20
103.9900075666
 30
0.0
 10
98.1350302061
 20
103.9160985714
 30
0.0
 10
98.2351886662
 20
103.8774695879
 30
0.0
  0
SPLINE
  5
672
100
AcDbEntity
  8
0
100
AcDbSpline
 62
7
  6
CONTINUOUS
 70
0
 71
3
 72
8
 73
4
 74
0
 42
0.0000001
 43
0.0000001
 44
0.0000000001
 40
0.0
 40
0.0
 40
0.0
 40
0.0
 40
1.0
 40
1.0
 40
1.0
 40
1.0
 10
98.2351886662
 20
103.8774695879
 30
0.0
 10
98.3495066966
 20
103.8333795601
 30
0.0
 10
98.4581665437
 20
103.8456767721
 30
0.0
 10
98.5590324937
 20
103.9126363884
 30
0.0
  0
SPLINE
  5
673
100
AcDbEntity
  8
0
100
AcDbSpline
 62
7
  6
CONTINUOUS
 70
0
 71
3
 72
8
 73
4
 74
0
 42
0.0000001
 43
0.0000001
 44
0.0000000001
 40
0.0
 40
0.0
 40
0.0
 40
0.0
 40
1.0
 40
1.0
 40
1.0
 40
1.0
 10
98.5590324937
 20
103.9126363884
 30
0.0
 10
98.6460540688
 20
103.97040545
 30
0.0
 10
98.6916429841
 20
104.0519578569
 30
0.0
 10
98.6933640738
 20
104.1579331708
 30
0.0
  0
SPLINE
  5
674
100
AcDbEntity
  8
0
100
AcDbSpline
 62
7
  6
CONTINUOUS
 70
0
 71
3
 72
8
 73
4
 74
0
 42
0.0000001
 43
0.0000001
 44
0.0000000001
 40
0.0
 40
0.0
 40
0.0
 40
0.0
 40
1.0
 40
1.0
 40
1.0
 40
1.0
 10
98.6933640738
 20
104.1579331708
 30
0.0
 10
98.6938883833
 20
104.1902172835
 30
0.0
 10
98.6808928425
 20
104.2784681589
 30
0.0
 10
98.6537263684
 20
104.4205144423
 30
0.0
  0
SPLINE
  5
675
100
AcDbEntity
  8
0
100
AcDbSpline
 62
7
  6
CONTINUOUS
 70
0
 71
3
 72
8
 73
4
 74
0
 42
0.0000001
 43
0.0000001
 44
0.0000000001
 40
0.0
 40
0.0
 40
0.0
 40
0.0
 40
1.0
 40
1.0
 40
1.0
 40
1.0
 10
98.6537263684
 20
104.4205144423
 30
0.0
 10
98.6359228073
 20
104.5136045383
 30
0.0
 10
98.6459119969
 20
104.5715241251
 30
0.0
 10
98.6834894979
 20
104.596469858
 30
0.0
  0
SPLINE
  5
676
100
AcDbEntity
  8
0
100
AcDbSpline
 62
7
  6
CONTINUOUS
 70
0
 71
3
 72
8
 73
4
 74
0
 42
0.0000001
 43
0.0000001
 44
0.0000000001
 40
0.0
 40
0.0
 40
0.0
 40
0.0
 40
1.0
 40
1.0
 40
1.0
 40
1.0
 10
98.6834894979
 20
104.596469858
 30
0.0
 10
98.7368890963
 20
104.6319190519
 30
0.0
 10
98.7914845221
 20
104.6054764083
 30
0.0
 10
98.8479406511
 20
104.5204325953
 30
0.0
  0
SPLINE
  5
677
100
AcDbEntity
  8
0
100
AcDbSpline
 62
7
  6
CONTINUOUS
 70
0
 71
3
 72
8
 73
4
 74
0
 42
0.0000001
 43
0.0000001
 44
0.0000000001
 40
0.0
 40
0.0
 40
0.0
 40
0.0
 40
1.0
 40
1.0
 40
1.0
 40
1.0
 10
98.8479406511
 20
104.5204325953
 30
0.0
 10
98.9109614564
 20
104.4254999517
 30
0.0
 10
98.944997372
 20
104.3227231851
 30
0.0
 10
98.9487354586
 20
104.2140800248
 30
0.0
  0
SPLINE
  5
678
100
AcDbEntity
  8
0
100
AcDbSpline
 62
7
  6
CONTINUOUS
 70
0
 71
3
 72
8
 73
4
 74
0
 42
0.0000001
 43
0.0000001
 44
0.0000000001
 40
0.0
 40
0.0
 40
0.0
 40
0.0
 40
1.0
 40
1.0
 40
1.0
 40
1.0
 10
99.1977830676
 20
104.302477202
 30
0.0
 10
99.1868154924
 20
104.417718481
 30
0.0
 10
99.1409631875
 20
104.5382951242
 30
0.0
 10
99.0595613123
 20
104.6609164581
 30
0.0
  0
SPLINE
  5
679
100
AcDbEntity
  8
0
100
AcDbSpline
 62
7
  6
CONTINUOUS
 70
0
 71
3
 72
8
 73
4
 74
0
 42
0.0000001
 43
0.0000001
 44
0.0000000001
 40
0.0
 40
0.0
 40
0.0
 40
0.0
 40
1.0
 40
1.0
 40
1.0
 40
1.0
 10
99.0595613123
 20
104.6609164581
 30
0.0
 10
98.9820982614
 20
104.7776044657
 30
0.0
 10
98.8953443125
 20
104.8567818909
 30
0.0
 10
98.8016568519
 20
104.9005664596
 30
0.0
  0
SPLINE
  5
67A
100
AcDbEntity
  8
0
100
AcDbSpline
 62
7
  6
CONTINUOUS
 70
0
 71
3
 72
8
 73
4
 74
0
 42
0.0000001
 43
0.0000001
 44
0.0000000001
 40
0.0
 40
0.0
 40
0.0
 40
0.0
 40
1.0
 40
1.0
 40
1.0
 40
1.0
 10
98.8016568519
 20
104.9005664596
 30
0.0
 10
98.6887956015
 20
104.9533118445
 30
0.0
 10
98.576845043
 20
104.9416794224
 30
0.0
 10
98.4680680641
 20
104.8694680888
 30
0.0
  0
SPLINE
  5
67B
100
AcDbEntity
  8
0
100
AcDbSpline
 62
7
  6
CONTINUOUS
 70
0
 71
3
 72
8
 73
4
 74
0
 42
0.0000001
 43
0.0000001
 44
0.0000000001
 40
0.0
 40
0.0
 40
0.0
 40
0.0
 40
1.0
 40
1.0
 40
1.0
 40
1.0
 10
98.4680680641
 20
104.8694680888
 30
0.0
 10
98.3770909448
 20
104.8090731488
 30
0.0
 10
98.3275465318
 20
104.7248949229
 30
0.0
 10
98.322651828
 20
104.6162718163
 30
0.0
  0
ENDSEC
  0
SECTION
  2
OBJECTS
  0
DICTIONARY
  5
C
100
AcDbDictionary
280
0
281
1
  3
ACAD_GROUP
350
D
  3
ACAD_MLINESTYLE
350
17
  3
ACAD_LAYOUT
350
1A
  3
ACAD_PLOTSETTINGS
350
19
  3
ACAD_PLOTSTYLENAME
350
E
  0
DICTIONARY
  5
D
102
{ACAD_REACTORS
330
C
102
}
100
AcDbDictionary
280
0
281
1
  0
ACDBDICTIONARYWDFLT
  5
E
102
{ACAD_REACTORS
330
C
102
}
100
AcDbDictionary
281
1
  3
Normal
350
F
100
AcDbDictionaryWithDefault
340
F
  0
DICTIONARY
  5
17
102
{ACAD_REACTORS
330
C
102
}
100
AcDbDictionary
280
0
281
1
  3
Standard
350
18
  0
DICTIONARY
  5
19
102
{ACAD_REACTORS
330
C
102
}
100
AcDbDictionary
281
1
  0
DICTIONARY
  5
1A
102
{ACAD_REACTORS
330
C
102
}
100
AcDbDictionary
281
1
  3
Model
350
67C
  3
Layout1
350
67D
  0
ACDBPLACEHOLDER
  5
F
102
{ACAD_REACTORS
330
E
102
}
  0
MLINESTYLE
  5
18
102
{ACAD_REACTORS
330
17
102
}
100
AcDbMlineStyle
  2
STANDARD
 70
0
  3

 62
256
 51
90.0
 52
90.0
 71
2
 49
0.5
 62
256
  6
BYLAYER
 49
-0.5
 62
256
  6
BYLAYER
  0
LAYOUT
  5
67C
102
{ACAD_REACTORS
330
1A
102
}
100
AcDbPlotSettings
  1

  2
none_device
  4
ISO_A4_(297.00_x_210.00_MM)
  6

 40
0.0
 41
0.0
 42
0.0
 43
0.0
 44
297.0
 45
210.0
 46
0.0
 47
0.0
 48
0.0
 49
0.0
140
0.0
141
0.0
142
1.0
143
1.0
 70
1024
 72
1
 73
0
 74
0
  7

 75
0
147
1.0
148
0.0
149
0.0
100
AcDbLayout
  1
Model
 70
0
 71
0
 10
0.0
 20
0.0
 11
297.0
 21
210.0
 12
0.0
 22
0.0
 32
0.0
 14
0.0
 24
0.0
 34
0.0
 15
0.0
 25
0.0
 35
0.0
146
0.0
 13
0.0
 23
0.0
 33
0.0
 16
1.0
 26
0.0
 36
0.0
 17
0.0
 27
1.0
 37
0.0
 76
0
330
212
345
0
346
0
  0
LAYOUT
  5
67D
102
{ACAD_REACTORS
330
1A
102
}
100
AcDbPlotSettings
  1

  2
none_device
  4
ISO_A4_(297.00_x_210.00_MM)
  6

 40
0.0
 41
0.0
 42
0.0
 43
0.0
 44
297.0
 45
210.0
 46
0.0
 47
0.0
 48
0.0
 49
0.0
140
0.0
141
0.0
142
1.0
143
1.0
 70
0
 72
1
 73
0
 74
0
  7

 75
0
147
1.0
148
0.0
149
0.0
100
AcDbLayout
  1
Layout1
 70
0
 71
1
 10
0.0
 20
0.0
 11
297.0
 21
210.0
 12
0.0
 22
0.0
 32
0.0
 14
0.0
 24
0.0
 34
0.0
 15
0.0
 25
0.0
 35
0.0
146
0.0
 13
0.0
 23
0.0
 33
0.0
 16
1.0
 26
0.0
 36
0.0
 17
0.0
 27
1.0
 37
0.0
 76
0
330
213
345
0
346
0
  0
ENDSEC
  0
EOF
