  0
SECTION
  2
HEADER
  9
$ACADVER
  1
AC1021
  9
$DWGCODEPAGE
  3
ANSI_1252
  9
$EXTMAX
 10
297.0
 20
210.0
 30
0.0
  9
$EXTMIN
 10
0.0
 20
0.0
 30
0.0
  9
$LIMMIN
 10
0.0
 20
0.0
  9
$LIMMAX
 10
297.0
 20
210.0
  9
$VIEWCTR
 10
148.5
 20
105.0
  9
$VIEWSIZE
 40
210.0
  9
$CLAYER
  8
0
  9
$LTSCALE
 40
16.335
  9
$CELTYPE
  6
BYLAYER
  9
$DIMSCALE
 40
1.0
  9
$DIMASZ
 40
3.5
  9
$DIMEXO
 40
1.85625
  9
$DIMDLI
 40
11.286
  9
$DIMEXE
 40
5.346
  9
$DIMCEN
 40
2.673
  9
$DIMLFAC
 40
1.0
  9
$DIMBLK
  1
_FILLED
  9
$DIMTXT
 40
3.5
  9
$DIMTOL
 70
1
  9
$DIMLIM
 70
0
  9
$DIMTFAC
 40
1.0
  9
$DIMTP
 40
0.005
  9
$DIMTM
 40
0.005
  9
$PDMODE
 70
3
  9
$PDSIZE
 40
0.3125
  9
$HANDSEED
  5
7AE
  9
$TILEMODE
 70
1
  9
$MEASUREMENT
 70
1
  9
$INSUNITS
 70
4
  0
ENDSEC
  0
SECTION
  2
CLASSES
  0
CLASS
  1
ACDBDICTIONARYWDFLT
  2
AcDbDictionaryWithDefault
  3
AutoCAD 2000
 90
0
 91
1
280
0
281
0
  0
CLASS
  1
ACDBPLACEHOLDER
  2
AcDbPlaceHolder
  3
AutoCAD 2000
 90
0
 91
1
280
0
281
0
  0
CLASS
  1
LAYOUT
  2
AcDbLayout
  3
AutoCAD 2000
 90
0
 91
0
280
0
281
0
  0
ENDSEC
  0
SECTION
  2
TABLES
  0
TABLE
  2
VPORT
  5
8
100
AcDbSymbolTable
 70
2
  0
VPORT
  5
1F4
100
AcDbSymbolTableRecord
100
AcDbViewportTableRecord
  2
*ACTIVE
 70
0
 10
0.0
 20
0.0
 11
1.0
 21
1.0
 12
148.5
 22
105.0
 13
0.0
 23
0.0
 14
1.0
 24
1.0
 15
0.0
 25
0.0
 16
0.0
 26
0.0
 36
1.0
 17
0.0
 27
0.0
 37
0.0
 40
210.0
 41
1.4142857143
 42
50.0
 43
0.0
 44
0.0
 50
0.0
 51
0.0
 71
0
 72
100
 73
1
 74
1
 75
0
 76
0
 77
0
 78
0
  0
ENDTAB
  0
TABLE
  2
LTYPE
  5
5
100
AcDbSymbolTable
 70
6
  0
LTYPE
  5
14
100
AcDbSymbolTableRecord
100
AcDbLinetypeTableRecord
  2
BYBLOCK
 70
0
  3

 72
65
 73
0
 40
0.0
  0
LTYPE
  5
15
100
AcDbSymbolTableRecord
100
AcDbLinetypeTableRecord
  2
BYLAYER
 70
0
  3

 72
65
 73
0
 40
0.0
  0
LTYPE
  5
16
100
AcDbSymbolTableRecord
100
AcDbLinetypeTableRecord
  2
CONTINUOUS
 70
64
  3
Solid line
 72
65
 73
0
 40
0.0
  0
LTYPE
  5
1F5
100
AcDbSymbolTableRecord
100
AcDbLinetypeTableRecord
  2
CENTER
 70
64
  3
____ _ ____ _ ____ _ ____ _ ____ _ ____ _ ____
 72
65
 73
4
 40
0.6
 49
0.375
 74
0
 49
-0.075
 74
0
 49
0.075
 74
0
 49
-0.075
 74
0
  0
LTYPE
  5
1F6
100
AcDbSymbolTableRecord
100
AcDbLinetypeTableRecord
  2
HIDDEN
 70
64
  3
- - - - - - - - - - - - - - - - - - - -
 72
65
 73
2
 40
0.2
 49
0.1
 74
0
 49
-0.1
 74
0
  0
LTYPE
  5
1F7
100
AcDbSymbolTableRecord
100
AcDbLinetypeTableRecord
  2
PHANTOM
 70
64
  3
_____ _ _ _____ _ _ _____ _ _ _____
 72
65
 73
6
 40
0.8
 49
0.45
 74
0
 49
-0.05
 74
0
 49
0.1
 74
0
 49
-0.05
 74
0
 49
0.1
 74
0
 49
-0.05
 74
0
  0
LTYPE
  5
1F8
100
AcDbSymbolTableRecord
100
AcDbLinetypeTableRecord
  2
DOT
 70
64
  3
. . . . . . . . . . . . . . . . . . . .
 72
65
 73
2
 40
0.2
 49
0.1
 74
0
 49
-0.1
 74
0
  0
LTYPE
  5
1F9
100
AcDbSymbolTableRecord
100
AcDbLinetypeTableRecord
  2
DASHED
 70
64
  3
- - - - - - - - - - - - - - - - - - - -
 72
65
 73
2
 40
0.2
 49
0.1
 74
0
 49
-0.1
 74
0
  0
ENDTAB
  0
TABLE
  2
LAYER
  5
2
100
AcDbSymbolTable
 70
36
  0
LAYER
  5
10
100
AcDbSymbolTableRecord
100
AcDbLayerTableRecord
  2
0
 70
0
 62
7
  6
CONTINUOUS
370
-3
390
F
  0
LAYER
  5
1FA
100
AcDbSymbolTableRecord
100
AcDbLayerTableRecord
  2
DEFAULT_1
 70
0
 62
7
  6
CENTER
370
-3
390
F
  0
LAYER
  5
1FB
100
AcDbSymbolTableRecord
100
AcDbLayerTableRecord
  2
DEFAULT_2
 70
0
 62
8
  6
HIDDEN
370
-3
390
F
  0
LAYER
  5
1FC
100
AcDbSymbolTableRecord
100
AcDbLayerTableRecord
  2
DEFAULT_3
 70
0
 62
7
  6
PHANTOM
370
-3
390
F
  0
LAYER
  5
1FD
100
AcDbSymbolTableRecord
100
AcDbLayerTableRecord
  2
01___PRT_ALL_DTM_PLN
 70
0
 62
7
  6
CONTINUOUS
370
-3
390
F
  0
LAYER
  5
1FE
100
AcDbSymbolTableRecord
100
AcDbLayerTableRecord
  2
01___PRT_DEF_DTM_PLN
 70
0
 62
7
  6
CONTINUOUS
370
-3
390
F
  0
LAYER
  5
1FF
100
AcDbSymbolTableRecord
100
AcDbLayerTableRecord
  2
02___PRT_ALL_AXES
 70
0
 62
7
  6
CONTINUOUS
370
-3
390
F
  0
LAYER
  5
200
100
AcDbSymbolTableRecord
100
AcDbLayerTableRecord
  2
03___PRT_ALL_CURVES
 70
0
 62
7
  6
CONTINUOUS
370
-3
390
F
  0
LAYER
  5
201
100
AcDbSymbolTableRecord
100
AcDbLayerTableRecord
  2
04___PRT_ALL_DTM_PNT
 70
0
 62
7
  6
CONTINUOUS
370
-3
390
F
  0
LAYER
  5
202
100
AcDbSymbolTableRecord
100
AcDbLayerTableRecord
  2
05___PRT_ALL_DTM_CSYS
 70
0
 62
7
  6
CONTINUOUS
370
-3
390
F
  0
LAYER
  5
203
100
AcDbSymbolTableRecord
100
AcDbLayerTableRecord
  2
05___PRT_DEF_DTM_CSYS
 70
0
 62
7
  6
CONTINUOUS
370
-3
390
F
  0
LAYER
  5
204
100
AcDbSymbolTableRecord
100
AcDbLayerTableRecord
  2
06___PRT_ALL_SURFS
 70
0
 62
7
  6
CONTINUOUS
370
-3
390
F
  0
LAYER
  5
205
100
AcDbSymbolTableRecord
100
AcDbLayerTableRecord
  2
ALLE
 70
0
 62
7
  6
CONTINUOUS
370
-3
390
F
  0
LAYER
  5
206
100
AcDbSymbolTableRecord
100
AcDbLayerTableRecord
  2
AUSFORMSCHRAEGEN
 70
0
 62
7
  6
CONTINUOUS
370
-3
390
F
  0
LAYER
  5
207
100
AcDbSymbolTableRecord
100
AcDbLayerTableRecord
  2
BEZUGSACHSEN
 70
0
 62
7
  6
CONTINUOUS
370
-3
390
F
  0
LAYER
  5
208
100
AcDbSymbolTableRecord
100
AcDbLayerTableRecord
  2
BEZUGSEBENE
 70
0
 62
7
  6
CONTINUOUS
370
-3
390
F
  0
LAYER
  5
209
100
AcDbSymbolTableRecord
100
AcDbLayerTableRecord
  2
BEZUGSEBENEN
 70
0
 62
7
  6
CONTINUOUS
370
-3
390
F
  0
LAYER
  5
20A
100
AcDbSymbolTableRecord
100
AcDbLayerTableRecord
  2
BEZUGSEBENEN-KES
 70
0
 62
7
  6
CONTINUOUS
370
-3
390
F
  0
LAYER
  5
20B
100
AcDbSymbolTableRecord
100
AcDbLayerTableRecord
  2
BOHRUNGEN
 70
0
 62
7
  6
CONTINUOUS
370
-3
390
F
  0
LAYER
  5
20C
100
AcDbSymbolTableRecord
100
AcDbLayerTableRecord
  2
FASEN
 70
0
 62
7
  6
CONTINUOUS
370
-3
390
F
  0
LAYER
  5
20D
100
AcDbSymbolTableRecord
100
AcDbLayerTableRecord
  2
FLAECHEN
 70
0
 62
7
  6
CONTINUOUS
370
-3
390
F
  0
LAYER
  5
20E
100
AcDbSymbolTableRecord
100
AcDbLayerTableRecord
  2
GESTEUERTE
 70
0
 62
7
  6
CONTINUOUS
370
-3
390
F
  0
LAYER
  5
20F
100
AcDbSymbolTableRecord
100
AcDbLayerTableRecord
  2
GEWINDE
 70
0
 62
7
  6
CONTINUOUS
370
-3
390
F
  0
LAYER
  5
210
100
AcDbSymbolTableRecord
100
AcDbLayerTableRecord
  2
KURVEN
 70
0
 62
7
  6
CONTINUOUS
370
-3
390
F
  0
LAYER
  5
211
100
AcDbSymbolTableRecord
100
AcDbLayerTableRecord
  2
PARAMETER-BEMAßUNGEN
 70
0
 62
7
  6
CONTINUOUS
370
-3
390
F
  0
LAYER
  5
212
100
AcDbSymbolTableRecord
100
AcDbLayerTableRecord
  2
RUNDUNGEN
 70
0
 62
7
  6
CONTINUOUS
370
-3
390
F
  0
LAYER
  5
213
100
AcDbSymbolTableRecord
100
AcDbLayerTableRecord
  2
SAMMELFLÄCHEN
 70
0
 62
7
  6
CONTINUOUS
370
-3
390
F
  0
LAYER
  5
214
100
AcDbSymbolTableRecord
100
AcDbLayerTableRecord
  2
ZEICHNUNGSBEMASSUNGEN
 70
0
 62
7
  6
CONTINUOUS
370
-3
390
F
  0
LAYER
  5
215
100
AcDbSymbolTableRecord
100
AcDbLayerTableRecord
  2
ZEICHNUNGSNOTIZEN
 70
0
 62
7
  6
CONTINUOUS
370
-3
390
F
  0
ENDTAB
  0
TABLE
  2
STYLE
  5
3
100
AcDbSymbolTable
 70
1
  0
STYLE
  5
11
100
AcDbSymbolTableRecord
100
AcDbTextStyleTableRecord
  2
STANDARD
 70
0
 40
0.0
 41
0.7
 50
0.0
 71
0
 42
0.2
  3
txt
  4

  0
STYLE
  5
216
100
AcDbSymbolTableRecord
100
AcDbTextStyleTableRecord
  2
TEXTSTYLE_1
 70
0
 40
0.0
 41
0.8
 50
0.0
 71
0
 42
0.2
  3
gdt
  4

  0
ENDTAB
  0
TABLE
  2
VIEW
  5
6
100
AcDbSymbolTable
 70
0
  0
ENDTAB
  0
TABLE
  2
UCS
  5
7
100
AcDbSymbolTable
 70
0
  0
ENDTAB
  0
TABLE
  2
APPID
  5
9
100
AcDbSymbolTable
 70
1
  0
APPID
  5
217
100
AcDbSymbolTableRecord
100
AcDbRegAppTableRecord
  2
ACAD
 70
0
  0
ENDTAB
  0
TABLE
  2
BLOCK_RECORD
  5
1
100
AcDbSymbolTable
 70
0
  0
BLOCK_RECORD
  5
218
100
AcDbSymbolTableRecord
100
AcDbBlockTableRecord
  2
*Model_Space
  0
BLOCK_RECORD
  5
219
100
AcDbSymbolTableRecord
100
AcDbBlockTableRecord
  2
*Paper_Space
  0
ENDTAB
  0
TABLE
  2
DIMSTYLE
  5
A
100
AcDbSymbolTable
 70
1
100
AcDbDimStyleTable
 71
0
  0
DIMSTYLE
105
21A
100
AcDbSymbolTableRecord
100
AcDbDimStyleTableRecord
  2
STANDARD
 70
0
  3

  4

 40
1.0
 41
3.5
 42
0.0625
 43
0.38
 44
0.18
 45
0.0
 46
0.0
 47
0.005
 48
0.005
140
3.5
141
0.09
142
0.0
143
25.4
144
1.0
145
0.0
146
1.0
147
0.09
 71
1.0
 72
0.0
 73
0
 74
0
 75
0
 76
0
 77
1
 78
8
170
0
171
2
172
0
173
0
174
0
175
0
176
0
177
0
178
5
270
2
271
3
272
3
273
2
274
2
275
0
280
0
281
0
282
0
283
1
284
8
285
0
286
0
287
3
288
0
340
11
  0
ENDTAB
  0
ENDSEC
  0
SECTION
  2
BLOCKS
  0
BLOCK
  5
20
100
AcDbEntity
  8
0
100
AcDbBlockBegin
  2
*Model_Space
 70
0
 10
0.0
 20
0.0
 30
0.0
  3
*Model_Space
  1

  0
ENDBLK
  5
21
100
AcDbEntity
  8
0
100
AcDbBlockEnd
  0
BLOCK
  5
1C
100
AcDbEntity
  8
0
100
AcDbBlockBegin
  2
*Paper_Space
 70
0
 10
0.0
 20
0.0
 30
0.0
  3
*Paper_Space
  1

  0
ENDBLK
  5
1D
100
AcDbEntity
  8
0
100
AcDbBlockEnd
  0
ENDSEC
  0
SECTION
  2
ENTITIES
  0
LINE
  5
21B
100
AcDbEntity
  8
0
100
AcDbLine
 62
7
  6
CONTINUOUS
 10
225.4646045918
 20
142.0569702929
 11
225.2146045918
 21
142.0569702929
  0
LINE
  5
21C
100
AcDbEntity
  8
0
100
AcDbLine
 62
7
  6
CONTINUOUS
 10
225.2146045918
 20
142.0569702929
 11
225.2146045918
 21
138.3996158165
  0
SPLINE
  5
21D
100
AcDbEntity
  8
0
100
AcDbSpline
 62
7
  6
CONTINUOUS
 70
0
 71
3
 72
12
 73
8
 74
6
 42
0.0000001
 43
0.0000001
 44
0.0000000001
 12
0.0243181092
 22
-4.1663317229
 32
0.0
 13
4.132312886
 23
-0.5318849572
 33
0.0
 40
0.0
 40
0.0
 40
0.0
 40
0.0
 40
0.2
 40
0.4
 40
0.6
 40
0.8
 40
1.0
 40
1.0
 40
1.0
 40
1.0
 10
225.2146045918
 20
138.3996158165
 30
0.0
 10
225.2162257991
 20
138.1218603683
 30
0.0
 10
225.2926780766
 20
137.5918570741
 30
0.0
 10
225.6390963333
 20
136.8438400146
 30
0.0
 10
226.1809236751
 20
136.2314156117
 30
0.0
 10
226.8811473635
 20
135.7964191563
 30
0.0
 10
227.3978829046
 20
135.655945589
 30
0.0
 10
227.6733704303
 20
135.6204865919
 30
0.0
 11
225.2146045918
 21
138.3996158165
 31
0.0
 11
225.3313013833
 21
137.5996883878
 31
0.0
 11
225.6716645142
 21
136.8664387907
 31
0.0
 11
226.2073230662
 21
136.2609869363
 31
0.0
 11
226.8936273007
 21
135.8338001737
 31
0.0
 11
227.6733704303
 21
135.6204865919
 31
0.0
  0
LINE
  5
21E
100
AcDbEntity
  8
0
100
AcDbLine
 62
7
  6
CONTINUOUS
 10
227.6733704303
 20
135.6204865919
 11
232.8974086069
 21
134.9790553582
  0
SPLINE
  5
21F
100
AcDbEntity
  8
0
100
AcDbSpline
 62
7
  6
CONTINUOUS
 70
0
 71
3
 72
12
 73
8
 74
6
 42
0.0000001
 43
0.0000001
 44
0.0000000001
 12
2.2137390461
 22
-0.2849383699
 32
0.0
 13
0.0130275585
 23
-2.231963423
 33
0.0
 40
0.0
 40
0.0
 40
0.0
 40
0.0
 40
0.2
 40
0.4
 40
0.6
 40
0.8
 40
1.0
 40
1.0
 40
1.0
 40
1.0
 10
232.8974086069
 20
134.9790553582
 30
0.0
 10
233.04499121
 20
134.9600594669
 30
0.0
 10
233.3218138213
 20
134.8848057702
 30
0.0
 10
233.6969336544
 20
134.6517719547
 30
0.0
 10
233.9871983018
 20
134.3236874532
 30
0.0
 10
234.1727795107
 20
133.9229640285
 30
0.0
 10
234.2137360879
 20
133.6390336923
 30
0.0
 10
234.2146045918
 20
133.4902361308
 30
0.0
 11
232.8974086069
 21
134.9790553582
 31
0.0
 11
233.3151281407
 21
134.8647802251
 31
0.0
 11
233.6827911234
 21
134.6359301737
 31
0.0
 11
233.969751062
 21
134.311580966
 31
0.0
 11
234.1520884535
 21
133.9187686819
 31
0.0
 11
234.2146045918
 21
133.4902361308
 31
0.0
  0
LINE
  5
220
100
AcDbEntity
  8
0
100
AcDbLine
 62
7
  6
CONTINUOUS
 10
234.2146045918
 20
133.4902361308
 11
234.2146045918
 21
130.4363078802
  0
LINE
  5
221
100
AcDbEntity
  8
0
100
AcDbLine
 62
7
  6
CONTINUOUS
 10
234.2146045918
 20
130.4363078802
 11
206.2146045918
 21
130.4363078802
  0
LINE
  5
222
100
AcDbEntity
  8
0
100
AcDbLine
 62
7
  6
CONTINUOUS
 10
206.2146045918
 20
130.4363078802
 11
206.2146045918
 21
133.4902361308
  0
SPLINE
  5
223
100
AcDbEntity
  8
0
100
AcDbSpline
 62
7
  6
CONTINUOUS
 70
0
 71
3
 72
12
 73
8
 74
6
 42
0.0000001
 43
0.0000001
 44
0.0000000001
 12
0.0130275585
 22
2.231963423
 32
0.0
 13
2.2137390461
 23
0.2849383699
 33
0.0
 40
0.0
 40
0.0
 40
0.0
 40
0.0
 40
0.2
 40
0.4
 40
0.6
 40
0.8
 40
1.0
 40
1.0
 40
1.0
 40
1.0
 10
206.2146045918
 20
133.4902361308
 30
0.0
 10
206.2154730957
 20
133.6390336923
 30
0.0
 10
206.2564296729
 20
133.9229640285
 30
0.0
 10
206.4420108819
 20
134.3236874532
 30
0.0
 10
206.7322755293
 20
134.6517719547
 30
0.0
 10
207.1073953623
 20
134.8848057702
 30
0.0
 10
207.3842179737
 20
134.9600594669
 30
0.0
 10
207.5318005767
 20
134.9790553582
 30
0.0
 11
206.2146045918
 21
133.4902361308
 31
0.0
 11
206.2771207301
 21
133.9187686819
 31
0.0
 11
206.4594581216
 21
134.311580966
 31
0.0
 11
206.7464180603
 21
134.6359301737
 31
0.0
 11
207.114081043
 21
134.8647802251
 31
0.0
 11
207.5318005767
 21
134.9790553582
 31
0.0
  0
LINE
  5
224
100
AcDbEntity
  8
0
100
AcDbLine
 62
7
  6
CONTINUOUS
 10
207.5318005767
 20
134.9790553582
 11
212.7558387534
 21
135.6204865919
  0
SPLINE
  5
225
100
AcDbEntity
  8
0
100
AcDbSpline
 62
7
  6
CONTINUOUS
 70
0
 71
3
 72
12
 73
8
 74
6
 42
0.0000001
 43
0.0000001
 44
0.0000000001
 12
4.132312886
 22
0.5318849572
 32
0.0
 13
0.0243181092
 23
4.1663317229
 33
0.0
 40
0.0
 40
0.0
 40
0.0
 40
0.0
 40
0.2
 40
0.4
 40
0.6
 40
0.8
 40
1.0
 40
1.0
 40
1.0
 40
1.0
 10
212.7558387534
 20
135.6204865919
 30
0.0
 10
213.0313262791
 20
135.655945589
 30
0.0
 10
213.5480618202
 20
135.7964191563
 30
0.0
 10
214.2482855085
 20
136.2314156117
 30
0.0
 10
214.7901128504
 20
136.8438400146
 30
0.0
 10
215.1365311071
 20
137.5918570741
 30
0.0
 10
215.2129833846
 20
138.1218603683
 30
0.0
 10
215.2146045918
 20
138.3996158165
 30
0.0
 11
212.7558387534
 21
135.6204865919
 31
0.0
 11
213.535581883
 21
135.8338001737
 31
0.0
 11
214.2218861175
 21
136.2609869363
 31
0.0
 11
214.7575446695
 21
136.8664387907
 31
0.0
 11
215.0979078003
 21
137.5996883878
 31
0.0
 11
215.2146045918
 21
138.3996158165
 31
0.0
  0
LINE
  5
226
100
AcDbEntity
  8
0
100
AcDbLine
 62
7
  6
CONTINUOUS
 10
215.2146045918
 20
138.3996158165
 11
215.2146045918
 21
145.480353925
  0
ARC
  5
227
100
AcDbEntity
  8
0
100
AcDbCircle
 62
7
  6
CONTINUOUS
 10
212.0145996674
 20
145.4803540148
 40
3.2000049245
100
AcDbArc
 50
359.9999983931
 51
29.5935592568
  0
SPLINE
  5
228
100
AcDbEntity
  8
0
100
AcDbSpline
 62
7
  6
CONTINUOUS
 70
0
 71
3
 72
12
 73
8
 74
6
 42
0.0000001
 43
0.0000001
 44
0.0000000001
 12
-0.7143535461
 22
1.2817311351
 32
0.0
 13
1.3894378193
 23
0.463088159
 33
0.0
 40
0.0
 40
0.0
 40
0.0
 40
0.0
 40
0.2
 40
0.4
 40
0.6
 40
0.8
 40
1.0
 40
1.0
 40
1.0
 40
1.0
 10
214.7971636525
 20
147.0606566511
 30
0.0
 10
214.7495400828
 20
147.1461053935
 30
0.0
 10
214.6870233388
 20
147.320808863
 30
0.0
 10
214.6913751806
 20
147.6145671914
 30
0.0
 10
214.7940466672
 20
147.879173135
 30
0.0
 10
214.9891981872
 20
148.0990238881
 30
0.0
 10
215.152960553
 20
148.1857040954
 30
0.0
 10
215.2455897409
 20
148.2165766393
 30
0.0
 11
214.7971636525
 21
147.0606566511
 31
0.0
 11
214.7033778318
 21
147.326092717
 31
0.0
 11
214.7077617881
 21
147.6097084606
 31
0.0
 11
214.8094600061
 21
147.8717139366
 31
0.0
 11
214.9976135253
 21
148.0840521477
 31
0.0
 11
215.2455897409
 21
148.2165766393
 31
0.0
  0
LINE
  5
229
100
AcDbEntity
  8
0
100
AcDbLine
 62
7
  6
CONTINUOUS
 10
215.2455899049
 20
148.2165761348
 11
218.9785377859
 21
149.4294844264
  0
ARC
  5
22A
100
AcDbEntity
  8
0
100
AcDbCircle
 62
7
  6
CONTINUOUS
 10
220.2146051625
 20
145.6252604953
 40
3.9999973139
100
AcDbArc
 50
72.0000003834
 51
108.00000126
  0
LINE
  5
22B
100
AcDbEntity
  8
0
100
AcDbLine
 62
7
  6
CONTINUOUS
 10
221.450672321
 20
149.4294841264
 11
225.1836245265
 21
148.2165744297
  0
SPLINE
  5
22C
100
AcDbEntity
  8
0
100
AcDbSpline
 62
7
  6
CONTINUOUS
 70
0
 71
3
 72
12
 73
8
 74
6
 42
0.0000001
 43
0.0000001
 44
0.0000000001
 12
1.389416243
 22
-0.4630804438
 32
0.0
 13
-0.7143520474
 23
-1.2817293582
 33
0.0
 40
0.0
 40
0.0
 40
0.0
 40
0.0
 40
0.2
 40
0.4
 40
0.6
 40
0.8
 40
1.0
 40
1.0
 40
1.0
 40
1.0
 10
225.1836263064
 20
148.2165799076
 30
0.0
 10
225.2762540559
 20
148.1857078781
 30
0.0
 10
225.4400139167
 20
148.0990287852
 30
0.0
 10
225.6351625766
 20
147.8791804035
 30
0.0
 10
225.7378327544
 20
147.6145762033
 30
0.0
 10
225.7421840957
 20
147.320818682
 30
0.0
 10
225.6796673509
 20
147.1461156027
 30
0.0
 10
225.6320438811
 20
147.0606669788
 30
0.0
 11
225.1836263064
 21
148.2165799076
 31
0.0
 11
225.4315987282
 21
148.0840571615
 31
0.0
 11
225.6197494963
 21
147.8717211004
 31
0.0
 11
225.7214462816
 21
147.6097173165
 31
0.0
 11
225.725829686
 21
147.3261024991
 31
0.0
 11
225.6320438811
 21
147.0606669788
 31
0.0
  0
ARC
  5
22D
100
AcDbEntity
  8
0
100
AcDbCircle
 62
7
  6
CONTINUOUS
 10
228.4146062383
 20
145.4803653605
 40
3.2000016464
100
AcDbArc
 50
150.4064421977
 51
180.0000003221
  0
LINE
  5
22E
100
AcDbEntity
  8
0
100
AcDbLine
 62
7
  6
CONTINUOUS
 10
225.2146045918
 20
145.4803653425
 11
225.2146045918
 21
144.1126005587
  0
LINE
  5
22F
100
AcDbEntity
  8
0
100
AcDbLine
 62
7
  6
CONTINUOUS
 10
225.2146045918
 20
144.1126005587
 11
225.4646045918
 21
144.1126005587
  0
LINE
  5
230
100
AcDbEntity
  8
0
100
AcDbLine
 62
7
  6
CONTINUOUS
 10
225.4646045918
 20
144.1126005587
 11
225.4646045918
 21
143.8618615273
  0
LINE
  5
231
100
AcDbEntity
  8
0
100
AcDbLine
 62
7
  6
CONTINUOUS
 10
225.4646045918
 20
143.8618615273
 11
225.2146045918
 21
143.8618615273
  0
LINE
  5
232
100
AcDbEntity
  8
0
100
AcDbLine
 62
7
  6
CONTINUOUS
 10
225.2146045918
 20
143.8618615273
 11
225.2146045918
 21
142.6935107384
  0
LINE
  5
233
100
AcDbEntity
  8
0
100
AcDbLine
 62
7
  6
CONTINUOUS
 10
225.2146045918
 20
142.6935107384
 11
225.4646045918
 21
142.6935107384
  0
LINE
  5
234
100
AcDbEntity
  8
0
100
AcDbLine
 62
7
  6
CONTINUOUS
 10
225.4646045918
 20
142.6935107384
 11
225.4646045918
 21
142.3758303825
  0
LINE
  5
235
100
AcDbEntity
  8
0
100
AcDbLine
 62
7
  6
CONTINUOUS
 10
225.4646045918
 20
142.3758303825
 11
225.2146045918
 21
142.3758303825
  0
LINE
  5
236
100
AcDbEntity
  8
0
100
AcDbLine
 62
7
  6
CONTINUOUS
 10
225.2146045918
 20
142.3758303825
 11
225.2146045918
 21
142.2803855843
  0
LINE
  5
237
100
AcDbEntity
  8
0
100
AcDbLine
 62
7
  6
CONTINUOUS
 10
225.2146045918
 20
142.2803855843
 11
225.4646045918
 21
142.2803855843
  0
LINE
  5
238
100
AcDbEntity
  8
0
100
AcDbLine
 62
7
  6
CONTINUOUS
 10
225.4646045918
 20
142.2803855843
 11
225.4646045918
 21
142.0569702929
  0
HATCH
  5
239
100
AcDbEntity
  8
0
100
AcDbHatch
 62
2
  6
CONTINUOUS
 10
0.0
 20
0.0
 30
0.0
210
0.0
220
0.0
230
1.0
  2
A
 70
0
 71
1
 91
1
 92
1
 93
30
 72
1
 10
225.4646045918
 20
142.0569702929
 11
225.2146045918
 21
142.0569702929
 72
1
 10
225.2146045918
 20
142.0569702929
 11
225.2146045918
 21
138.3996158165
 72
4
 94
3
 73
0
 74
0
 95
12
 96
8
 40
0.0
 40
0.0
 40
0.0
 40
0.0
 40
0.2
 40
0.4
 40
0.6
 40
0.8
 40
1.0
 40
1.0
 40
1.0
 40
1.0
 10
225.2146045918
 20
138.3996158165
 10
225.2162257991
 20
138.1218603683
 10
225.2926780766
 20
137.5918570741
 10
225.6390963333
 20
136.8438400146
 10
226.1809236751
 20
136.2314156117
 10
226.8811473635
 20
135.7964191563
 10
227.3978829046
 20
135.655945589
 10
227.6733704303
 20
135.6204865919
 72
1
 10
227.6733704303
 20
135.6204865919
 11
232.8974086069
 21
134.9790553582
 72
4
 94
3
 73
0
 74
0
 95
12
 96
8
 40
0.0
 40
0.0
 40
0.0
 40
0.0
 40
0.2
 40
0.4
 40
0.6
 40
0.8
 40
1.0
 40
1.0
 40
1.0
 40
1.0
 10
232.8974086069
 20
134.9790553582
 10
233.04499121
 20
134.9600594669
 10
233.3218138213
 20
134.8848057702
 10
233.6969336544
 20
134.6517719547
 10
233.9871983018
 20
134.3236874532
 10
234.1727795107
 20
133.9229640285
 10
234.2137360879
 20
133.6390336923
 10
234.2146045918
 20
133.4902361308
 72
1
 10
234.2146045918
 20
133.4902361308
 11
234.2146045918
 21
130.4363078802
 72
1
 10
234.2146045918
 20
130.4363078802
 11
206.2146045918
 21
130.4363078802
 72
1
 10
206.2146045918
 20
130.4363078802
 11
206.2146045918
 21
133.4902361308
 72
4
 94
3
 73
0
 74
0
 95
12
 96
8
 40
0.0
 40
0.0
 40
0.0
 40
0.0
 40
0.2
 40
0.4
 40
0.6
 40
0.8
 40
1.0
 40
1.0
 40
1.0
 40
1.0
 10
206.2146045918
 20
133.4902361308
 10
206.2154730957
 20
133.6390336923
 10
206.2564296729
 20
133.9229640285
 10
206.4420108819
 20
134.3236874532
 10
206.7322755293
 20
134.6517719547
 10
207.1073953623
 20
134.8848057702
 10
207.3842179737
 20
134.9600594669
 10
207.5318005767
 20
134.9790553582
 72
1
 10
207.5318005767
 20
134.9790553582
 11
212.7558387534
 21
135.6204865919
 72
4
 94
3
 73
0
 74
0
 95
12
 96
8
 40
0.0
 40
0.0
 40
0.0
 40
0.0
 40
0.2
 40
0.4
 40
0.6
 40
0.8
 40
1.0
 40
1.0
 40
1.0
 40
1.0
 10
212.7558387534
 20
135.6204865919
 10
213.0313262791
 20
135.655945589
 10
213.5480618202
 20
135.7964191563
 10
214.2482855085
 20
136.2314156117
 10
214.7901128504
 20
136.8438400146
 10
215.1365311071
 20
137.5918570741
 10
215.2129833846
 20
138.1218603683
 10
215.2146045918
 20
138.3996158165
 72
1
 10
215.2146045918
 20
138.3996158165
 11
215.2146045918
 21
145.480353925
 72
2
 10
212.0145996674
 20
145.4803540148
 40
3.2000049245
 50
359.9999983931
 51
29.5935592568
 73
1
 72
4
 94
3
 73
0
 74
0
 95
12
 96
8
 40
0.0
 40
0.0
 40
0.0
 40
0.0
 40
0.2
 40
0.4
 40
0.6
 40
0.8
 40
1.0
 40
1.0
 40
1.0
 40
1.0
 10
214.7971636525
 20
147.0606566511
 10
214.7495400828
 20
147.1461053935
 10
214.6870233388
 20
147.320808863
 10
214.6913751806
 20
147.6145671914
 10
214.7940466672
 20
147.879173135
 10
214.9891981872
 20
148.0990238881
 10
215.152960553
 20
148.1857040954
 10
215.2455897409
 20
148.2165766393
 72
1
 10
215.2455899049
 20
148.2165761348
 11
218.9785377859
 21
149.4294844264
 72
2
 10
220.2146051625
 20
145.6252604953
 40
3.9999973139
 50
72.0000003834
 51
108.00000126
 73
1
 72
1
 10
221.450672321
 20
149.4294841264
 11
225.1836245265
 21
148.2165744297
 72
4
 94
3
 73
0
 74
0
 95
12
 96
8
 40
0.0
 40
0.0
 40
0.0
 40
0.0
 40
0.2
 40
0.4
 40
0.6
 40
0.8
 40
1.0
 40
1.0
 40
1.0
 40
1.0
 10
225.1836263064
 20
148.2165799076
 10
225.2762540559
 20
148.1857078781
 10
225.4400139167
 20
148.0990287852
 10
225.6351625766
 20
147.8791804035
 10
225.7378327544
 20
147.6145762033
 10
225.7421840957
 20
147.320818682
 10
225.6796673509
 20
147.1461156027
 10
225.6320438811
 20
147.0606669788
 72
2
 10
228.4146062383
 20
145.4803653605
 40
3.2000016464
 50
150.4064421977
 51
180.0000003221
 73
1
 72
1
 10
225.2146045918
 20
145.4803653425
 11
225.2146045918
 21
144.1126005587
 72
1
 10
225.2146045918
 20
144.1126005587
 11
225.4646045918
 21
144.1126005587
 72
1
 10
225.4646045918
 20
144.1126005587
 11
225.4646045918
 21
143.8618615273
 72
1
 10
225.4646045918
 20
143.8618615273
 11
225.2146045918
 21
143.8618615273
 72
1
 10
225.2146045918
 20
143.8618615273
 11
225.2146045918
 21
142.6935107384
 72
1
 10
225.2146045918
 20
142.6935107384
 11
225.4646045918
 21
142.6935107384
 72
1
 10
225.4646045918
 20
142.6935107384
 11
225.4646045918
 21
142.3758303825
 72
1
 10
225.4646045918
 20
142.3758303825
 11
225.2146045918
 21
142.3758303825
 72
1
 10
225.2146045918
 20
142.3758303825
 11
225.2146045918
 21
142.2803855843
 72
1
 10
225.2146045918
 20
142.2803855843
 11
225.4646045918
 21
142.2803855843
 72
1
 10
225.4646045918
 20
142.2803855843
 11
225.4646045918
 21
142.0569702929
 97
30
330
21B
330
21C
330
21D
330
21E
330
21F
330
220
330
221
330
222
330
223
330
224
330
225
330
226
330
227
330
228
330
229
330
22A
330
22B
330
22C
330
22D
330
22E
330
22F
330
230
330
231
330
232
330
233
330
234
330
235
330
236
330
237
330
238
 75
0
 76
0
 52
45.0
 41
4.2308889296
 77
0
 78
1
 53
45.0
 43
0.0
 44
0.0
 45
-2.9916902525
 46
2.9916902525
 79
0
 98
1
 10
0.0
 20
0.0
  0
LINE
  5
23A
100
AcDbEntity
  8
0
100
AcDbLine
 62
7
  6
CONTINUOUS
 10
0.0
 20
0.0
 11
0.0
 21
210.0
  0
LINE
  5
23B
100
AcDbEntity
  8
0
100
AcDbLine
 62
7
  6
CONTINUOUS
 10
0.0
 20
0.0
 11
297.0
 21
0.0
  0
LINE
  5
23C
100
AcDbEntity
  8
0
100
AcDbLine
 62
7
  6
CONTINUOUS
 10
0.0
 20
210.0
 11
297.0
 21
210.0
  0
LINE
  5
23D
100
AcDbEntity
  8
0
100
AcDbLine
 62
7
  6
CONTINUOUS
 10
297.0
 20
0.0
 11
297.0
 21
210.0
  0
LINE
  5
23E
100
AcDbEntity
  8
RUNDUNGEN
100
AcDbLine
 62
7
  6
CONTINUOUS
 10
94.2050460617
 20
60.3394149377
 11
94.991000595
 21
60.3394149377
  0
LINE
  5
23F
100
AcDbEntity
  8
RUNDUNGEN
100
AcDbLine
 62
7
  6
CONTINUOUS
 10
102.5341110121
 20
60.3394149377
 11
103.3200655455
 21
60.3394149377
  0
LINE
  5
240
100
AcDbEntity
  8
RUNDUNGEN
100
AcDbLine
 62
7
  6
CONTINUOUS
 10
103.3200655455
 20
60.4545182032
 11
102.5341110121
 21
60.4545182032
  0
LINE
  5
241
100
AcDbEntity
  8
RUNDUNGEN
100
AcDbLine
 62
7
  6
CONTINUOUS
 10
94.991000595
 20
60.4545182032
 11
94.2050460617
 21
60.4545182032
  0
LINE
  5
242
100
AcDbEntity
  8
RUNDUNGEN
100
AcDbLine
 62
7
  6
CONTINUOUS
 10
70.4671901178
 20
69.1423163776
 11
71.1478467099
 21
68.7493391109
  0
LINE
  5
243
100
AcDbEntity
  8
RUNDUNGEN
100
AcDbLine
 62
7
  6
CONTINUOUS
 10
77.6803719547
 20
64.9777839023
 11
78.3610285468
 21
64.5848066356
  0
LINE
  5
244
100
AcDbEntity
  8
RUNDUNGEN
100
AcDbLine
 62
7
  6
CONTINUOUS
 10
78.4185801795
 20
64.6844889877
 11
77.7379235874
 21
65.0774662544
  0
LINE
  5
245
100
AcDbEntity
  8
RUNDUNGEN
100
AcDbLine
 62
7
  6
CONTINUOUS
 10
71.2053983427
 20
68.8490214629
 11
70.5247417506
 21
69.2419987296
  0
LINE
  5
246
100
AcDbEntity
  8
RUNDUNGEN
100
AcDbLine
 62
7
  6
CONTINUOUS
 10
54.311054559
 20
88.6347806234
 11
54.7040318257
 21
87.9541240313
  0
LINE
  5
247
100
AcDbEntity
  8
RUNDUNGEN
100
AcDbLine
 62
7
  6
CONTINUOUS
 10
58.4755870342
 20
81.4215987866
 11
58.8685643009
 21
80.7409421945
  0
LINE
  5
248
100
AcDbEntity
  8
RUNDUNGEN
100
AcDbLine
 62
7
  6
CONTINUOUS
 10
58.9682466529
 20
80.7984938272
 11
58.5752693862
 21
81.4791504194
  0
LINE
  5
249
100
AcDbEntity
  8
RUNDUNGEN
100
AcDbLine
 62
7
  6
CONTINUOUS
 10
54.8037141777
 20
88.0116756641
 11
54.410736911
 21
88.6923322562
  0
LINE
  5
24A
100
AcDbEntity
  8
RUNDUNGEN
100
AcDbLine
 62
7
  6
CONTINUOUS
 10
50.065662861
 20
113.5938176222
 11
50.065662861
 21
112.8078630888
  0
LINE
  5
24B
100
AcDbEntity
  8
RUNDUNGEN
100
AcDbLine
 62
7
  6
CONTINUOUS
 10
50.065662861
 20
105.2647526717
 11
50.065662861
 21
104.4787981383
  0
LINE
  5
24C
100
AcDbEntity
  8
RUNDUNGEN
100
AcDbLine
 62
7
  6
CONTINUOUS
 10
50.1807661265
 20
104.4787981383
 11
50.1807661265
 21
105.2647526717
  0
LINE
  5
24D
100
AcDbEntity
  8
RUNDUNGEN
100
AcDbLine
 62
7
  6
CONTINUOUS
 10
50.1807661265
 20
112.8078630888
 11
50.1807661265
 21
113.5938176222
  0
LINE
  5
24E
100
AcDbEntity
  8
RUNDUNGEN
100
AcDbLine
 62
7
  6
CONTINUOUS
 10
136.7144529267
 20
80.2369205407
 11
133.7468463898
 21
79.6913602791
  0
LINE
  5
24F
100
AcDbEntity
  8
RUNDUNGEN
100
AcDbLine
 62
7
  6
CONTINUOUS
 10
63.7782744833
 20
79.6913585757
 11
60.8106622606
 21
80.2369198825
  0
LINE
  5
250
100
AcDbEntity
  8
RUNDUNGEN
100
AcDbLine
 62
7
  6
CONTINUOUS
 10
58.8685643009
 20
137.331673566
 11
58.4755870342
 21
136.6510169739
  0
LINE
  5
251
100
AcDbEntity
  8
RUNDUNGEN
100
AcDbLine
 62
7
  6
CONTINUOUS
 10
54.7040318257
 20
130.1184917292
 11
54.311054559
 21
129.437835137
  0
LINE
  5
252
100
AcDbEntity
  8
RUNDUNGEN
100
AcDbLine
 62
7
  6
CONTINUOUS
 10
54.410736911
 20
129.3802835043
 11
54.8037141777
 21
130.0609400964
  0
LINE
  5
253
100
AcDbEntity
  8
RUNDUNGEN
100
AcDbLine
 62
7
  6
CONTINUOUS
 10
58.5752693862
 20
136.5934653411
 11
58.9682466529
 21
137.2741219332
  0
LINE
  5
254
100
AcDbEntity
  8
RUNDUNGEN
100
AcDbLine
 62
7
  6
CONTINUOUS
 10
136.7045607565
 20
80.2346523092
 11
136.8966091289
 21
80.2607401803
  0
LWPOLYLINE
  5
255
100
AcDbEntity
  8
RUNDUNGEN
100
AcDbPolyline
 62
7
  6
CONTINUOUS
 90
3
 70
0
 10
136.8966091289
 20
80.2607401803
 10
137.1448036979
 20
80.2771310836
 10
137.393374489
 20
80.2742408308
  0
LINE
  5
256
100
AcDbEntity
  8
RUNDUNGEN
100
AcDbLine
 62
7
  6
CONTINUOUS
 10
60.6077707709
 20
80.262852322
 11
60.8203877046
 21
80.234679496
  0
LINE
  5
257
100
AcDbEntity
  8
RUNDUNGEN
100
AcDbLine
 62
7
  6
CONTINUOUS
 10
117.2301691642
 20
65.1193582692
 11
114.3873663841
 21
66.1306924918
  0
LINE
  5
258
100
AcDbEntity
  8
RUNDUNGEN
100
AcDbLine
 62
7
  6
CONTINUOUS
 10
117.2204681778
 20
65.1223400082
 11
117.3998308826
 21
65.0489085812
  0
LINE
  5
259
100
AcDbEntity
  8
RUNDUNGEN
100
AcDbLine
 62
7
  6
CONTINUOUS
 10
117.3998308826
 20
65.0489085812
 11
117.6229691361
 21
64.9390062352
  0
LINE
  5
25A
100
AcDbEntity
  8
RUNDUNGEN
100
AcDbLine
 62
7
  6
CONTINUOUS
 10
51.3328149102
 20
103.1951569284
 11
51.502860163
 21
103.0644500786
  0
LINE
  5
25B
100
AcDbEntity
  8
RUNDUNGEN
100
AcDbLine
 62
7
  6
CONTINUOUS
 10
53.7928047948
 20
101.1149769698
 11
51.4955580505
 21
103.0712528826
  0
LINE
  5
25C
100
AcDbEntity
  8
RUNDUNGEN
100
AcDbLine
 62
7
  6
CONTINUOUS
 10
92.7975033157
 20
61.76930718
 11
90.8412310014
 21
64.0665496986
  0
LINE
  5
25D
100
AcDbEntity
  8
0
100
AcDbLine
 62
7
  6
CONTINUOUS
 10
64.2098337564
 20
105.8194703931
 11
64.2462311958
 21
105.3822882174
  0
LINE
  5
25E
100
AcDbEntity
  8
RUNDUNGEN
100
AcDbLine
 62
7
  6
CONTINUOUS
 10
78.3610285468
 20
153.4878091248
 11
77.6803719547
 21
153.0948318582
  0
LINE
  5
25F
100
AcDbEntity
  8
RUNDUNGEN
100
AcDbLine
 62
7
  6
CONTINUOUS
 10
71.1478467099
 20
149.3232766496
 11
70.4671901178
 21
148.9302993829
  0
LINE
  5
260
100
AcDbEntity
  8
RUNDUNGEN
100
AcDbLine
 62
7
  6
CONTINUOUS
 10
70.5247417506
 20
148.8306170309
 11
71.2053983427
 21
149.2235942976
  0
LINE
  5
261
100
AcDbEntity
  8
RUNDUNGEN
100
AcDbLine
 62
7
  6
CONTINUOUS
 10
77.7379235874
 20
152.9951495061
 11
78.4185801795
 21
153.3881267728
  0
LINE
  5
262
100
AcDbEntity
  8
RUNDUNGEN
100
AcDbLine
 62
7
  6
CONTINUOUS
 10
59.8673327639
 20
80.2498826322
 11
60.1108643113
 21
80.2731198195
  0
LWPOLYLINE
  5
263
100
AcDbEntity
  8
RUNDUNGEN
100
AcDbPolyline
 62
7
  6
CONTINUOUS
 90
3
 70
0
 10
60.1108643113
 20
80.2731198195
 10
60.3594385367
 20
80.277629307
 10
60.6077707709
 20
80.262852322
  0
LINE
  5
264
100
AcDbEntity
  8
RUNDUNGEN
100
AcDbLine
 62
7
  6
CONTINUOUS
 10
137.393374489
 20
80.2742408308
 11
137.6577788335
 21
80.2498826323
  0
LINE
  5
265
100
AcDbEntity
  8
RUNDUNGEN
100
AcDbLine
 62
7
  6
CONTINUOUS
 10
117.6229691361
 20
64.9390062352
 11
117.8367926294
 21
64.8122178074
  0
LINE
  5
266
100
AcDbEntity
  8
RUNDUNGEN
100
AcDbLine
 62
7
  6
CONTINUOUS
 10
51.1251413794
 20
103.33212029
 11
51.3328149102
 21
103.1951569284
  0
LINE
  5
267
100
AcDbEntity
  8
RUNDUNGEN
100
AcDbLine
 62
7
  6
CONTINUOUS
 10
92.7905928845
 20
61.776739935
 11
92.9092098298
 21
61.6234651013
  0
LINE
  5
268
100
AcDbEntity
  8
RUNDUNGEN
100
AcDbLine
 62
7
  6
CONTINUOUS
 10
92.9092098298
 20
61.6234651013
 11
93.0475020529
 21
61.4167177511
  0
LINE
  5
269
100
AcDbEntity
  8
RUNDUNGEN
100
AcDbLine
 62
7
  6
CONTINUOUS
 10
54.6552509465
 20
127.9150437311
 11
54.7666198192
 21
127.6925932152
  0
LINE
  5
26A
100
AcDbEntity
  8
RUNDUNGEN
100
AcDbLine
 62
7
  6
CONTINUOUS
 10
54.7666198192
 20
127.6925932152
 11
54.8485299032
 21
127.4943751357
  0
LINE
  5
26B
100
AcDbEntity
  8
RUNDUNGEN
100
AcDbLine
 62
7
  6
CONTINUOUS
 10
55.8569435729
 20
124.6611095844
 11
54.8456074898
 21
127.5039175945
  0
LINE
  5
26C
100
AcDbEntity
  8
0
100
AcDbLine
 62
7
  6
CONTINUOUS
 10
64.6150358695
 20
98.9024830606
 11
64.6605364067
 21
98.7530550989
  0
LINE
  5
26D
100
AcDbEntity
  8
0
100
AcDbLine
 62
7
  6
CONTINUOUS
 10
65.3662566221
 20
98.6031650645
 11
65.2191059966
 21
99.0864212939
  0
LINE
  5
26E
100
AcDbEntity
  8
0
100
AcDbLine
 62
7
  6
CONTINUOUS
 10
65.4933221283
 20
99.1699195973
 11
65.6404727538
 21
98.6866633679
  0
LINE
  5
26F
100
AcDbEntity
  8
0
100
AcDbLine
 62
7
  6
CONTINUOUS
 10
67.5838303834
 20
99.2784121614
 11
67.4366797579
 21
99.7616683909
  0
LINE
  5
270
100
AcDbEntity
  8
0
100
AcDbLine
 62
7
  6
CONTINUOUS
 10
65.8568222848
 20
100.8000503337
 11
66.0072669838
 21
100.2210572059
  0
LINE
  5
271
100
AcDbEntity
  8
0
100
AcDbLine
 62
7
  6
CONTINUOUS
 10
66.4245928586
 20
100.3329283312
 11
66.1613146187
 21
101.3461663696
  0
LINE
  5
272
100
AcDbEntity
  8
0
100
AcDbLine
 62
7
  6
CONTINUOUS
 10
64.5874994569
 20
102.9741941404
 11
64.6734157288
 21
102.5439954027
  0
LINE
  5
273
100
AcDbEntity
  8
RUNDUNGEN
100
AcDbLine
 62
7
  6
CONTINUOUS
 10
69.963168464
 20
71.0844107571
 11
69.4176082024
 21
74.052017294
  0
LINE
  5
274
100
AcDbEntity
  8
0
100
AcDbLine
 62
7
  6
CONTINUOUS
 10
63.5292523769
 20
103.8054520516
 11
63.6069789318
 21
103.3063045756
  0
LINE
  5
275
100
AcDbEntity
  8
0
100
AcDbLine
 62
7
  6
CONTINUOUS
 10
63.3971520637
 20
104.7894571052
 11
63.4168750041
 21
104.634505569
  0
LINE
  5
276
100
AcDbEntity
  8
0
100
AcDbLine
 62
7
  6
CONTINUOUS
 10
64.0873369523
 20
104.3680677707
 11
64.0235520562
 21
104.8691881621
  0
LINE
  5
277
100
AcDbEntity
  8
0
100
AcDbLine
 62
7
  6
CONTINUOUS
 10
64.3079047749
 20
104.905381877
 11
64.3716896709
 21
104.4042614856
  0
LINE
  5
278
100
AcDbEntity
  8
0
100
AcDbLine
 62
7
  6
CONTINUOUS
 10
66.2695783298
 20
105.5640809846
 11
66.2276661336
 21
106.0675028032
  0
LINE
  5
279
100
AcDbEntity
  8
0
100
AcDbLine
 62
7
  6
CONTINUOUS
 10
66.1545955613
 20
106.9451786045
 11
66.1416359271
 21
107.1008412332
  0
LWPOLYLINE
  5
27A
100
AcDbEntity
  8
RUNDUNGEN
100
AcDbPolyline
 62
7
  6
CONTINUOUS
 90
3
 70
0
 10
69.9869881037
 20
70.902254555
 10
70.0033790069
 20
70.654059986
 10
70.0004887541
 20
70.4054891948
  0
LINE
  5
27B
100
AcDbEntity
  8
0
100
AcDbLine
 62
7
  6
CONTINUOUS
 10
64.0531436903
 20
109.0101402324
 11
64.0634283214
 21
108.5715655828
  0
LINE
  5
27C
100
AcDbEntity
  8
0
100
AcDbLine
 62
7
  6
CONTINUOUS
 10
64.0974201976
 20
110.6599035192
 11
64.0714813398
 21
110.2219768868
  0
LINE
  5
27D
100
AcDbEntity
  8
0
100
AcDbLine
 62
7
  6
CONTINUOUS
 10
66.941913326
 20
110.4148486149
 11
66.9511490999
 21
110.5707765039
  0
LINE
  5
27E
100
AcDbEntity
  8
0
100
AcDbLine
 62
7
  6
CONTINUOUS
 10
64.2600665729
 20
112.7386466551
 11
64.2130647149
 21
112.3091636282
  0
LINE
  5
27F
100
AcDbEntity
  8
0
100
AcDbLine
 62
7
  6
CONTINUOUS
 10
66.2335464656
 20
112.0980750145
 11
66.2885024841
 21
112.6002397843
  0
LINE
  5
280
100
AcDbEntity
  8
RUNDUNGEN
100
AcDbLine
 62
7
  6
CONTINUOUS
 10
69.9891002453
 20
147.1910929127
 11
69.9609274191
 21
146.9784759783
  0
LINE
  5
281
100
AcDbEntity
  8
RUNDUNGEN
100
AcDbLine
 62
7
  6
CONTINUOUS
 10
69.417606499
 20
144.0205892005
 11
69.9631678061
 21
146.9882014244
  0
LINE
  5
282
100
AcDbEntity
  8
0
100
AcDbLine
 62
7
  6
CONTINUOUS
 10
63.8963644294
 20
116.3230233349
 11
63.7965317088
 21
115.8278233269
  0
LINE
  5
283
100
AcDbEntity
  8
0
100
AcDbLine
 62
7
  6
CONTINUOUS
 10
66.7568781416
 20
115.5869976741
 11
66.7877473641
 21
115.7401182057
  0
LINE
  5
284
100
AcDbEntity
  8
0
100
AcDbLine
 62
7
  6
CONTINUOUS
 10
64.1129937895
 20
117.2919347667
 11
64.0778689957
 21
117.1397340605
  0
LINE
  5
285
100
AcDbEntity
  8
0
100
AcDbLine
 62
7
  6
CONTINUOUS
 10
64.6146800403
 20
116.6577151533
 11
64.7282755063
 21
117.1499403967
  0
LINE
  5
286
100
AcDbEntity
  8
0
100
AcDbLine
 62
7
  6
CONTINUOUS
 10
65.0075811112
 20
117.0854824056
 11
64.8939856452
 21
116.5932571623
  0
LINE
  5
287
100
AcDbEntity
  8
0
100
AcDbLine
 62
7
  6
CONTINUOUS
 10
66.8734121472
 20
116.1364462227
 11
66.9870076132
 21
116.6286714661
  0
LINE
  5
288
100
AcDbEntity
  8
0
100
AcDbLine
 62
7
  6
CONTINUOUS
 10
65.2319378967
 20
117.977018589
 11
65.1147767224
 21
117.554258824
  0
LINE
  5
289
100
AcDbEntity
  8
0
100
AcDbLine
 62
7
  6
CONTINUOUS
 10
64.9827036234
 20
120.3370647623
 11
64.8181517191
 21
119.8594537377
  0
LINE
  5
28A
100
AcDbEntity
  8
0
100
AcDbLine
 62
7
  6
CONTINUOUS
 10
66.1960735598
 20
121.0403586242
 11
65.9979619016
 21
120.4653405929
  0
LINE
  5
28B
100
AcDbEntity
  8
RUNDUNGEN
100
AcDbLine
 62
7
  6
CONTINUOUS
 10
54.8456061925
 20
90.5686945196
 11
55.8569404151
 21
93.4114972997
  0
LINE
  5
28C
100
AcDbEntity
  8
RUNDUNGEN
100
AcDbLine
 62
7
  6
CONTINUOUS
 10
60.5250584397
 20
80.4872885394
 11
59.8952957708
 21
80.3708638328
  0
LINE
  5
28D
100
AcDbEntity
  8
0
100
AcDbLine
 62
7
  6
CONTINUOUS
 10
88.6625558036
 20
87.6363078802
 11
108.8625558036
 21
87.6363078802
  0
LINE
  5
28E
100
AcDbEntity
  8
0
100
AcDbLine
 62
7
  6
CONTINUOUS
 10
79.9285812074
 20
88.8363078802
 11
87.4625558036
 21
88.8363078802
  0
LINE
  5
28F
100
AcDbEntity
  8
0
100
AcDbLine
 62
7
  6
CONTINUOUS
 10
110.0625558036
 20
88.8363078802
 11
117.5965303998
 21
88.8363078802
  0
LWPOLYLINE
  5
290
100
AcDbEntity
  8
RUNDUNGEN
100
AcDbPolyline
 62
7
  6
CONTINUOUS
 90
3
 70
0
 10
62.2440129653
 20
85.2983759754
 10
62.1213401035
 20
85.3006456667
 10
61.8366149647
 20
85.2813694683
  0
LINE
  5
291
100
AcDbEntity
  8
RUNDUNGEN
100
AcDbLine
 62
7
  6
CONTINUOUS
 10
137.6298158363
 20
80.3708638328
 11
137.0000531674
 21
80.4872885394
  0
LINE
  5
292
100
AcDbEntity
  8
RUNDUNGEN
100
AcDbLine
 62
7
  6
CONTINUOUS
 10
51.3734020389
 20
103.4308805599
 11
50.769799216
 21
103.6449351407
  0
LWPOLYLINE
  5
293
100
AcDbEntity
  8
RUNDUNGEN
100
AcDbPolyline
 62
7
  6
CONTINUOUS
 90
3
 70
0
 10
50.6850919413
 20
103.5541438511
 10
50.9076150416
 20
103.4525020719
 10
51.1251413794
 20
103.33212029
  0
LWPOLYLINE
  5
294
100
AcDbEntity
  8
RUNDUNGEN
100
AcDbPolyline
 62
7
  6
CONTINUOUS
 90
3
 70
0
 10
55.2683874648
 20
106.737427421
 10
55.1622348427
 20
106.8013795092
 10
54.9063274351
 20
106.9268767023
  0
LINE
  5
295
100
AcDbEntity
  8
RUNDUNGEN
100
AcDbLine
 62
7
  6
CONTINUOUS
 10
117.8367926294
 20
64.8122178074
 11
118.0535944094
 21
64.6589208164
  0
LINE
  5
296
100
AcDbEntity
  8
RUNDUNGEN
100
AcDbLine
 62
7
  6
CONTINUOUS
 10
54.3851687348
 20
128.3273464945
 11
54.527058503
 21
128.1280605814
  0
LINE
  5
297
100
AcDbEntity
  8
RUNDUNGEN
100
AcDbLine
 62
7
  6
CONTINUOUS
 10
54.527058503
 20
128.1280605814
 11
54.6552509465
 21
127.9150437311
  0
LINE
  5
298
100
AcDbEntity
  8
RUNDUNGEN
100
AcDbLine
 62
7
  6
CONTINUOUS
 10
93.0475020529
 20
61.4167177511
 11
93.1692844161
 21
61.2000040049
  0
LINE
  5
299
100
AcDbEntity
  8
0
100
AcDbLine
 62
7
  6
CONTINUOUS
 10
66.4677177288
 20
104.1049416394
 11
66.4436838599
 21
104.2592832931
  0
LINE
  5
29A
100
AcDbEntity
  8
RUNDUNGEN
100
AcDbLine
 62
7
  6
CONTINUOUS
 10
69.960900232
 20
71.0943029306
 11
69.9869881037
 21
70.902254555
  0
LINE
  5
29B
100
AcDbEntity
  8
0
100
AcDbLine
 62
7
  6
CONTINUOUS
 10
66.3868848446
 20
104.660764747
 11
66.3230999485
 21
105.1618851384
  0
LINE
  5
29C
100
AcDbEntity
  8
RUNDUNGEN
100
AcDbLine
 62
7
  6
CONTINUOUS
 10
69.9761305555
 20
147.9315309199
 11
69.9993677428
 21
147.6879993725
  0
LWPOLYLINE
  5
29D
100
AcDbEntity
  8
RUNDUNGEN
100
AcDbPolyline
 62
7
  6
CONTINUOUS
 90
3
 70
0
 10
69.9993677428
 20
147.6879993725
 10
70.0038772303
 20
147.439425147
 10
69.9891002453
 20
147.1910929127
  0
LINE
  5
29E
100
AcDbEntity
  8
0
100
AcDbLine
 62
7
  6
CONTINUOUS
 10
67.0759939836
 20
117.0245333389
 11
67.210906851
 21
117.5113476138
  0
LINE
  5
29F
100
AcDbEntity
  8
0
100
AcDbLine
 62
7
  6
CONTINUOUS
 10
67.4461169269
 20
118.3600703841
 11
67.4878338335
 21
118.5106000262
  0
LINE
  5
2A0
100
AcDbEntity
  8
0
100
AcDbLine
 62
7
  6
CONTINUOUS
 10
67.6068357732
 20
118.8986650455
 11
67.7713876775
 21
119.3762760702
  0
LINE
  5
2A1
100
AcDbEntity
  8
0
100
AcDbLine
 62
7
  6
CONTINUOUS
 10
68.0712620456
 20
120.2466598239
 11
68.1437953148
 21
120.4571872509
  0
LINE
  5
2A2
100
AcDbEntity
  8
RUNDUNGEN
100
AcDbLine
 62
7
  6
CONTINUOUS
 10
54.8485879327
 20
90.5783955091
 11
54.7751565045
 21
90.3990328013
  0
LINE
  5
2A3
100
AcDbEntity
  8
RUNDUNGEN
100
AcDbLine
 62
7
  6
CONTINUOUS
 10
54.7751565045
 20
90.3990328013
 11
54.6652541586
 21
90.1758945478
  0
LINE
  5
2A4
100
AcDbEntity
  8
RUNDUNGEN
100
AcDbLine
 62
7
  6
CONTINUOUS
 10
93.0583682135
 20
156.6737223047
 11
92.921404852
 21
156.4660487739
  0
LINE
  5
2A5
100
AcDbEntity
  8
RUNDUNGEN
100
AcDbLine
 62
7
  6
CONTINUOUS
 10
92.921404852
 20
156.4660487739
 11
92.7906980037
 21
156.2960035229
  0
LINE
  5
2A6
100
AcDbEntity
  8
RUNDUNGEN
100
AcDbLine
 62
7
  6
CONTINUOUS
 10
90.8412248932
 20
154.006058889
 11
92.7975008053
 21
156.3033056326
  0
LINE
  5
2A7
100
AcDbEntity
  8
RUNDUNGEN
100
AcDbLine
 62
7
  6
CONTINUOUS
 10
51.4955551034
 20
115.0013603682
 11
53.7927976219
 21
116.9576326824
  0
LINE
  5
2A8
100
AcDbEntity
  8
RUNDUNGEN
100
AcDbLine
 62
7
  6
CONTINUOUS
 10
51.5029878609
 20
115.0082708015
 11
51.3497130247
 21
114.8896538541
  0
LINE
  5
2A9
100
AcDbEntity
  8
0
100
AcDbLine
 62
7
  6
CONTINUOUS
 10
89.8635276884
 20
143.0093217057
 11
89.7052891077
 21
142.9222473877
  0
LINE
  5
2AA
100
AcDbEntity
  8
RUNDUNGEN
100
AcDbLine
 62
7
  6
CONTINUOUS
 10
114.3873575077
 20
151.9419201109
 11
117.2301655165
 21
152.9532561936
  0
LWPOLYLINE
  5
2AB
100
AcDbEntity
  8
RUNDUNGEN
100
AcDbPolyline
 62
7
  6
CONTINUOUS
 90
3
 70
0
 10
62.1532255757
 20
85.4293119618
 10
61.8499811928
 20
85.362482129
 10
61.8051663004
 20
85.3563235816
  0
LWPOLYLINE
  5
2AC
100
AcDbEntity
  8
RUNDUNGEN
100
AcDbPolyline
 62
7
  6
CONTINUOUS
 90
3
 70
0
 10
61.466931409
 20
85.3133855444
 10
61.4297246096
 20
85.3072266604
 10
61.3506383571
 20
85.2841203292
  0
LINE
  5
2AD
100
AcDbEntity
  8
RUNDUNGEN
100
AcDbLine
 62
7
  6
CONTINUOUS
 10
61.8051638211
 20
85.3563431025
 11
61.466931355
 21
85.3133859693
  0
LINE
  5
2AE
100
AcDbEntity
  8
RUNDUNGEN
100
AcDbLine
 62
7
  6
CONTINUOUS
 10
135.8235462576
 20
89.819253776
 11
136.1914055194
 21
89.7819695448
  0
LINE
  5
2AF
100
AcDbEntity
  8
RUNDUNGEN
100
AcDbLine
 62
7
  6
CONTINUOUS
 10
136.0581802521
 20
85.3133859693
 11
135.7199478005
 21
85.3563431007
  0
LINE
  5
2B0
100
AcDbEntity
  8
RUNDUNGEN
100
AcDbLine
 62
7
  6
CONTINUOUS
 10
136.1116485175
 20
85.3036169818
 11
136.0581802146
 21
85.3133856743
  0
LWPOLYLINE
  5
2B1
100
AcDbEntity
  8
RUNDUNGEN
100
AcDbPolyline
 62
7
  6
CONTINUOUS
 90
21
 70
0
 10
135.7199480092
 20
85.3563447507
 10
135.41329942
 20
85.4175898708
 10
135.0855160987
 20
85.5349980608
 10
134.7532106265
 20
85.7152462498
 10
134.4447362957
 20
85.9482184811
 10
134.1721710908
 20
86.2240216748
 10
133.9517956653
 20
86.5213538694
 10
133.7832538754
 20
86.8341906542
 10
133.6680360235
 20
87.1576463267
 10
133.6094759187
 20
87.4750369609
 10
133.6059761907
 20
87.7821807317
 10
133.6569373444
 20
88.0985646254
 10
133.7617464495
 20
88.4276828081
 10
133.9070190339
 20
88.7302995914
 10
134.0927748554
 20
89.0086819886
 10
134.3222325923
 20
89.2663087209
 10
134.5678836209
 20
89.4717762194
 10
134.8334866765
 20
89.6259558981
 10
135.1348383029
 20
89.7378234227
 10
135.4699117167
 20
89.8039989057
 10
135.8235462576
 20
89.819253776
  0
LINE
  5
2B2
100
AcDbEntity
  8
RUNDUNGEN
100
AcDbLine
 62
7
  6
CONTINUOUS
 10
55.2544358966
 20
106.8967177196
 11
54.9584026878
 21
106.9904657616
  0
LWPOLYLINE
  5
2B3
100
AcDbEntity
  8
RUNDUNGEN
100
AcDbPolyline
 62
7
  6
CONTINUOUS
 90
3
 70
0
 10
54.6021364599
 20
107.1394666827
 10
54.5668349845
 20
107.1527363324
 10
54.4867911151
 20
107.1722687888
  0
LINE
  5
2B4
100
AcDbEntity
  8
RUNDUNGEN
100
AcDbLine
 62
7
  6
CONTINUOUS
 10
54.9584026878
 20
106.9904657616
 11
54.916525477
 21
107.0075346443
  0
LINE
  5
2B5
100
AcDbEntity
  8
RUNDUNGEN
100
AcDbLine
 62
7
  6
CONTINUOUS
 10
54.9165331003
 20
107.0075528132
 11
54.6021366257
 21
107.1394670776
  0
LINE
  5
2B6
100
AcDbEntity
  8
RUNDUNGEN
100
AcDbLine
 62
7
  6
CONTINUOUS
 10
119.2000530705
 20
69.8438426291
 11
118.9286137308
 21
70.0501608295
  0
LINE
  5
2B7
100
AcDbEntity
  8
RUNDUNGEN
100
AcDbLine
 62
7
  6
CONTINUOUS
 10
118.0898683437
 20
64.777675108
 11
117.6026902274
 21
65.193383196
  0
LINE
  5
2B8
100
AcDbEntity
  8
0
100
AcDbLine
 62
7
  6
CONTINUOUS
 10
77.3625558036
 20
98.9363078802
 11
78.5625558036
 21
97.7363078802
  0
LINE
  5
2B9
100
AcDbEntity
  8
0
100
AcDbLine
 62
7
  6
CONTINUOUS
 10
87.4625558036
 20
88.8363078802
 11
88.6625558036
 21
87.6363078802
  0
LINE
  5
2BA
100
AcDbEntity
  8
RUNDUNGEN
100
AcDbLine
 62
7
  6
CONTINUOUS
 10
54.9196311194
 20
127.8764423041
 11
54.5039230313
 21
128.3636204203
  0
LINE
  5
2BB
100
AcDbEntity
  8
RUNDUNGEN
100
AcDbLine
 62
7
  6
CONTINUOUS
 10
59.7764087541
 20
129.2023658058
 11
59.5700905524
 21
129.4738051472
  0
LINE
  5
2BC
100
AcDbEntity
  8
0
100
AcDbLine
 62
7
  6
CONTINUOUS
 10
66.7843119265
 20
120.2225397456
 11
66.1960735598
 21
121.0403586242
  0
LWPOLYLINE
  5
2BD
100
AcDbEntity
  8
RUNDUNGEN
100
AcDbPolyline
 62
7
  6
CONTINUOUS
 90
3
 70
0
 10
59.9460608761
 20
128.7925031717
 10
59.8861060528
 20
128.9009636157
 10
59.7272323334
 20
129.1376010769
  0
LINE
  5
2BE
100
AcDbEntity
  8
RUNDUNGEN
100
AcDbLine
 62
7
  6
CONTINUOUS
 10
93.1692844161
 20
61.2000040049
 11
93.2803917697
 21
60.9588440265
  0
LINE
  5
2BF
100
AcDbEntity
  8
0
100
AcDbLine
 62
7
  6
CONTINUOUS
 10
77.3625558036
 20
119.1363078802
 11
77.3625558036
 21
98.9363078802
  0
LINE
  5
2C0
100
AcDbEntity
  8
0
100
AcDbLine
 62
7
  6
CONTINUOUS
 10
78.5625558036
 20
127.8702824765
 11
78.5625558036
 21
120.3363078802
  0
LINE
  5
2C1
100
AcDbEntity
  8
0
100
AcDbLine
 62
7
  6
CONTINUOUS
 10
78.5625558036
 20
97.7363078802
 11
78.5625558036
 21
90.202333284
  0
LWPOLYLINE
  5
2C2
100
AcDbEntity
  8
RUNDUNGEN
100
AcDbPolyline
 62
7
  6
CONTINUOUS
 90
3
 70
0
 10
75.0245827563
 20
145.5539223485
 10
75.0268905782
 20
145.67782926
 10
75.0076206317
 20
145.9622001725
  0
LINE
  5
2C3
100
AcDbEntity
  8
RUNDUNGEN
100
AcDbLine
 62
7
  6
CONTINUOUS
 10
70.0004887541
 20
70.4054891948
 11
69.9761305556
 21
70.1410848503
  0
LWPOLYLINE
  5
2C4
100
AcDbEntity
  8
RUNDUNGEN
100
AcDbPolyline
 62
7
  6
CONTINUOUS
 90
3
 70
0
 10
93.2803917745
 20
157.1137717425
 10
93.1787499953
 20
156.8912486424
 10
93.0583682135
 20
156.6737223047
  0
LINE
  5
2C5
100
AcDbEntity
  8
RUNDUNGEN
100
AcDbLine
 62
7
  6
CONTINUOUS
 10
54.6652541586
 20
90.1758945478
 11
54.5384657307
 21
89.9620710544
  0
LINE
  5
2C6
100
AcDbEntity
  8
0
100
AcDbLine
 62
7
  6
CONTINUOUS
 10
89.7100740661
 20
142.5542778965
 11
89.8147689753
 21
142.6736556943
  0
LINE
  5
2C7
100
AcDbEntity
  8
0
100
AcDbLine
 62
7
  6
CONTINUOUS
 10
90.8392764455
 20
141.5079352185
 11
90.7345815744
 21
141.3885573982
  0
LINE
  5
2C8
100
AcDbEntity
  8
0
100
AcDbLine
 62
7
  6
CONTINUOUS
 10
92.6182565945
 20
143.2523551906
 11
92.7327592318
 21
143.3623607379
  0
LINE
  5
2C9
100
AcDbEntity
  8
0
100
AcDbLine
 62
7
  6
CONTINUOUS
 10
93.5395213616
 20
142.0034391857
 11
93.4250187242
 21
141.8934336384
  0
LINE
  5
2CA
100
AcDbEntity
  8
0
100
AcDbLine
 62
7
  6
CONTINUOUS
 10
89.7052891077
 20
142.9222473877
 11
89.5582377904
 21
142.7919154332
  0
LINE
  5
2CB
100
AcDbEntity
  8
0
100
AcDbLine
 62
7
  6
CONTINUOUS
 10
90.8440613883
 20
141.1399656626
 11
90.9911126723
 21
141.2702976206
  0
LINE
  5
2CC
100
AcDbEntity
  8
0
100
AcDbLine
 62
7
  6
CONTINUOUS
 10
92.6523521912
 20
143.5753354477
 11
92.4590298732
 21
143.4066777792
  0
LINE
  5
2CD
100
AcDbEntity
  8
0
100
AcDbLine
 62
7
  6
CONTINUOUS
 10
93.5054255226
 20
141.6804588598
 11
93.6987480854
 21
141.8491165816
  0
LINE
  5
2CE
100
AcDbEntity
  8
RUNDUNGEN
100
AcDbLine
 62
7
  6
CONTINUOUS
 10
51.3497130247
 20
114.8896538541
 11
51.1429656744
 21
114.751361631
  0
LINE
  5
2CF
100
AcDbEntity
  8
0
100
AcDbLine
 62
7
  6
CONTINUOUS
 10
98.6705136761
 20
143.8005242682
 11
98.8026452102
 21
143.8885772756
  0
LINE
  5
2D0
100
AcDbEntity
  8
0
100
AcDbLine
 62
7
  6
CONTINUOUS
 10
89.8147689753
 20
142.6736556943
 11
89.9306510874
 21
142.7497758399
  0
LINE
  5
2D1
100
AcDbEntity
  8
0
100
AcDbLine
 62
7
  6
CONTINUOUS
 10
90.7345815744
 20
141.3885573982
 11
90.5763429937
 21
141.3014830803
  0
LINE
  5
2D2
100
AcDbEntity
  8
RUNDUNGEN
100
AcDbLine
 62
7
  6
CONTINUOUS
 10
117.6412916547
 20
153.1436127374
 11
117.4188411389
 21
153.0322438648
  0
LINE
  5
2D3
100
AcDbEntity
  8
0
100
AcDbLine
 62
7
  6
CONTINUOUS
 10
98.7611170734
 20
144.112405234
 11
98.5852383671
 21
144.0247869773
  0
LINE
  5
2D4
100
AcDbEntity
  8
0
100
AcDbLine
 62
7
  6
CONTINUOUS
 10
90.6434664006
 20
141.0419371842
 11
90.8440613883
 21
141.1399656626
  0
LINE
  5
2D5
100
AcDbEntity
  8
RUNDUNGEN
100
AcDbLine
 62
7
  6
CONTINUOUS
 10
117.4188411389
 20
153.0322438648
 11
117.2206230615
 21
152.9503337815
  0
LINE
  5
2D6
100
AcDbEntity
  8
0
100
AcDbLine
 62
7
  6
CONTINUOUS
 10
92.7327592318
 20
143.3623607379
 11
92.9409895778
 21
143.4429090277
  0
LINE
  5
2D7
100
AcDbEntity
  8
0
100
AcDbLine
 62
7
  6
CONTINUOUS
 10
93.4250187242
 20
141.8934336384
 11
93.2167881315
 21
141.8128853068
  0
LINE
  5
2D8
100
AcDbEntity
  8
0
100
AcDbLine
 62
7
  6
CONTINUOUS
 10
103.1144160456
 20
143.8407944997
 11
102.9291438736
 21
143.7753357265
  0
LINE
  5
2D9
100
AcDbEntity
  8
0
100
AcDbLine
 62
7
  6
CONTINUOUS
 10
92.9037195079
 20
143.6631824743
 11
92.6523521912
 21
143.5753354477
  0
LINE
  5
2DA
100
AcDbEntity
  8
0
100
AcDbLine
 62
7
  6
CONTINUOUS
 10
93.2540582066
 20
141.5926118293
 11
93.5054255226
 21
141.6804588598
  0
LWPOLYLINE
  5
2DB
100
AcDbEntity
  8
RUNDUNGEN
100
AcDbPolyline
 62
7
  6
CONTINUOUS
 90
3
 70
0
 10
143.0570006445
 20
107.1748634526
 10
142.9741643514
 20
107.157741019
 10
142.9229750965
 20
107.1394668034
  0
LWPOLYLINE
  5
2DC
100
AcDbEntity
  8
RUNDUNGEN
100
AcDbPolyline
 62
7
  6
CONTINUOUS
 90
7
 70
0
 10
136.1914055194
 20
89.7819695448
 10
136.5697062803
 20
89.6879191448
 10
136.9301206275
 20
89.5402687354
 10
137.2573449131
 20
89.3442867786
 10
137.5272499894
 20
89.1199788701
 10
137.7280976147
 20
88.8969140924
 10
137.7487016851
 20
88.870249059
  0
LINE
  5
2DD
100
AcDbEntity
  8
RUNDUNGEN
100
AcDbLine
 62
7
  6
CONTINUOUS
 10
121.3886667957
 20
73.7717316663
 11
121.6625229178
 21
73.5479154213
  0
LWPOLYLINE
  5
2DE
100
AcDbEntity
  8
RUNDUNGEN
100
AcDbPolyline
 62
7
  6
CONTINUOUS
 90
23
 70
0
 10
118.9286108188
 20
70.0501569984
 10
118.7233715028
 20
70.2269841115
 10
118.507573293
 20
70.4698346003
 10
118.3131406268
 20
70.7653800685
 10
118.1586326475
 20
71.0944567859
 10
118.0494970523
 20
71.4453590967
 10
117.9902342794
 20
71.7951827399
 10
117.9787040872
 20
72.1356906158
 10
118.0124029506
 20
72.4584860676
 10
118.0880964241
 20
72.7573143671
 10
118.2030562625
 20
73.0288243863
 10
118.3551494709
 20
73.2702374581
 10
118.554120255
 20
73.4984694501
 10
118.7971818526
 20
73.7114955298
 10
119.0522869881
 20
73.8825000567
 10
119.3270119336
 20
74.0190430381
 10
119.6325212995
 20
74.1244337716
 10
119.9287375679
 20
74.1840482362
 10
120.2129541161
 20
74.1964264543
 10
120.5059690351
 20
74.1618855514
 10
120.8025439666
 20
74.0799501062
 10
121.0990742504
 20
73.9498192843
 10
121.3886667957
 20
73.7717316663
  0
LINE
  5
2DF
100
AcDbEntity
  8
0
100
AcDbLine
 62
7
  6
CONTINUOUS
 10
65.9979619016
 20
120.4653405929
 11
66.4720893336
 21
119.953986379
  0
LINE
  5
2E0
100
AcDbEntity
  8
RUNDUNGEN
100
AcDbLine
 62
7
  6
CONTINUOUS
 10
60.0136236179
 20
128.9374283961
 11
59.8041253579
 21
129.1666331872
  0
LWPOLYLINE
  5
2E1
100
AcDbEntity
  8
RUNDUNGEN
100
AcDbPolyline
 62
7
  6
CONTINUOUS
 90
4
 70
0
 10
59.5700902063
 20
129.4738048841
 10
59.5463508196
 20
129.5027243058
 10
59.4868889703
 20
129.5596503369
 10
59.4184851495
 20
129.606282424
  0
LINE
  5
2E2
100
AcDbEntity
  8
0
100
AcDbLine
 62
7
  6
CONTINUOUS
 10
67.1743736206
 20
119.5819660457
 11
67.0230534364
 21
119.7676777745
  0
LINE
  5
2E3
100
AcDbEntity
  8
RUNDUNGEN
100
AcDbLine
 62
7
  6
CONTINUOUS
 10
59.8041253579
 20
129.1666331872
 11
59.7763930677
 21
129.2023538827
  0
LINE
  5
2E4
100
AcDbEntity
  8
RUNDUNGEN
100
AcDbLine
 62
7
  6
CONTINUOUS
 10
100.5634237023
 20
67.4822541466
 11
100.7251343101
 21
67.1832380818
  0
LINE
  5
2E5
100
AcDbEntity
  8
RUNDUNGEN
100
AcDbLine
 62
7
  6
CONTINUOUS
 10
96.865715001
 20
64.8758887024
 11
96.7338007374
 21
65.190285175
  0
LINE
  5
2E6
100
AcDbEntity
  8
RUNDUNGEN
100
AcDbLine
 62
7
  6
CONTINUOUS
 10
93.3711830641
 20
61.0435512927
 11
93.1571284832
 21
61.6471541156
  0
LWPOLYLINE
  5
2E7
100
AcDbEntity
  8
RUNDUNGEN
100
AcDbPolyline
 62
7
  6
CONTINUOUS
 90
22
 70
0
 10
96.7337962527
 20
65.1902832934
 10
96.644467408
 20
65.4460393565
 10
96.5790025519
 20
65.7642758892
 10
96.5583917083
 20
66.1174771583
 10
96.5891242075
 20
66.4797443166
 10
96.6700589277
 20
66.8382170214
 10
96.7936343822
 20
67.1707971341
 10
96.9538825907
 20
67.4714345266
 10
97.1444576129
 20
67.7341336332
 10
97.3594165849
 20
67.9550672063
 10
97.5946853947
 20
68.1326678195
 10
97.8471491764
 20
68.265671547
 10
98.1337371848
 20
68.363881342
 10
98.4507042301
 20
68.4268194224
 10
98.7571343674
 20
68.4473517864
 10
99.0633349941
 20
68.4282308727
 10
99.3805586638
 20
68.3667488257
 10
99.667054365
 20
68.2702127909
 10
99.9194556953
 20
68.1388229036
 10
100.1558570226
 20
67.9624677591
 10
100.3717091482
 20
67.7432268556
 10
100.5634237023
 20
67.4822541466
  0
LINE
  5
2E8
100
AcDbEntity
  8
RUNDUNGEN
100
AcDbLine
 62
7
  6
CONTINUOUS
 10
70.2135364627
 20
147.2738052441
 11
70.0971117561
 21
147.903567913
  0
LINE
  5
2E9
100
AcDbEntity
  8
RUNDUNGEN
100
AcDbLine
 62
7
  6
CONTINUOUS
 10
75.0825910259
 20
145.9936998627
 11
75.0396338926
 21
146.3319323288
  0
LINE
  5
2EA
100
AcDbEntity
  8
RUNDUNGEN
100
AcDbLine
 62
7
  6
CONTINUOUS
 10
79.5481550023
 20
72.009674497
 11
79.5155837508
 21
71.6443137309
  0
LINE
  5
2EB
100
AcDbEntity
  8
RUNDUNGEN
100
AcDbLine
 62
7
  6
CONTINUOUS
 10
75.0396338926
 20
71.7406834317
 11
75.0825910254
 21
72.0789158943
  0
LINE
  5
2EC
100
AcDbEntity
  8
RUNDUNGEN
100
AcDbLine
 62
7
  6
CONTINUOUS
 10
75.0298649051
 20
71.6872151663
 11
75.0396335976
 21
71.7406834692
  0
LINE
  5
2ED
100
AcDbEntity
  8
RUNDUNGEN
100
AcDbLine
 62
7
  6
CONTINUOUS
 10
70.0971117561
 20
70.1690478475
 11
70.2135364627
 21
70.7988105164
  0
LINE
  5
2EE
100
AcDbEntity
  8
RUNDUNGEN
100
AcDbLine
 62
7
  6
CONTINUOUS
 10
93.1571284832
 20
156.4254616449
 11
93.3711830641
 21
157.0290644678
  0
LINE
  5
2EF
100
AcDbEntity
  8
RUNDUNGEN
100
AcDbLine
 62
7
  6
CONTINUOUS
 10
96.7338007366
 20
152.8823305835
 11
96.865715001
 21
153.1967270581
  0
LINE
  5
2F0
100
AcDbEntity
  8
0
100
AcDbLine
 62
7
  6
CONTINUOUS
 10
92.4904330632
 20
142.9588320257
 11
92.6182565945
 21
143.2523551906
  0
LINE
  5
2F1
100
AcDbEntity
  8
0
100
AcDbLine
 62
7
  6
CONTINUOUS
 10
91.4412528077
 20
143.3837230572
 11
91.2497229723
 21
143.0231054024
  0
LINE
  5
2F2
100
AcDbEntity
  8
0
100
AcDbLine
 62
7
  6
CONTINUOUS
 10
91.3242403165
 20
142.6735121454
 11
91.5157701259
 21
143.0341299226
  0
LINE
  5
2F3
100
AcDbEntity
  8
0
100
AcDbLine
 62
7
  6
CONTINUOUS
 10
89.5582377904
 20
142.7919154332
 11
89.4335609244
 21
142.5750681863
  0
LINE
  5
2F4
100
AcDbEntity
  8
0
100
AcDbLine
 62
7
  6
CONTINUOUS
 10
90.9911126723
 20
141.2702976206
 11
91.1157896102
 21
141.4871449023
  0
LINE
  5
2F5
100
AcDbEntity
  8
RUNDUNGEN
100
AcDbLine
 62
7
  6
CONTINUOUS
 10
59.7244893816
 20
88.9309711188
 11
59.9236969046
 21
89.2369026857
  0
LINE
  5
2F6
100
AcDbEntity
  8
0
100
AcDbLine
 62
7
  6
CONTINUOUS
 10
92.4590298732
 20
143.4066777792
 11
92.3519812499
 21
143.2526175425
  0
LINE
  5
2F7
100
AcDbEntity
  8
0
100
AcDbLine
 62
7
  6
CONTINUOUS
 10
93.6987480854
 20
141.8491165816
 11
93.8057964594
 21
142.0031767919
  0
LINE
  5
2F8
100
AcDbEntity
  8
RUNDUNGEN
100
AcDbLine
 62
7
  6
CONTINUOUS
 10
54.5384657307
 20
89.9620710544
 11
54.3851687397
 21
89.7452692744
  0
LINE
  5
2F9
100
AcDbEntity
  8
0
100
AcDbLine
 62
7
  6
CONTINUOUS
 10
97.6227106954
 20
144.1368372213
 11
97.3705003197
 21
143.8157162204
  0
LINE
  5
2FA
100
AcDbEntity
  8
0
100
AcDbLine
 62
7
  6
CONTINUOUS
 10
97.3821018379
 20
143.458457652
 11
97.6343122096
 21
143.779578778
  0
LINE
  5
2FB
100
AcDbEntity
  8
0
100
AcDbLine
 62
7
  6
CONTINUOUS
 10
95.574323452
 20
142.1760497953
 11
96.939722427
 21
143.8058212511
  0
LINE
  5
2FC
100
AcDbEntity
  8
0
100
AcDbLine
 62
7
  6
CONTINUOUS
 10
96.7147093919
 20
143.8779758175
 11
95.3056919453
 21
142.2448166149
  0
LINE
  5
2FD
100
AcDbEntity
  8
0
100
AcDbLine
 62
7
  6
CONTINUOUS
 10
98.5852383671
 20
144.0247869773
 11
98.4084706447
 21
143.8478114514
  0
LINE
  5
2FE
100
AcDbEntity
  8
0
100
AcDbLine
 62
7
  6
CONTINUOUS
 10
88.6625558036
 20
130.4363078802
 11
87.4625558036
 21
129.2363078802
  0
LINE
  5
2FF
100
AcDbEntity
  8
0
100
AcDbLine
 62
7
  6
CONTINUOUS
 10
78.5625558036
 20
120.3363078802
 11
77.3625558036
 21
119.1363078802
  0
LINE
  5
300
100
AcDbEntity
  8
0
100
AcDbLine
 62
7
  6
CONTINUOUS
 10
99.5414740706
 20
143.3897212452
 11
98.3054350392
 21
142.2849283588
  0
LINE
  5
301
100
AcDbEntity
  8
0
100
AcDbLine
 62
7
  6
CONTINUOUS
 10
98.6554174237
 20
142.281450304
 11
99.758881915
 21
143.2535115336
  0
LINE
  5
302
100
AcDbEntity
  8
0
100
AcDbLine
 62
7
  6
CONTINUOUS
 10
102.9291438736
 20
143.7753357265
 11
102.732066942
 21
143.6212984031
  0
LINE
  5
303
100
AcDbEntity
  8
RUNDUNGEN
100
AcDbLine
 62
7
  6
CONTINUOUS
 10
118.0535944178
 20
153.413694949
 11
117.8543085049
 21
153.2718051809
  0
LINE
  5
304
100
AcDbEntity
  8
0
100
AcDbLine
 62
7
  6
CONTINUOUS
 10
105.8171663167
 20
142.6675124815
 11
105.7142134619
 21
142.5965025302
  0
LINE
  5
305
100
AcDbEntity
  8
0
100
AcDbLine
 62
7
  6
CONTINUOUS
 10
107.8094714063
 20
142.1868318149
 11
107.70242622
 21
142.1221540999
  0
LINE
  5
306
100
AcDbEntity
  8
RUNDUNGEN
100
AcDbLine
 62
7
  6
CONTINUOUS
 10
117.8543085049
 20
153.2718051809
 11
117.6412916547
 21
153.1436127374
  0
LINE
  5
307
100
AcDbEntity
  8
RUNDUNGEN
100
AcDbLine
 62
7
  6
CONTINUOUS
 10
51.1429656744
 20
114.751361631
 11
50.9262519283
 21
114.6295792677
  0
LINE
  5
308
100
AcDbEntity
  8
0
100
AcDbLine
 62
7
  6
CONTINUOUS
 10
102.9804603235
 20
143.4980405842
 11
103.1223656425
 21
143.5692793017
  0
LINE
  5
309
100
AcDbEntity
  8
0
100
AcDbLine
 62
7
  6
CONTINUOUS
 10
103.6332401547
 20
142.1038353235
 11
103.4913348316
 21
142.0325965751
  0
LINE
  5
30A
100
AcDbEntity
  8
0
100
AcDbLine
 62
7
  6
CONTINUOUS
 10
105.7059685264
 20
142.3249963014
 11
105.9033436659
 21
142.4231572557
  0
LINE
  5
30B
100
AcDbEntity
  8
RUNDUNGEN
100
AcDbLine
 62
7
  6
CONTINUOUS
 10
50.9262519283
 20
114.6295792677
 11
50.6850919498
 21
114.5184719142
  0
LINE
  5
30C
100
AcDbEntity
  8
0
100
AcDbLine
 62
7
  6
CONTINUOUS
 10
103.4992844248
 20
141.7610813499
 11
103.6845565985
 21
141.8265401348
  0
LINE
  5
30D
100
AcDbEntity
  8
RUNDUNGEN
100
AcDbLine
 62
7
  6
CONTINUOUS
 10
143.2246949667
 20
110.9060612008
 11
146.5192956297
 21
111.6364565833
  0
LINE
  5
30E
100
AcDbEntity
  8
RUNDUNGEN
100
AcDbLine
 62
7
  6
CONTINUOUS
 10
146.4943827234
 20
111.7488314419
 11
146.0574779507
 21
111.6519719857
  0
LINE
  5
30F
100
AcDbEntity
  8
0
100
AcDbLine
 62
7
  6
CONTINUOUS
 10
67.5244551682
 20
97.729131824
 11
67.9778972716
 21
97.7903057465
  0
LINE
  5
310
100
AcDbEntity
  8
0
100
AcDbLine
 62
7
  6
CONTINUOUS
 10
66.2822611478
 20
98.3384380366
 11
65.8456130335
 21
98.2795298491
  0
LINE
  5
311
100
AcDbEntity
  8
0
100
AcDbLine
 62
7
  6
CONTINUOUS
 10
120.1625558036
 20
100.8696408957
 11
119.9125558036
 21
100.8696408957
  0
LINE
  5
312
100
AcDbEntity
  8
0
100
AcDbLine
 62
7
  6
CONTINUOUS
 10
120.1625558036
 20
102.8696408957
 11
119.9125558036
 21
102.8696408957
  0
LINE
  5
313
100
AcDbEntity
  8
0
100
AcDbLine
 62
7
  6
CONTINUOUS
 10
120.1625558036
 20
103.3696408957
 11
119.9125558036
 21
103.3696408957
  0
LINE
  5
314
100
AcDbEntity
  8
0
100
AcDbLine
 62
7
  6
CONTINUOUS
 10
120.1625558036
 20
104.2029741495
 11
119.9125558036
 21
104.2029741495
  0
LINE
  5
315
100
AcDbEntity
  8
0
100
AcDbLine
 62
7
  6
CONTINUOUS
 10
67.0830724117
 20
102.0390150014
 11
67.5751658574
 21
102.0356203289
  0
LWPOLYLINE
  5
316
100
AcDbEntity
  8
RUNDUNGEN
100
AcDbPolyline
 62
7
  6
CONTINUOUS
 90
4
 70
0
 10
54.4867911151
 20
107.1722687888
 10
54.4042064347
 20
107.1783896946
 10
54.3213559925
 20
107.170729732
 10
54.3004167048
 20
107.1665542692
  0
LINE
  5
317
100
AcDbEntity
  8
0
100
AcDbLine
 62
7
  6
CONTINUOUS
 10
66.3495739062
 20
107.6577894426
 11
66.8336780056
 21
107.5694100501
  0
LINE
  5
318
100
AcDbEntity
  8
RUNDUNGEN
100
AcDbLine
 62
7
  6
CONTINUOUS
 10
51.0058159774
 20
111.6364565833
 11
54.3004166405
 21
110.9060612008
  0
LINE
  5
319
100
AcDbEntity
  8
RUNDUNGEN
100
AcDbLine
 62
7
  6
CONTINUOUS
 10
51.4676336564
 20
111.6519719857
 11
51.0307288838
 21
111.7488314419
  0
LINE
  5
31A
100
AcDbEntity
  8
RUNDUNGEN
100
AcDbLine
 62
7
  6
CONTINUOUS
 10
138.202774549
 20
88.4244921531
 11
141.4211800465
 21
87.4097327977
  0
LINE
  5
31B
100
AcDbEntity
  8
RUNDUNGEN
100
AcDbLine
 62
7
  6
CONTINUOUS
 10
141.455792266
 20
87.5195087331
 11
141.0289919058
 21
87.6540783698
  0
LINE
  5
31C
100
AcDbEntity
  8
RUNDUNGEN
100
AcDbLine
 62
7
  6
CONTINUOUS
 10
58.7040802637
 20
135.1664726238
 11
61.192090442
 21
132.8866313362
  0
LINE
  5
31D
100
AcDbEntity
  8
RUNDUNGEN
100
AcDbLine
 62
7
  6
CONTINUOUS
 10
59.1117838069
 20
134.949000517
 11
58.7818429028
 21
135.2513356529
  0
LWPOLYLINE
  5
31E
100
AcDbEntity
  8
RUNDUNGEN
100
AcDbPolyline
 62
7
  6
CONTINUOUS
 90
6
 70
0
 10
121.6625229178
 20
73.5479154213
 10
121.9130379302
 20
73.2800840776
 10
122.1222341307
 20
72.9837640854
 10
122.2827799293
 20
72.6697229918
 10
122.3872970973
 20
72.3631226691
 10
122.4425148841
 20
72.0789151685
  0
LINE
  5
31F
100
AcDbEntity
  8
RUNDUNGEN
100
AcDbLine
 62
7
  6
CONTINUOUS
 10
122.6128792596
 20
71.4658425187
 11
124.8927205472
 21
68.9778323404
  0
LINE
  5
320
100
AcDbEntity
  8
RUNDUNGEN
100
AcDbLine
 62
7
  6
CONTINUOUS
 10
124.9775835762
 20
69.0555949795
 11
124.6752484403
 21
69.3855358835
  0
LWPOLYLINE
  5
321
100
AcDbEntity
  8
RUNDUNGEN
100
AcDbPolyline
 62
7
  6
CONTINUOUS
 90
3
 70
0
 10
119.2977327278
 20
69.7454542749
 10
119.2414856657
 20
69.8086367269
 10
119.2000528906
 20
69.8438423924
  0
LINE
  5
322
100
AcDbEntity
  8
RUNDUNGEN
100
AcDbLine
 62
7
  6
CONTINUOUS
 10
100.7251343101
 20
67.1832380818
 11
100.8503554319
 21
66.8524884471
  0
LWPOLYLINE
  5
323
100
AcDbEntity
  8
RUNDUNGEN
100
AcDbPolyline
 62
7
  6
CONTINUOUS
 90
3
 70
0
 10
75.155556416
 20
145.6456499144
 10
75.0887279988
 20
145.9488962108
 10
75.0825714794
 20
145.9936973802
  0
LWPOLYLINE
  5
324
100
AcDbEntity
  8
RUNDUNGEN
100
AcDbPolyline
 62
7
  6
CONTINUOUS
 90
3
 70
0
 10
75.0396334677
 20
146.3319322748
 10
75.0334745837
 20
146.3691390742
 10
75.0103682526
 20
146.4482253267
  0
LINE
  5
325
100
AcDbEntity
  8
0
100
AcDbLine
 62
7
  6
CONTINUOUS
 10
89.7012793586
 20
142.4135506779
 11
89.7100740661
 21
142.5542778965
  0
LINE
  5
326
100
AcDbEntity
  8
0
100
AcDbLine
 62
7
  6
CONTINUOUS
 10
92.2955236112
 20
143.0618013534
 11
92.2747487033
 21
142.9223384252
  0
LWPOLYLINE
  5
327
100
AcDbEntity
  8
RUNDUNGEN
100
AcDbPolyline
 62
7
  6
CONTINUOUS
 90
21
 70
0
 10
75.0825854546
 20
72.078916602
 10
75.1433831607
 20
72.3840879429
 10
75.2603756519
 20
72.7112537837
 10
75.4399059992
 20
73.043193198
 10
75.6720748868
 20
73.3511702691
 10
75.9471091671
 20
73.6237475609
 10
76.2440252217
 20
73.84440498
 10
76.5561678965
 20
74.0132574598
 10
76.8780168753
 20
74.1289625493
 10
77.1952147522
 20
74.1884311797
 10
77.5004699409
 20
74.1934156227
 10
77.8156319381
 20
74.1440907233
 10
78.1419144796
 20
74.0417621848
 10
78.4449023268
 20
73.8984589712
 10
78.7217732527
 20
73.7163061973
 10
78.9781833054
 20
73.4910677585
 10
79.1897255081
 20
73.2437187899
 10
79.3455446126
 20
72.9834789023
 10
79.4591071809
 20
72.689439935
 10
79.5287927155
 20
72.3588751668
 10
79.5481550023
 20
72.009674497
  0
LINE
  5
328
100
AcDbEntity
  8
0
100
AcDbLine
 62
7
  6
CONTINUOUS
 10
91.1157896102
 20
141.4871449023
 11
91.1557534857
 21
141.6820838231
  0
LINE
  5
329
100
AcDbEntity
  8
0
100
AcDbLine
 62
7
  6
CONTINUOUS
 10
92.3519812499
 20
143.2526175425
 11
92.2955236112
 21
143.0618013534
  0
LINE
  5
32A
100
AcDbEntity
  8
0
100
AcDbLine
 62
7
  6
CONTINUOUS
 10
93.8057964594
 20
142.0031767919
 11
93.8622543397
 21
142.1939930537
  0
LINE
  5
32B
100
AcDbEntity
  8
0
100
AcDbLine
 62
7
  6
CONTINUOUS
 10
90.890427562
 20
141.6596164647
 11
90.8392764455
 21
141.5079352185
  0
LWPOLYLINE
  5
32C
100
AcDbEntity
  8
RUNDUNGEN
100
AcDbPolyline
 62
7
  6
CONTINUOUS
 90
3
 70
0
 10
96.865714606
 20
153.1967272239
 10
96.8789842557
 20
153.2320286993
 10
96.8985167122
 20
153.3120725687
  0
LINE
  5
32D
100
AcDbEntity
  8
RUNDUNGEN
100
AcDbLine
 62
7
  6
CONTINUOUS
 10
96.7117925039
 20
152.8278937645
 11
96.7337894572
 21
152.8823353161
  0
LINE
  5
32E
100
AcDbEntity
  8
0
100
AcDbLine
 62
7
  6
CONTINUOUS
 10
93.6673446617
 20
142.2969622162
 11
93.5395213616
 21
142.0034391857
  0
LINE
  5
32F
100
AcDbEntity
  8
0
100
AcDbLine
 62
7
  6
CONTINUOUS
 10
99.6307464472
 20
143.5675662823
 11
99.5414740706
 21
143.3897212452
  0
LINE
  5
330
100
AcDbEntity
  8
0
100
AcDbLine
 62
7
  6
CONTINUOUS
 10
98.5816863082
 20
143.6673578608
 11
98.6705136761
 21
143.8005242682
  0
LINE
  5
331
100
AcDbEntity
  8
0
100
AcDbLine
 62
7
  6
CONTINUOUS
 10
99.758881915
 20
143.2535115336
 11
99.8477092829
 21
143.3866779411
  0
LINE
  5
332
100
AcDbEntity
  8
RUNDUNGEN
100
AcDbLine
 62
7
  6
CONTINUOUS
 10
63.615921021
 20
86.5888054607
 11
63.4068781986
 21
86.288029026
  0
LINE
  5
333
100
AcDbEntity
  8
RUNDUNGEN
100
AcDbLine
 62
7
  6
CONTINUOUS
 10
59.5700905524
 20
88.5988106133
 11
59.7764087531
 21
88.8702499533
  0
LINE
  5
334
100
AcDbEntity
  8
RUNDUNGEN
100
AcDbLine
 62
7
  6
CONTINUOUS
 10
54.5039230313
 20
89.7089953401
 11
54.9196311194
 21
90.1961734564
  0
LINE
  5
335
100
AcDbEntity
  8
0
100
AcDbLine
 62
7
  6
CONTINUOUS
 10
103.7376824891
 20
142.2251430619
 11
103.6332401547
 21
142.1038353235
  0
LINE
  5
336
100
AcDbEntity
  8
0
100
AcDbLine
 62
7
  6
CONTINUOUS
 10
105.9033436659
 20
142.4231572557
 11
106.0663049926
 21
142.5735308442
  0
LINE
  5
337
100
AcDbEntity
  8
RUNDUNGEN
100
AcDbLine
 62
7
  6
CONTINUOUS
 10
117.6026902274
 20
152.8792325645
 11
118.0898683437
 21
153.2949406525
  0
LINE
  5
338
100
AcDbEntity
  8
0
100
AcDbLine
 62
7
  6
CONTINUOUS
 10
107.8807696235
 20
141.9377282699
 11
108.0524950074
 21
142.0780101384
  0
LINE
  5
339
100
AcDbEntity
  8
0
100
AcDbLine
 62
7
  6
CONTINUOUS
 10
103.6845565985
 20
141.8265401348
 11
103.8816335321
 21
141.9805774737
  0
LINE
  5
33A
100
AcDbEntity
  8
RUNDUNGEN
100
AcDbLine
 62
7
  6
CONTINUOUS
 10
118.9286137291
 20
148.0224549297
 11
119.2000530705
 21
148.2287731314
  0
LINE
  5
33B
100
AcDbEntity
  8
RUNDUNGEN
100
AcDbLine
 62
7
  6
CONTINUOUS
 10
54.9019483398
 20
111.1436173567
 11
55.2272309868
 21
111.3088751489
  0
LINE
  5
33C
100
AcDbEntity
  8
RUNDUNGEN
100
AcDbLine
 62
7
  6
CONTINUOUS
 10
50.769799216
 20
114.4276806198
 11
51.3734020389
 21
114.6417352006
  0
LINE
  5
33D
100
AcDbEntity
  8
0
100
AcDbLine
 62
7
  6
CONTINUOUS
 10
65.4997337633
 20
102.627684143
 11
65.7930512481
 21
102.686263452
  0
LINE
  5
33E
100
AcDbEntity
  8
0
100
AcDbLine
 62
7
  6
CONTINUOUS
 10
66.2929738226
 20
103.3012432256
 11
65.1848856533
 21
103.0799436352
  0
LINE
  5
33F
100
AcDbEntity
  8
0
100
AcDbLine
 62
7
  6
CONTINUOUS
 10
63.6069789318
 20
103.3063045756
 11
66.0904029309
 21
103.6930199276
  0
LINE
  5
340
100
AcDbEntity
  8
0
100
AcDbLine
 62
7
  6
CONTINUOUS
 10
66.4436838599
 20
104.2592832931
 11
63.5292523769
 21
103.8054520516
  0
LINE
  5
341
100
AcDbEntity
  8
0
100
AcDbLine
 62
7
  6
CONTINUOUS
 10
64.6734157288
 20
102.5439954027
 11
64.9129536943
 21
102.5748888901
  0
LINE
  5
342
100
AcDbEntity
  8
0
100
AcDbLine
 62
7
  6
CONTINUOUS
 10
63.8936475321
 20
104.3434140951
 11
64.0873369523
 21
104.3680677707
  0
LINE
  5
343
100
AcDbEntity
  8
0
100
AcDbLine
 62
7
  6
CONTINUOUS
 10
64.3716896709
 20
104.4042614856
 11
66.3868848446
 21
104.660764747
  0
LINE
  5
344
100
AcDbEntity
  8
0
100
AcDbLine
 62
7
  6
CONTINUOUS
 10
66.3230999485
 20
105.1618851384
 11
64.3079047749
 21
104.905381877
  0
LINE
  5
345
100
AcDbEntity
  8
0
100
AcDbLine
 62
7
  6
CONTINUOUS
 10
64.0235520562
 20
104.8691881621
 11
63.3971520637
 21
104.7894571052
  0
LINE
  5
346
100
AcDbEntity
  8
0
100
AcDbLine
 62
7
  6
CONTINUOUS
 10
64.8909650957
 20
105.4493050528
 11
66.2695783298
 21
105.5640809846
  0
LINE
  5
347
100
AcDbEntity
  8
0
100
AcDbLine
 62
7
  6
CONTINUOUS
 10
66.2276661336
 20
106.0675028032
 11
65.0601918446
 21
105.9703051657
  0
LINE
  5
348
100
AcDbEntity
  8
0
100
AcDbLine
 62
7
  6
CONTINUOUS
 10
65.0616136277
 20
106.5040137115
 11
65.7488502143
 21
106.5612293378
  0
LINE
  5
349
100
AcDbEntity
  8
0
100
AcDbLine
 62
7
  6
CONTINUOUS
 10
66.1416359271
 20
107.1008412332
 11
64.9451817943
 21
107.0012308895
  0
LINE
  5
34A
100
AcDbEntity
  8
0
100
AcDbLine
 62
7
  6
CONTINUOUS
 10
64.8917772916
 20
108.5112059698
 11
65.1908049006
 21
108.5182182052
  0
LINE
  5
34B
100
AcDbEntity
  8
0
100
AcDbLine
 62
7
  6
CONTINUOUS
 10
65.7894766279
 20
109.0375600429
 11
64.6598168808
 21
109.0110693787
  0
LINE
  5
34C
100
AcDbEntity
  8
0
100
AcDbLine
 62
7
  6
CONTINUOUS
 10
120.1625558036
 20
104.8696408957
 11
119.9125558036
 21
104.8696408957
  0
LINE
  5
34D
100
AcDbEntity
  8
0
100
AcDbLine
 62
7
  6
CONTINUOUS
 10
120.1625558036
 20
104.952974388
 11
119.9125558036
 21
104.952974388
  0
LINE
  5
34E
100
AcDbEntity
  8
0
100
AcDbLine
 62
7
  6
CONTINUOUS
 10
120.1625558036
 20
105.0363074034
 11
119.9125558036
 21
105.0363074034
  0
LINE
  5
34F
100
AcDbEntity
  8
0
100
AcDbLine
 62
7
  6
CONTINUOUS
 10
120.1625558036
 20
105.202974388
 11
119.9125558036
 21
105.202974388
  0
LINE
  5
350
100
AcDbEntity
  8
0
100
AcDbLine
 62
7
  6
CONTINUOUS
 10
120.1625558036
 20
105.452974388
 11
119.9125558036
 21
105.452974388
  0
LINE
  5
351
100
AcDbEntity
  8
0
100
AcDbLine
 62
7
  6
CONTINUOUS
 10
120.1625558036
 20
105.8696408957
 11
119.9125558036
 21
105.8696408957
  0
LINE
  5
352
100
AcDbEntity
  8
0
100
AcDbLine
 62
7
  6
CONTINUOUS
 10
120.1625558036
 20
106.3696408957
 11
119.9125558036
 21
106.3696408957
  0
LINE
  5
353
100
AcDbEntity
  8
0
100
AcDbLine
 62
7
  6
CONTINUOUS
 10
120.1625558036
 20
106.8696408957
 11
119.9125558036
 21
106.8696408957
  0
LINE
  5
354
100
AcDbEntity
  8
0
100
AcDbLine
 62
7
  6
CONTINUOUS
 10
120.1625558036
 20
107.2863074034
 11
119.9125558036
 21
107.2863074034
  0
LINE
  5
355
100
AcDbEntity
  8
0
100
AcDbLine
 62
7
  6
CONTINUOUS
 10
120.1625558036
 20
107.5363074034
 11
119.9125558036
 21
107.5363074034
  0
LINE
  5
356
100
AcDbEntity
  8
0
100
AcDbLine
 62
7
  6
CONTINUOUS
 10
120.1625558036
 20
107.702974388
 11
119.9125558036
 21
107.702974388
  0
LINE
  5
357
100
AcDbEntity
  8
0
100
AcDbLine
 62
7
  6
CONTINUOUS
 10
120.1625558036
 20
107.7863074034
 11
119.9125558036
 21
107.7863074034
  0
LINE
  5
358
100
AcDbEntity
  8
0
100
AcDbLine
 62
7
  6
CONTINUOUS
 10
120.1625558036
 20
107.8696408957
 11
119.9125558036
 21
107.8696408957
  0
LINE
  5
359
100
AcDbEntity
  8
0
100
AcDbLine
 62
7
  6
CONTINUOUS
 10
120.1625558036
 20
108.5363074034
 11
119.9125558036
 21
108.5363074034
  0
LINE
  5
35A
100
AcDbEntity
  8
0
100
AcDbLine
 62
7
  6
CONTINUOUS
 10
120.1625558036
 20
109.0363078802
 11
119.9125558036
 21
109.0363078802
  0
LINE
  5
35B
100
AcDbEntity
  8
02___PRT_ALL_AXES
100
AcDbLine
 62
7
  6
CENTER
 10
98.7625558036
 20
109.0363078802
 11
46.3082150829
 21
109.0363078802
  0
LINE
  5
35C
100
AcDbEntity
  8
02___PRT_ALL_AXES
100
AcDbLine
 62
7
  6
CENTER
 10
98.7625558036
 20
109.0363078802
 11
151.2168965242
 21
109.0363078802
  0
LINE
  5
35D
100
AcDbEntity
  8
0
100
AcDbLine
 62
7
  6
CONTINUOUS
 10
64.0634283214
 20
108.5715655828
 11
64.3047012614
 21
108.5606022269
  0
LINE
  5
35E
100
AcDbEntity
  8
0
100
AcDbLine
 62
7
  6
CONTINUOUS
 10
64.7523810296
 20
110.1949635389
 11
66.4858414493
 21
110.0922888441
  0
LINE
  5
35F
100
AcDbEntity
  8
0
100
AcDbLine
 62
7
  6
CONTINUOUS
 10
66.9511490999
 20
110.5707765039
 11
65.9434197016
 21
110.6304653824
  0
LINE
  5
360
100
AcDbEntity
  8
0
100
AcDbLine
 62
7
  6
CONTINUOUS
 10
65.2591590053
 20
110.6709948674
 11
64.9813076609
 21
110.6874522966
  0
LINE
  5
361
100
AcDbEntity
  8
0
100
AcDbLine
 62
7
  6
CONTINUOUS
 10
64.8790224096
 20
112.2463117161
 11
66.2335464656
 21
112.0980750145
  0
LINE
  5
362
100
AcDbEntity
  8
0
100
AcDbLine
 62
7
  6
CONTINUOUS
 10
66.2885024841
 20
112.6002397843
 11
65.2684797976
 21
112.7118692515
  0
LINE
  5
363
100
AcDbEntity
  8
0
100
AcDbLine
 62
7
  6
CONTINUOUS
 10
64.8804790898
 20
113.2524811044
 11
64.2899395961
 21
113.3171086955
  0
LWPOLYLINE
  5
364
100
AcDbEntity
  8
RUNDUNGEN
100
AcDbPolyline
 62
7
  6
CONTINUOUS
 90
3
 70
0
 10
54.3004167323
 20
110.9060616148
 10
54.3837677482
 20
110.89482621
 10
54.4681109627
 20
110.8977523079
  0
LINE
  5
365
100
AcDbEntity
  8
0
100
AcDbLine
 62
7
  6
CONTINUOUS
 10
63.7965317088
 20
115.8278233269
 11
66.2603157479
 21
115.3311224796
  0
LINE
  5
366
100
AcDbEntity
  8
0
100
AcDbLine
 62
7
  6
CONTINUOUS
 10
66.7877473641
 20
115.7401182057
 11
63.8963644294
 21
116.3230233349
  0
LINE
  5
367
100
AcDbEntity
  8
0
100
AcDbLine
 62
7
  6
CONTINUOUS
 10
64.4244285071
 20
116.7016212956
 11
64.6146800403
 21
116.6577151533
  0
LINE
  5
368
100
AcDbEntity
  8
0
100
AcDbLine
 62
7
  6
CONTINUOUS
 10
64.8939856452
 20
116.5932571623
 11
66.8734121472
 21
116.1364462227
  0
LINE
  5
369
100
AcDbEntity
  8
0
100
AcDbLine
 62
7
  6
CONTINUOUS
 10
66.9870076132
 20
116.6286714661
 11
65.0075811112
 21
117.0854824056
  0
LINE
  5
36A
100
AcDbEntity
  8
0
100
AcDbLine
 62
7
  6
CONTINUOUS
 10
64.7282755063
 20
117.1499403967
 11
64.1129937895
 21
117.2919347667
  0
LINE
  5
36B
100
AcDbEntity
  8
0
100
AcDbLine
 62
7
  6
CONTINUOUS
 10
65.7428588538
 20
117.3939906293
 11
67.0759939836
 21
117.0245333389
  0
LINE
  5
36C
100
AcDbEntity
  8
0
100
AcDbLine
 62
7
  6
CONTINUOUS
 10
67.210906851
 20
117.5113476138
 11
66.0819455518
 21
117.8242213603
  0
LINE
  5
36D
100
AcDbEntity
  8
0
100
AcDbLine
 62
7
  6
CONTINUOUS
 10
66.2679972229
 20
118.3244551865
 11
66.9325630441
 21
118.1402812928
  0
LINE
  5
36E
100
AcDbEntity
  8
0
100
AcDbLine
 62
7
  6
CONTINUOUS
 10
66.6659349576
 20
119.764170483
 11
64.9827036234
 21
120.3370647623
  0
LINE
  5
36F
100
AcDbEntity
  8
0
100
AcDbLine
 62
7
  6
CONTINUOUS
 10
64.8181517191
 20
119.8594537377
 11
67.6068357732
 21
118.8986650455
  0
LINE
  5
370
100
AcDbEntity
  8
0
100
AcDbLine
 62
7
  6
CONTINUOUS
 10
67.7713876775
 20
119.3762760702
 11
67.1743736206
 21
119.5819660457
  0
LWPOLYLINE
  5
371
100
AcDbEntity
  8
RUNDUNGEN
100
AcDbPolyline
 62
7
  6
CONTINUOUS
 90
3
 70
0
 10
138.1066264514
 20
88.46633334
 10
138.1822041153
 20
88.4314727857
 10
138.2027746615
 20
88.42449251
  0
LWPOLYLINE
  5
372
100
AcDbEntity
  8
RUNDUNGEN
100
AcDbPolyline
 62
7
  6
CONTINUOUS
 90
4
 70
0
 10
61.1920907285
 20
132.8866316489
 10
61.2586571234
 20
132.8352259949
 10
61.3331635386
 20
132.7955884628
 10
61.4134630897
 20
132.7689987787
  0
LWPOLYLINE
  5
373
100
AcDbEntity
  8
RUNDUNGEN
100
AcDbPolyline
 62
7
  6
CONTINUOUS
 90
4
 70
0
 10
75.0103682526
 20
146.4482253267
 10
74.9743767722
 20
146.5228062108
 10
74.926317829
 20
146.5907268172
 10
74.9122321282
 20
146.6067730408
  0
LINE
  5
374
100
AcDbEntity
  8
RUNDUNGEN
100
AcDbLine
 62
7
  6
CONTINUOUS
 10
77.135980721
 20
151.6949321232
 11
78.1507400964
 21
148.4765265624
  0
LINE
  5
375
100
AcDbEntity
  8
RUNDUNGEN
100
AcDbLine
 62
7
  6
CONTINUOUS
 10
77.3803262931
 20
151.3027439825
 11
77.2457566564
 21
151.7295443427
  0
LWPOLYLINE
  5
376
100
AcDbEntity
  8
RUNDUNGEN
100
AcDbPolyline
 62
7
  6
CONTINUOUS
 90
6
 70
0
 10
100.8503554319
 20
66.8524884471
 10
100.9333687959
 20
66.4952792807
 10
100.9663649442
 20
66.1340548444
 10
100.9483744019
 20
65.7817969884
 10
100.8855839505
 20
65.4640077274
 10
100.7913055859
 20
65.1902873881
  0
LINE
  5
377
100
AcDbEntity
  8
RUNDUNGEN
100
AcDbLine
 62
7
  6
CONTINUOUS
 10
100.6323091241
 20
64.5741687171
 11
101.3627045067
 21
61.2795680541
  0
LINE
  5
378
100
AcDbEntity
  8
RUNDUNGEN
100
AcDbLine
 62
7
  6
CONTINUOUS
 10
101.4750793652
 20
61.3044809604
 11
101.3782199091
 21
61.7413857331
  0
LWPOLYLINE
  5
379
100
AcDbEntity
  8
RUNDUNGEN
100
AcDbPolyline
 62
7
  6
CONTINUOUS
 90
3
 70
0
 10
96.901111376
 20
64.7418630393
 10
96.8839889423
 20
64.8246993325
 10
96.8657147267
 20
64.8758885873
  0
LINE
  5
37A
100
AcDbEntity
  8
0
100
AcDbLine
 62
7
  6
CONTINUOUS
 10
89.4335609244
 20
142.5750681863
 11
89.4359534036
 21
142.3910834407
  0
LINE
  5
37B
100
AcDbEntity
  8
0
100
AcDbLine
 62
7
  6
CONTINUOUS
 10
92.4920204232
 20
142.6872051947
 11
92.4904330632
 21
142.9588320257
  0
LINE
  5
37C
100
AcDbEntity
  8
0
100
AcDbLine
 62
7
  6
CONTINUOUS
 10
93.6657575381
 20
142.5685891507
 11
93.6673446617
 21
142.2969622162
  0
LINE
  5
37D
100
AcDbEntity
  8
0
100
AcDbLine
 62
7
  6
CONTINUOUS
 10
92.2747487033
 20
142.9223384252
 11
92.2688818024
 21
142.6947662418
  0
LINE
  5
37E
100
AcDbEntity
  8
0
100
AcDbLine
 62
7
  6
CONTINUOUS
 10
93.8830290216
 20
142.3334558167
 11
93.8888961589
 21
142.5610281036
  0
LINE
  5
37F
100
AcDbEntity
  8
0
100
AcDbLine
 62
7
  6
CONTINUOUS
 10
93.8622543397
 20
142.1939930537
 11
93.8830290216
 21
142.3334558167
  0
LINE
  5
380
100
AcDbEntity
  8
RUNDUNGEN
100
AcDbLine
 62
7
  6
CONTINUOUS
 10
101.3627045067
 20
156.7930477064
 11
100.6323091241
 21
153.4984470434
  0
LINE
  5
381
100
AcDbEntity
  8
RUNDUNGEN
100
AcDbLine
 62
7
  6
CONTINUOUS
 10
101.3782199091
 20
156.3312300274
 11
101.4750793652
 21
156.7681348
  0
LWPOLYLINE
  5
382
100
AcDbEntity
  8
RUNDUNGEN
100
AcDbPolyline
 62
7
  6
CONTINUOUS
 90
7
 70
0
 10
79.5155837508
 20
71.6443137309
 10
79.4259106121
 20
71.2638319181
 10
79.2810209117
 20
70.8977737241
 10
79.0853107271
 20
70.5624330465
 10
78.8587869142
 20
70.2845969938
 10
78.6309547441
 20
70.0768712308
 10
78.596508178
 20
70.0501472797
  0
LINE
  5
383
100
AcDbEntity
  8
0
100
AcDbLine
 62
7
  6
CONTINUOUS
 10
98.4084706447
 20
143.8478114514
 11
98.3629464417
 21
143.6695316537
  0
LINE
  5
384
100
AcDbEntity
  8
0
100
AcDbLine
 62
7
  6
CONTINUOUS
 10
99.8477092829
 20
143.3866779411
 11
99.8932334859
 21
143.5649577388
  0
LINE
  5
385
100
AcDbEntity
  8
RUNDUNGEN
100
AcDbLine
 62
7
  6
CONTINUOUS
 10
78.1507400764
 20
69.5960891347
 11
77.135980721
 21
66.3776836373
  0
LINE
  5
386
100
AcDbEntity
  8
RUNDUNGEN
100
AcDbLine
 62
7
  6
CONTINUOUS
 10
77.2457566564
 20
66.3430714178
 11
77.3803262931
 21
66.769871778
  0
LINE
  5
387
100
AcDbEntity
  8
0
100
AcDbLine
 62
7
  6
CONTINUOUS
 10
102.732066942
 20
143.6212984031
 11
102.6650885847
 21
143.4499215115
  0
LINE
  5
388
100
AcDbEntity
  8
0
100
AcDbLine
 62
7
  6
CONTINUOUS
 10
102.9193848257
 20
143.3709527775
 11
102.9804603235
 21
143.4980405842
  0
LINE
  5
389
100
AcDbEntity
  8
0
100
AcDbLine
 62
7
  6
CONTINUOUS
 10
105.8857063416
 20
142.7907348758
 11
105.8171663167
 21
142.6675124815
  0
LINE
  5
38A
100
AcDbEntity
  8
0
100
AcDbLine
 62
7
  6
CONTINUOUS
 10
106.0663049926
 20
142.5735308442
 11
106.1348450175
 21
142.6967532385
  0
LINE
  5
38B
100
AcDbEntity
  8
0
100
AcDbLine
 62
7
  6
CONTINUOUS
 10
107.8853101779
 20
142.3057010144
 11
107.8094714063
 21
142.1868318149
  0
LINE
  5
38C
100
AcDbEntity
  8
0
100
AcDbLine
 62
7
  6
CONTINUOUS
 10
103.8816335321
 20
141.9805774737
 11
103.9919787467
 21
142.146174452
  0
LINE
  5
38D
100
AcDbEntity
  8
RUNDUNGEN
100
AcDbLine
 62
7
  6
CONTINUOUS
 10
59.7764014959
 20
88.8702554696
 11
59.9827964466
 21
89.1052826567
  0
LWPOLYLINE
  5
38E
100
AcDbEntity
  8
RUNDUNGEN
100
AcDbPolyline
 62
7
  6
CONTINUOUS
 90
4
 70
0
 10
119.2000528074
 20
148.2287734775
 10
119.2289722272
 20
148.2525128625
 10
119.2858982578
 20
148.3119747105
 10
119.3325303449
 20
148.3803785299
  0
LINE
  5
38F
100
AcDbEntity
  8
RUNDUNGEN
100
AcDbLine
 62
7
  6
CONTINUOUS
 10
57.101050295
 20
107.1695698195
 11
56.7696221803
 21
107.0135950816
  0
LINE
  5
390
100
AcDbEntity
  8
RUNDUNGEN
100
AcDbLine
 62
7
  6
CONTINUOUS
 10
54.6021366257
 20
110.9331486829
 11
54.9165330987
 21
111.0650629466
  0
LINE
  5
391
100
AcDbEntity
  8
RUNDUNGEN
100
AcDbLine
 62
7
  6
CONTINUOUS
 10
54.9165295442
 20
111.0650714185
 11
55.2127492875
 21
111.1654036997
  0
LINE
  5
392
100
AcDbEntity
  8
0
100
AcDbLine
 62
7
  6
CONTINUOUS
 10
66.4082031387
 20
102.8091172693
 11
66.5331908303
 21
102.840857075
  0
LINE
  5
393
100
AcDbEntity
  8
0
100
AcDbLine
 62
7
  6
CONTINUOUS
 10
64.4885950268
 20
105.8760279449
 11
64.2098337564
 21
105.8194703931
  0
LINE
  5
394
100
AcDbEntity
  8
0
100
AcDbLine
 62
7
  6
CONTINUOUS
 10
65.8179321892
 20
108.5329244196
 11
65.9465243404
 21
108.5425886303
  0
LINE
  5
395
100
AcDbEntity
  8
0
100
AcDbLine
 62
7
  6
CONTINUOUS
 10
64.3811871645
 20
110.6730596242
 11
64.0974201976
 21
110.6599035192
  0
LINE
  5
396
100
AcDbEntity
  8
0
100
AcDbLine
 62
7
  6
CONTINUOUS
 10
120.1625558036
 20
110.2029739111
 11
119.9125558036
 21
110.2029739111
  0
LINE
  5
397
100
AcDbEntity
  8
0
100
AcDbLine
 62
7
  6
CONTINUOUS
 10
120.1625558036
 20
110.8696408957
 11
119.9125558036
 21
110.8696408957
  0
LINE
  5
398
100
AcDbEntity
  8
0
100
AcDbLine
 62
7
  6
CONTINUOUS
 10
120.1625558036
 20
112.0363078802
 11
119.9125558036
 21
112.0363078802
  0
LINE
  5
399
100
AcDbEntity
  8
0
100
AcDbLine
 62
7
  6
CONTINUOUS
 10
120.1625558036
 20
112.5363078802
 11
119.9125558036
 21
112.5363078802
  0
LINE
  5
39A
100
AcDbEntity
  8
0
100
AcDbLine
 62
7
  6
CONTINUOUS
 10
120.1625558036
 20
113.2029739111
 11
119.9125558036
 21
113.2029739111
  0
LINE
  5
39B
100
AcDbEntity
  8
0
100
AcDbLine
 62
7
  6
CONTINUOUS
 10
120.1625558036
 20
113.7029739111
 11
119.9125558036
 21
113.7029739111
  0
LINE
  5
39C
100
AcDbEntity
  8
0
100
AcDbLine
 62
7
  6
CONTINUOUS
 10
120.1625558036
 20
114.8696408957
 11
119.9125558036
 21
114.8696408957
  0
LINE
  5
39D
100
AcDbEntity
  8
0
100
AcDbLine
 62
7
  6
CONTINUOUS
 10
64.6394799148
 20
112.7305571671
 11
64.2600665729
 21
112.7386466551
  0
LWPOLYLINE
  5
39E
100
AcDbEntity
  8
RUNDUNGEN
100
AcDbPolyline
 62
7
  6
CONTINUOUS
 90
4
 70
0
 10
143.038320492
 20
110.9003469716
 10
143.1209051725
 20
110.8942260659
 10
143.2037556146
 20
110.9018860284
 10
143.2246949023
 20
110.9060614913
  0
LWPOLYLINE
  5
39F
100
AcDbEntity
  8
RUNDUNGEN
100
AcDbPolyline
 62
7
  6
CONTINUOUS
 90
3
 70
0
 10
143.2246948749
 20
107.1665541456
 10
143.1413438589
 20
107.1777895505
 10
143.0570006445
 20
107.1748634526
  0
LINE
  5
3A0
100
AcDbEntity
  8
0
100
AcDbLine
 62
7
  6
CONTINUOUS
 10
65.5130458562
 20
117.9336021331
 11
65.2319378967
 21
117.977018589
  0
LINE
  5
3A1
100
AcDbEntity
  8
0
100
AcDbLine
 62
7
  6
CONTINUOUS
 10
67.4878338335
 20
118.5106000262
 11
66.3308486862
 21
118.8312401384
  0
LWPOLYLINE
  5
3A2
100
AcDbEntity
  8
RUNDUNGEN
100
AcDbPolyline
 62
7
  6
CONTINUOUS
 90
3
 70
0
 10
59.4184851495
 20
129.606282424
 10
59.3429074835
 20
129.6411429779
 10
59.322336939
 20
129.6481232526
  0
LWPOLYLINE
  5
3A3
100
AcDbEntity
  8
RUNDUNGEN
100
AcDbPolyline
 62
7
  6
CONTINUOUS
 90
3
 70
0
 10
78.150740516
 20
148.4765266947
 10
78.1826756304
 20
148.398744848
 10
78.2273788793
 20
148.3271614856
  0
LINE
  5
3A4
100
AcDbEntity
  8
0
100
AcDbLine
 62
7
  6
CONTINUOUS
 10
95.170758197
 20
143.9821376987
 11
95.1880573933
 21
143.7594042544
  0
LINE
  5
3A5
100
AcDbEntity
  8
0
100
AcDbLine
 62
7
  6
CONTINUOUS
 10
95.3056919453
 20
142.2448166149
 11
95.3333706618
 21
141.8884430729
  0
LINE
  5
3A6
100
AcDbEntity
  8
0
100
AcDbLine
 62
7
  6
CONTINUOUS
 10
97.078116017
 20
142.0239534473
 11
97.057356979
 21
142.2912336116
  0
LINE
  5
3A7
100
AcDbEntity
  8
0
100
AcDbLine
 62
7
  6
CONTINUOUS
 10
96.939722427
 20
143.8058212511
 11
96.9155035522
 21
144.1176480731
  0
LINE
  5
3A8
100
AcDbEntity
  8
0
100
AcDbLine
 62
7
  6
CONTINUOUS
 10
97.3705003197
 20
143.8157162204
 11
97.3821018379
 21
143.458457652
  0
LINE
  5
3A9
100
AcDbEntity
  8
0
100
AcDbLine
 62
7
  6
CONTINUOUS
 10
97.6343122096
 20
143.779578778
 11
97.6908695993
 21
142.0379436166
  0
LINE
  5
3AA
100
AcDbEntity
  8
0
100
AcDbLine
 62
7
  6
CONTINUOUS
 10
97.9532312999
 20
142.0464634796
 11
97.885072396
 21
144.1453570843
  0
LINE
  5
3AB
100
AcDbEntity
  8
02___PRT_ALL_AXES
100
AcDbLine
 62
7
  6
CENTER
 10
98.7625558036
 20
109.0363078802
 11
98.7625558036
 21
56.5819671596
  0
LINE
  5
3AC
100
AcDbEntity
  8
02___PRT_ALL_AXES
100
AcDbLine
 62
7
  6
CENTER
 10
98.7625558036
 20
109.0363078802
 11
98.7625558036
 21
161.4906486009
  0
LINE
  5
3AD
100
AcDbEntity
  8
0
100
AcDbLine
 62
7
  6
CONTINUOUS
 10
98.3054350392
 20
142.2849283588
 11
98.3032150021
 21
142.0615351297
  0
LINE
  5
3AE
100
AcDbEntity
  8
0
100
AcDbLine
 62
7
  6
CONTINUOUS
 10
99.6316344631
 20
143.6569236866
 11
99.6307464472
 21
143.5675662823
  0
LWPOLYLINE
  5
3AF
100
AcDbEntity
  8
RUNDUNGEN
100
AcDbPolyline
 62
7
  6
CONTINUOUS
 90
4
 70
0
 10
96.8985167122
 20
153.3120725687
 10
96.9046376179
 20
153.3946572491
 10
96.8969776554
 20
153.4775076913
 10
96.8928021926
 20
153.498446979
  0
LWPOLYLINE
  5
3B0
100
AcDbEntity
  8
RUNDUNGEN
100
AcDbPolyline
 62
7
  6
CONTINUOUS
 90
3
 70
0
 10
100.6323095382
 20
153.4984469516
 10
100.6210741333
 20
153.4150959356
 10
100.6240002312
 20
153.3307527212
  0
LINE
  5
3B1
100
AcDbEntity
  8
0
100
AcDbLine
 62
7
  6
CONTINUOUS
 10
108.0524950074
 20
142.0780101384
 11
108.1283337791
 21
142.1968793379
  0
LINE
  5
3B2
100
AcDbEntity
  8
RUNDUNGEN
100
AcDbLine
 62
7
  6
CONTINUOUS
 10
124.8927205472
 20
149.0947834201
 11
122.6128792595
 21
146.6067732418
  0
LINE
  5
3B3
100
AcDbEntity
  8
RUNDUNGEN
100
AcDbLine
 62
7
  6
CONTINUOUS
 10
124.6752484403
 20
148.687079877
 11
124.9775835762
 21
149.017020781
  0
LWPOLYLINE
  5
3B4
100
AcDbEntity
  8
RUNDUNGEN
100
AcDbPolyline
 62
7
  6
CONTINUOUS
 90
5
 70
0
 10
63.4068781986
 20
86.288029026
 10
63.1396030421
 20
86.0012785623
 10
62.8303280321
 20
85.7539436565
 10
62.4910148379
 20
85.558594047
 10
62.1532255757
 20
85.4293119618
  0
LINE
  5
3B5
100
AcDbEntity
  8
RUNDUNGEN
100
AcDbLine
 62
7
  6
CONTINUOUS
 10
61.192090442
 20
85.1859844243
 11
58.7040802637
 21
82.9061431367
  0
LINE
  5
3B6
100
AcDbEntity
  8
RUNDUNGEN
100
AcDbLine
 62
7
  6
CONTINUOUS
 10
58.7818429028
 20
82.8212801076
 11
59.1117838069
 21
83.1236152435
  0
LWPOLYLINE
  5
3B7
100
AcDbEntity
  8
RUNDUNGEN
100
AcDbPolyline
 62
7
  6
CONTINUOUS
 90
3
 70
0
 10
59.4717021982
 20
88.501130956
 10
59.5348846502
 20
88.5573780181
 10
59.5700903158
 20
88.5988107932
  0
LWPOLYLINE
  5
3B8
100
AcDbEntity
  8
RUNDUNGEN
100
AcDbPolyline
 62
7
  6
CONTINUOUS
 90
20
 70
0
 10
59.9827964466
 20
89.1052826567
 10
60.2494226379
 20
89.3311119375
 10
60.5733523051
 20
89.5294674055
 10
60.9307928493
 20
89.6800746394
 10
61.3069438264
 20
89.7778187217
 10
61.674990895
 20
89.8193555611
 10
62.0300979951
 20
89.8080699089
 10
62.3659702188
 20
89.7459179285
 10
62.6688658399
 20
89.6376933592
 10
62.9350413633
 20
89.4875525779
 10
63.1822096507
 20
89.286253843
 10
63.4131483432
 20
89.0331953996
 10
63.601566717
 20
88.7588610299
 10
63.7486282556
 20
88.4639663339
 10
63.8569439464
 20
88.1429370625
 10
63.915412207
 20
87.8268083716
 10
63.9209595293
 20
87.5275215677
 10
63.8738186518
 20
87.2182467128
 10
63.7713836248
 20
86.9002474004
 10
63.615921021
 20
86.5888054607
  0
LWPOLYLINE
  5
3B9
100
AcDbEntity
  8
RUNDUNGEN
100
AcDbPolyline
 62
7
  6
CONTINUOUS
 90
5
 70
0
 10
56.7696221803
 20
107.0135950816
 10
56.394753965
 20
106.8988803291
 10
56.0032096341
 20
106.8393058108
 10
55.6116389582
 20
106.8397802834
 10
55.2544358966
 20
106.8967177196
  0
LINE
  5
3BA
100
AcDbEntity
  8
RUNDUNGEN
100
AcDbLine
 62
7
  6
CONTINUOUS
 10
51.0307288838
 20
106.3237843186
 11
51.4676336564
 21
106.4206437747
  0
LINE
  5
3BB
100
AcDbEntity
  8
RUNDUNGEN
100
AcDbLine
 62
7
  6
CONTINUOUS
 10
54.3004166404
 20
107.1665545597
 11
51.0058159774
 21
106.4361591771
  0
LWPOLYLINE
  5
3BC
100
AcDbEntity
  8
RUNDUNGEN
100
AcDbPolyline
 62
7
  6
CONTINUOUS
 90
3
 70
0
 10
54.4681109627
 20
110.8977523079
 10
54.5509472558
 20
110.9148747415
 10
54.6021365106
 20
110.9331489571
  0
LWPOLYLINE
  5
3BD
100
AcDbEntity
  8
RUNDUNGEN
100
AcDbPolyline
 62
7
  6
CONTINUOUS
 90
20
 70
0
 10
55.2127492875
 20
111.1654036997
 10
55.5565693108
 20
111.2276721295
 10
55.9362932026
 20
111.2374995498
 10
56.3211539589
 20
111.1892293965
 10
56.6957787867
 20
111.0858361662
 10
57.0352713041
 20
110.937831096
 10
57.3371440083
 20
110.7505568969
 10
57.5969621648
 20
110.52881445
 10
57.8051298896
 20
110.2837053616
 10
57.9605189794
 20
110.0206661134
 10
58.0740016074
 20
109.7225721137
 10
58.147485326
 20
109.3880232674
 10
58.1735207108
 20
109.0562634712
 10
58.1534661717
 20
108.7273435504
 10
58.0867873177
 20
108.3951572217
 10
57.9793613915
 20
108.092056419
 10
57.8345486064
 20
107.8300629547
 10
57.6391078984
 20
107.5857746877
 10
57.3914005588
 20
107.3615711157
 10
57.101050295
 20
107.1695698195
  0
LINE
  5
3BE
100
AcDbEntity
  8
0
100
AcDbLine
 62
7
  6
CONTINUOUS
 10
120.1625558036
 20
115.5363078802
 11
119.9125558036
 21
115.5363078802
  0
LINE
  5
3BF
100
AcDbEntity
  8
0
100
AcDbLine
 62
7
  6
CONTINUOUS
 10
120.1625558036
 20
116.7029739111
 11
119.9125558036
 21
116.7029739111
  0
LINE
  5
3C0
100
AcDbEntity
  8
0
100
AcDbLine
 62
7
  6
CONTINUOUS
 10
120.1625558036
 20
117.2029748648
 11
119.9125558036
 21
117.2029748648
  0
LINE
  5
3C1
100
AcDbEntity
  8
RUNDUNGEN
100
AcDbLine
 62
7
  6
CONTINUOUS
 10
146.0574779507
 20
106.4206437747
 11
146.4943827234
 21
106.3237843186
  0
LINE
  5
3C2
100
AcDbEntity
  8
RUNDUNGEN
100
AcDbLine
 62
7
  6
CONTINUOUS
 10
146.5192956297
 20
106.4361591771
 11
143.2246949667
 21
107.1665545597
  0
LWPOLYLINE
  5
3C3
100
AcDbEntity
  8
RUNDUNGEN
100
AcDbPolyline
 62
7
  6
CONTINUOUS
 90
5
 70
0
 10
61.3842520931
 20
128.2810540258
 10
61.0022493258
 20
128.3691422437
 10
60.6333747356
 20
128.5133213613
 10
60.2945018239
 20
128.7095176016
 10
60.0136236179
 20
128.9374283961
  0
LINE
  5
3C4
100
AcDbEntity
  8
RUNDUNGEN
100
AcDbLine
 62
7
  6
CONTINUOUS
 10
56.0693193411
 20
130.5531070274
 11
56.4961197014
 21
130.4185373907
  0
LINE
  5
3C5
100
AcDbEntity
  8
RUNDUNGEN
100
AcDbLine
 62
7
  6
CONTINUOUS
 10
59.3223370515
 20
129.6481236094
 11
56.1039315606
 21
130.6628829628
  0
LWPOLYLINE
  5
3C6
100
AcDbEntity
  8
RUNDUNGEN
100
AcDbPolyline
 62
7
  6
CONTINUOUS
 90
20
 70
0
 10
62.1118649498
 20
132.6550622024
 10
62.4407560574
 20
132.5370782236
 10
62.7745203252
 20
132.3557270535
 10
63.0836844551
 20
132.1214934728
 10
63.3564224597
 20
131.8446398738
 10
63.5764290589
 20
131.5467174537
 10
63.744221373
 20
131.2335968893
 10
63.8583592571
 20
130.9116532225
 10
63.9160832361
 20
130.5952986747
 10
63.9191344992
 20
130.2898054613
 10
63.8683663265
 20
129.9749071698
 10
63.7647306634
 20
129.6484375191
 10
63.6213980654
 20
129.3481074256
 10
63.4395703603
 20
129.0732816951
 10
63.2157316123
 20
128.8189393306
 10
62.9711476345
 20
128.6101593115
 10
62.7147393547
 20
128.4556727168
 10
62.4233386044
 20
128.3418332313
 10
62.0967159731
 20
128.2715209168
 10
61.7492646243
 20
128.2504180519
  0
LWPOLYLINE
  5
3C7
100
AcDbEntity
  8
RUNDUNGEN
100
AcDbPolyline
 62
7
  6
CONTINUOUS
 90
4
 70
0
 10
136.3330208786
 20
85.1859841116
 10
136.2664544838
 20
85.2373897656
 10
136.1919480685
 20
85.2770272977
 10
136.1116485175
 20
85.3036169818
  0
LINE
  5
3C8
100
AcDbEntity
  8
RUNDUNGEN
100
AcDbLine
 62
7
  6
CONTINUOUS
 10
138.4133278003
 20
83.1236152435
 11
138.7432687043
 21
82.8212801076
  0
LINE
  5
3C9
100
AcDbEntity
  8
RUNDUNGEN
100
AcDbLine
 62
7
  6
CONTINUOUS
 10
138.8210313434
 20
82.9061431367
 11
136.3330211651
 21
85.1859844243
  0
LINE
  5
3CA
100
AcDbEntity
  8
RUNDUNGEN
100
AcDbLine
 62
7
  6
CONTINUOUS
 10
72.5475280309
 20
149.017020781
 11
72.8498631669
 21
148.687079877
  0
LWPOLYLINE
  5
3CB
100
AcDbEntity
  8
RUNDUNGEN
100
AcDbPolyline
 62
7
  6
CONTINUOUS
 90
4
 70
0
 10
122.5147433546
 20
71.6243904338
 10
122.550734835
 20
71.5498095497
 10
122.5987937782
 20
71.4818889433
 10
122.6128794789
 20
71.4658427196
  0
LWPOLYLINE
  5
3CC
100
AcDbEntity
  8
RUNDUNGEN
100
AcDbPolyline
 62
7
  6
CONTINUOUS
 90
3
 70
0
 10
119.3743710911
 20
69.5960890658
 10
119.3424359767
 20
69.6738709125
 10
119.2977327278
 20
69.7454542749
  0
LINE
  5
3CD
100
AcDbEntity
  8
0
100
AcDbLine
 62
7
  6
CONTINUOUS
 10
89.4359534036
 20
142.3910834407
 11
89.4807023676
 21
142.2180527423
  0
LINE
  5
3CE
100
AcDbEntity
  8
0
100
AcDbLine
 62
7
  6
CONTINUOUS
 10
89.723653825
 20
142.3270353893
 11
89.7012793586
 21
142.4135506779
  0
LINE
  5
3CF
100
AcDbEntity
  8
0
100
AcDbLine
 62
7
  6
CONTINUOUS
 10
90.8568658625
 20
141.7893893976
 11
90.890427562
 21
141.6596164647
  0
LINE
  5
3D0
100
AcDbEntity
  8
0
100
AcDbLine
 62
7
  6
CONTINUOUS
 10
91.1557534857
 20
141.6820838231
 11
91.0998173199
 21
141.8983720446
  0
LINE
  5
3D1
100
AcDbEntity
  8
0
100
AcDbLine
 62
7
  6
CONTINUOUS
 10
91.2497229723
 20
143.0231054024
 11
91.3242403165
 21
142.6735121454
  0
LINE
  5
3D2
100
AcDbEntity
  8
0
100
AcDbLine
 62
7
  6
CONTINUOUS
 10
91.5157701259
 20
143.0341299226
 11
91.8790421039
 21
141.3298631467
  0
LINE
  5
3D3
100
AcDbEntity
  8
0
100
AcDbLine
 62
7
  6
CONTINUOUS
 10
92.1357745927
 20
141.3845868087
 11
91.6979852965
 21
143.4384467192
  0
LINE
  5
3D4
100
AcDbEntity
  8
0
100
AcDbLine
 62
7
  6
CONTINUOUS
 10
92.2688818024
 20
142.6947662418
 11
92.3359679282
 21
142.2982740378
  0
LINE
  5
3D5
100
AcDbEntity
  8
0
100
AcDbLine
 62
7
  6
CONTINUOUS
 10
92.544198521
 20
142.3788223695
 11
92.4920204232
 21
142.6872051947
  0
LINE
  5
3D6
100
AcDbEntity
  8
0
100
AcDbLine
 62
7
  6
CONTINUOUS
 10
93.6135794403
 20
142.8769719759
 11
93.6657575381
 21
142.5685891507
  0
LINE
  5
3D7
100
AcDbEntity
  8
0
100
AcDbLine
 62
7
  6
CONTINUOUS
 10
93.8888961589
 20
142.5610281036
 11
93.8218100331
 21
142.9575203075
  0
LINE
  5
3D8
100
AcDbEntity
  8
0
100
AcDbLine
 62
7
  6
CONTINUOUS
 10
94.25861689
 20
142.740652915
 11
94.2858434343
 21
142.5189138958
  0
LINE
  5
3D9
100
AcDbEntity
  8
0
100
AcDbLine
 62
7
  6
CONTINUOUS
 10
94.8937779798
 20
142.5935600132
 11
94.8665514355
 21
142.8152990324
  0
LINE
  5
3DA
100
AcDbEntity
  8
0
100
AcDbLine
 62
7
  6
CONTINUOUS
 10
99.8781372345
 20
142.0458838684
 11
99.8803572716
 21
142.2692770975
  0
LINE
  5
3DB
100
AcDbEntity
  8
0
100
AcDbLine
 62
7
  6
CONTINUOUS
 10
99.8932334859
 20
143.5649577388
 11
99.8941215018
 21
143.654315143
  0
LINE
  5
3DC
100
AcDbEntity
  8
0
100
AcDbLine
 62
7
  6
CONTINUOUS
 10
102.6650885847
 20
143.4499215115
 11
102.6414770639
 21
143.2727645516
  0
LINE
  5
3DD
100
AcDbEntity
  8
0
100
AcDbLine
 62
7
  6
CONTINUOUS
 10
102.9075790736
 20
143.2823743596
 11
102.9193848257
 21
143.3709527775
  0
LINE
  5
3DE
100
AcDbEntity
  8
0
100
AcDbLine
 62
7
  6
CONTINUOUS
 10
103.7553911173
 20
142.3580106888
 11
103.7376824891
 21
142.2251430619
  0
LINE
  5
3DF
100
AcDbEntity
  8
0
100
AcDbLine
 62
7
  6
CONTINUOUS
 10
103.9919787467
 20
142.146174452
 11
104.021493127
 21
142.3676204968
  0
LWPOLYLINE
  5
3E0
100
AcDbEntity
  8
RUNDUNGEN
100
AcDbPolyline
 62
7
  6
CONTINUOUS
 90
3
 70
0
 10
96.892802069
 20
64.5741688089
 10
96.9040374738
 20
64.6575198249
 10
96.901111376
 20
64.7418630393
  0
LINE
  5
3E1
100
AcDbEntity
  8
0
100
AcDbLine
 62
7
  6
CONTINUOUS
 10
104.6738515977
 20
143.6637258765
 11
104.2728685565
 21
141.602364045
  0
LINE
  5
3E2
100
AcDbEntity
  8
0
100
AcDbLine
 62
7
  6
CONTINUOUS
 10
104.5305387855
 20
141.5522411648
 11
104.7097014234
 21
142.4732751877
  0
LINE
  5
3E3
100
AcDbEntity
  8
0
100
AcDbLine
 62
7
  6
CONTINUOUS
 10
104.7608907417
 20
142.7364277306
 11
104.8888640614
 21
143.3943092107
  0
LINE
  5
3E4
100
AcDbEntity
  8
0
100
AcDbLine
 62
7
  6
CONTINUOUS
 10
105.9113010247
 20
142.9223112701
 11
105.8857063416
 21
142.7907348758
  0
LINE
  5
3E5
100
AcDbEntity
  8
0
100
AcDbLine
 62
7
  6
CONTINUOUS
 10
106.1348450175
 20
142.6967532385
 11
106.1689712536
 21
142.87218839
  0
LINE
  5
3E6
100
AcDbEntity
  8
0
100
AcDbLine
 62
7
  6
CONTINUOUS
 10
106.7282563208
 20
143.2501208698
 11
106.2038032766
 21
141.2166634681
  0
LINE
  5
3E7
100
AcDbEntity
  8
0
100
AcDbLine
 62
7
  6
CONTINUOUS
 10
106.4579854518
 20
141.1511068376
 11
106.6923155387
 21
142.0596729235
  0
LINE
  5
3E8
100
AcDbEntity
  8
0
100
AcDbLine
 62
7
  6
CONTINUOUS
 10
106.7592669832
 20
142.3192631992
 11
106.9266456256
 21
142.9682390095
  0
LINE
  5
3E9
100
AcDbEntity
  8
0
100
AcDbLine
 62
7
  6
CONTINUOUS
 10
107.9187859314
 20
142.4354962734
 11
107.8853101779
 21
142.3057010144
  0
LINE
  5
3EA
100
AcDbEntity
  8
0
100
AcDbLine
 62
7
  6
CONTINUOUS
 10
108.1283337791
 20
142.1968793379
 11
108.1729681067
 21
142.3699396429
  0
LWPOLYLINE
  5
3EB
100
AcDbEntity
  8
RUNDUNGEN
100
AcDbPolyline
 62
7
  6
CONTINUOUS
 90
3
 70
0
 10
78.1925812633
 20
69.6922372323
 10
78.1577207089
 20
69.6166595683
 10
78.1507404333
 20
69.5960890222
  0
LWPOLYLINE
  5
3EC
100
AcDbEntity
  8
RUNDUNGEN
100
AcDbPolyline
 62
7
  6
CONTINUOUS
 90
4
 70
0
 10
122.6128795722
 20
146.6067729553
 10
122.5614739182
 20
146.5402065605
 10
122.5218363861
 20
146.4657001452
 10
122.495246702
 20
146.3854005942
  0
LWPOLYLINE
  5
3ED
100
AcDbEntity
  8
RUNDUNGEN
100
AcDbPolyline
 62
7
  6
CONTINUOUS
 90
4
 70
0
 10
136.17447325
 20
132.7884954313
 10
136.2490541342
 20
132.8244869116
 10
136.3169747405
 20
132.8725458549
 10
136.3330209642
 20
132.8866315556
  0
LINE
  5
3EE
100
AcDbEntity
  8
0
100
AcDbLine
 62
7
  6
CONTINUOUS
 10
66.8873606109
 20
101.459277441
 11
66.4899357462
 21
101.2873351456
  0
LWPOLYLINE
  5
3EF
100
AcDbEntity
  8
RUNDUNGEN
100
AcDbPolyline
 62
7
  6
CONTINUOUS
 90
3
 70
0
 10
138.202774618
 20
129.6481231678
 10
138.1249927713
 20
129.6161880534
 10
138.0534094089
 20
129.5714848045
  0
LINE
  5
3F0
100
AcDbEntity
  8
RUNDUNGEN
100
AcDbLine
 62
7
  6
CONTINUOUS
 10
141.4211800465
 20
130.6628829628
 11
138.2027744857
 21
129.6481235874
  0
LINE
  5
3F1
100
AcDbEntity
  8
RUNDUNGEN
100
AcDbLine
 62
7
  6
CONTINUOUS
 10
141.0289919058
 20
130.4185373907
 11
141.455792266
 21
130.5531070274
  0
LINE
  5
3F2
100
AcDbEntity
  8
0
100
AcDbLine
 62
7
  6
CONTINUOUS
 10
67.0230534364
 20
119.7676777745
 11
67.461822107
 21
119.8168729475
  0
LINE
  5
3F3
100
AcDbEntity
  8
RUNDUNGEN
100
AcDbLine
 62
7
  6
CONTINUOUS
 10
61.7492646243
 20
128.2504180519
 11
61.3842520931
 21
128.2810540258
  0
LINE
  5
3F4
100
AcDbEntity
  8
RUNDUNGEN
100
AcDbLine
 62
7
  6
CONTINUOUS
 10
61.8051649771
 20
132.7162817723
 11
62.1118649498
 21
132.6550622024
  0
LWPOLYLINE
  5
3F5
100
AcDbEntity
  8
RUNDUNGEN
100
AcDbPolyline
 62
7
  6
CONTINUOUS
 90
5
 70
0
 10
76.0143682727
 20
144.3918988192
 10
75.7275882907
 20
144.6591868376
 10
75.4802230944
 20
144.9684869069
 10
75.2848486743
 20
145.3078342826
 10
75.155556416
 20
145.6456499144
  0
LINE
  5
3F6
100
AcDbEntity
  8
RUNDUNGEN
100
AcDbLine
 62
7
  6
CONTINUOUS
 10
74.9122323476
 20
146.6067732418
 11
72.63239106
 21
149.0947834201
  0
LWPOLYLINE
  5
3F7
100
AcDbEntity
  8
RUNDUNGEN
100
AcDbPolyline
 62
7
  6
CONTINUOUS
 90
3
 70
0
 10
78.2273788793
 20
148.3271614856
 10
78.2836259414
 20
148.2639790336
 10
78.3250587165
 20
148.2287733681
  0
LWPOLYLINE
  5
3F8
100
AcDbEntity
  8
RUNDUNGEN
100
AcDbPolyline
 62
7
  6
CONTINUOUS
 90
20
 70
0
 10
78.8315036304
 20
147.8160945442
 10
79.0573397106
 20
147.5494718433
 10
79.2557124711
 20
147.2255349508
 10
79.406339672
 20
146.8681006163
 10
79.5041109006
 20
146.491969337
 10
79.5456809745
 20
146.1239576448
 10
79.5344330786
 20
145.7688911359
 10
79.4723075327
 20
145.4330108112
 10
79.3641206794
 20
145.130177771
 10
79.2140165288
 20
144.8640872675
 10
79.012600839
 20
144.6167614419
 10
78.7596148964
 20
144.3858482817
 10
78.4853201822
 20
144.1974211082
 10
78.1904399054
 20
144.0503289095
 10
77.8694186824
 20
143.9419813463
 10
77.5532127513
 20
143.8834645484
 10
77.253913379
 20
143.8778793818
 10
76.9446331822
 20
143.9249918787
 10
76.6266135305
 20
144.0274109516
 10
76.3151604059
 20
144.1828610161
  0
LINE
  5
3F9
100
AcDbEntity
  8
0
100
AcDbLine
 62
7
  6
CONTINUOUS
 10
89.8962472966
 20
141.3102011731
 11
89.8203291588
 21
141.4290199415
  0
LINE
  5
3FA
100
AcDbEntity
  8
0
100
AcDbLine
 62
7
  6
CONTINUOUS
 10
89.7995719628
 20
142.2082166209
 11
89.723653825
 21
142.3270353893
  0
LINE
  5
3FB
100
AcDbEntity
  8
0
100
AcDbLine
 62
7
  6
CONTINUOUS
 10
90.7490032642
 20
142.7306626109
 11
90.6730851567
 21
142.8494813871
  0
LINE
  5
3FC
100
AcDbEntity
  8
0
100
AcDbLine
 62
7
  6
CONTINUOUS
 10
89.5661904682
 20
141.3632949388
 11
89.6532958506
 21
141.2012185291
  0
LINE
  5
3FD
100
AcDbEntity
  8
0
100
AcDbLine
 62
7
  6
CONTINUOUS
 10
89.4807023676
 20
142.2180527423
 11
89.5678077538
 21
142.0559763336
  0
LINE
  5
3FE
100
AcDbEntity
  8
0
100
AcDbLine
 62
7
  6
CONTINUOUS
 10
92.4163749793
 20
142.0852992663
 11
92.4818739919
 21
141.9604339352
  0
LINE
  5
3FF
100
AcDbEntity
  8
0
100
AcDbLine
 62
7
  6
CONTINUOUS
 10
92.3359679282
 20
142.2982740378
 11
92.4163749793
 21
142.0852992663
  0
LINE
  5
400
100
AcDbEntity
  8
0
100
AcDbLine
 62
7
  6
CONTINUOUS
 10
93.8218100331
 20
142.9575203075
 11
93.7414027456
 21
143.1704949756
  0
LINE
  5
401
100
AcDbEntity
  8
0
100
AcDbLine
 62
7
  6
CONTINUOUS
 10
92.6320593392
 20
142.1217928668
 11
92.544198521
 21
142.3788223695
  0
LINE
  5
402
100
AcDbEntity
  8
0
100
AcDbLine
 62
7
  6
CONTINUOUS
 10
93.5257183857
 20
143.1340013751
 11
93.6135794403
 21
142.8769719759
  0
LINE
  5
403
100
AcDbEntity
  8
RUNDUNGEN
100
AcDbLine
 62
7
  6
CONTINUOUS
 10
120.144785314
 20
66.769871778
 11
120.2793549507
 21
66.3430714178
  0
LINE
  5
404
100
AcDbEntity
  8
RUNDUNGEN
100
AcDbLine
 62
7
  6
CONTINUOUS
 10
120.3891308861
 20
66.3776836373
 11
119.3743715107
 21
69.5960891981
  0
LINE
  5
405
100
AcDbEntity
  8
RUNDUNGEN
100
AcDbLine
 62
7
  6
CONTINUOUS
 10
96.0500322419
 20
156.7681348
 11
96.1468916981
 21
156.3312300274
  0
LINE
  5
406
100
AcDbEntity
  8
RUNDUNGEN
100
AcDbLine
 62
7
  6
CONTINUOUS
 10
96.892802483
 20
153.4984470434
 11
96.1624071005
 21
156.7930477064
  0
LINE
  5
407
100
AcDbEntity
  8
0
100
AcDbLine
 62
7
  6
CONTINUOUS
 10
102.3992228438
 20
142.4486092198
 11
102.4189781927
 21
142.2656724397
  0
LINE
  5
408
100
AcDbEntity
  8
0
100
AcDbLine
 62
7
  6
CONTINUOUS
 10
102.6414770639
 20
143.2727645516
 11
102.6612324128
 21
143.0898277715
  0
LINE
  5
409
100
AcDbEntity
  8
0
100
AcDbLine
 62
7
  6
CONTINUOUS
 10
107.9098986042
 20
142.5762173496
 11
107.9187859314
 21
142.4354962734
  0
LINE
  5
40A
100
AcDbEntity
  8
0
100
AcDbLine
 62
7
  6
CONTINUOUS
 10
108.1729681067
 20
142.3699396429
 11
108.1640807794
 21
142.5106607191
  0
LWPOLYLINE
  5
40B
100
AcDbEntity
  8
RUNDUNGEN
100
AcDbPolyline
 62
7
  6
CONTINUOUS
 90
4
 70
0
 10
100.626594895
 20
64.7605431918
 10
100.6204739892
 20
64.6779585113
 10
100.6281339518
 20
64.5951080692
 10
100.6323094146
 20
64.5741687815
  0
LINE
  5
40C
100
AcDbEntity
  8
RUNDUNGEN
100
AcDbLine
 62
7
  6
CONTINUOUS
 10
96.1468916981
 20
61.7413857331
 11
96.0500322419
 21
61.3044809604
  0
LINE
  5
40D
100
AcDbEntity
  8
RUNDUNGEN
100
AcDbLine
 62
7
  6
CONTINUOUS
 10
96.1624071005
 20
61.2795680541
 11
96.892802483
 21
64.5741687171
  0
LINE
  5
40E
100
AcDbEntity
  8
RUNDUNGEN
100
AcDbLine
 62
7
  6
CONTINUOUS
 10
120.2793549507
 20
151.7295443427
 11
120.144785314
 21
151.3027439825
  0
LWPOLYLINE
  5
40F
100
AcDbEntity
  8
RUNDUNGEN
100
AcDbPolyline
 62
7
  6
CONTINUOUS
 90
3
 70
0
 10
119.3325303449
 20
148.3803785299
 10
119.3673908991
 20
148.4559561945
 10
119.3743711744
 20
148.4765267402
  0
LWPOLYLINE
  5
410
100
AcDbEntity
  8
RUNDUNGEN
100
AcDbPolyline
 62
7
  6
CONTINUOUS
 90
4
 70
0
 10
74.9122320349
 20
71.4658428052
 10
74.9636376889
 20
71.5324092
 10
75.0032752211
 20
71.6069156153
 10
75.0298649051
 20
71.6872151663
  0
LINE
  5
411
100
AcDbEntity
  8
0
100
AcDbLine
 62
7
  6
CONTINUOUS
 10
67.4366797579
 20
99.7616683909
 11
65.4933221283
 21
99.1699195973
  0
LINE
  5
412
100
AcDbEntity
  8
0
100
AcDbLine
 62
7
  6
CONTINUOUS
 10
65.2191059966
 20
99.0864212939
 11
64.6150358695
 21
98.9024830606
  0
LINE
  5
413
100
AcDbEntity
  8
0
100
AcDbLine
 62
7
  6
CONTINUOUS
 10
65.1794718295
 20
98.5462894416
 11
65.3662566221
 21
98.6031650645
  0
LINE
  5
414
100
AcDbEntity
  8
0
100
AcDbLine
 62
7
  6
CONTINUOUS
 10
65.6404727538
 20
98.6866633679
 11
67.5838303834
 21
99.2784121614
  0
LINE
  5
415
100
AcDbEntity
  8
RUNDUNGEN
100
AcDbLine
 62
7
  6
CONTINUOUS
 10
137.0000531674
 20
137.5853272211
 11
137.6298158363
 21
137.7017519277
  0
LINE
  5
416
100
AcDbEntity
  8
0
100
AcDbLine
 62
7
  6
CONTINUOUS
 10
68.1437953148
 20
120.4571872509
 11
66.7843119265
 21
120.2225397456
  0
LWPOLYLINE
  5
417
100
AcDbEntity
  8
RUNDUNGEN
100
AcDbPolyline
 62
7
  6
CONTINUOUS
 90
3
 70
0
 10
136.0581801981
 20
132.7592302161
 10
136.0953869976
 20
132.7653891001
 10
136.17447325
 20
132.7884954313
  0
LINE
  5
418
100
AcDbEntity
  8
RUNDUNGEN
100
AcDbLine
 62
7
  6
CONTINUOUS
 10
135.719947786
 20
132.7162726579
 11
136.0581802521
 21
132.7592297912
  0
LINE
  5
419
100
AcDbEntity
  8
0
100
AcDbLine
 62
7
  6
CONTINUOUS
 10
117.5965303998
 20
129.2363078802
 11
110.0625558036
 21
129.2363078802
  0
LINE
  5
41A
100
AcDbEntity
  8
0
100
AcDbLine
 62
7
  6
CONTINUOUS
 10
87.4625558036
 20
129.2363078802
 11
79.9285812074
 21
129.2363078802
  0
LINE
  5
41B
100
AcDbEntity
  8
RUNDUNGEN
100
AcDbLine
 62
7
  6
CONTINUOUS
 10
61.4669313551
 20
132.7592297912
 11
61.8051638194
 21
132.7162726582
  0
LINE
  5
41C
100
AcDbEntity
  8
RUNDUNGEN
100
AcDbLine
 62
7
  6
CONTINUOUS
 10
61.4134630897
 20
132.7689987787
 11
61.4669313925
 21
132.7592300862
  0
LINE
  5
41D
100
AcDbEntity
  8
RUNDUNGEN
100
AcDbLine
 62
7
  6
CONTINUOUS
 10
59.8952957708
 20
137.7017519277
 11
60.5250584397
 21
137.5853272211
  0
LWPOLYLINE
  5
41E
100
AcDbEntity
  8
RUNDUNGEN
100
AcDbPolyline
 62
7
  6
CONTINUOUS
 90
3
 70
0
 10
142.9229751472
 20
110.9331490778
 10
142.9582766227
 20
110.9198794281
 10
143.038320492
 20
110.9003469716
  0
LINE
  5
41F
100
AcDbEntity
  8
RUNDUNGEN
100
AcDbLine
 62
7
  6
CONTINUOUS
 10
142.5612975941
 20
111.0842798253
 11
142.608584889
 21
111.0650781582
  0
LINE
  5
420
100
AcDbEntity
  8
RUNDUNGEN
100
AcDbLine
 62
7
  6
CONTINUOUS
 10
142.6085785068
 20
111.0650629472
 11
142.9229749815
 21
110.9331486828
  0
LINE
  5
421
100
AcDbEntity
  8
RUNDUNGEN
100
AcDbLine
 62
7
  6
CONTINUOUS
 10
76.3151604059
 20
144.1828610161
 11
76.0143682727
 21
144.3918988192
  0
LINE
  5
422
100
AcDbEntity
  8
RUNDUNGEN
100
AcDbLine
 62
7
  6
CONTINUOUS
 10
78.3250585366
 20
148.2287731314
 11
78.5964978766
 21
148.0224549307
  0
LINE
  5
423
100
AcDbEntity
  8
RUNDUNGEN
100
AcDbLine
 62
7
  6
CONTINUOUS
 10
78.5965034363
 20
148.022462245
 11
78.8315036304
 21
147.8160945442
  0
LINE
  5
424
100
AcDbEntity
  8
0
100
AcDbLine
 62
7
  6
CONTINUOUS
 10
89.6532958506
 20
141.2012185291
 11
89.8363013772
 21
141.0177927645
  0
LINE
  5
425
100
AcDbEntity
  8
0
100
AcDbLine
 62
7
  6
CONTINUOUS
 10
92.8493310643
 20
141.8866596055
 11
92.6320593392
 21
142.1217928668
  0
LINE
  5
426
100
AcDbEntity
  8
0
100
AcDbLine
 62
7
  6
CONTINUOUS
 10
91.0998173199
 20
141.8983720446
 11
90.9703555555
 21
142.049494369
  0
LINE
  5
427
100
AcDbEntity
  8
0
100
AcDbLine
 62
7
  6
CONTINUOUS
 10
90.4301336993
 20
142.7404987401
 11
90.4948645737
 21
142.6649376082
  0
LWPOLYLINE
  5
428
100
AcDbEntity
  8
RUNDUNGEN
100
AcDbPolyline
 62
7
  6
CONTINUOUS
 90
4
 70
0
 10
137.9550214009
 20
88.5988108764
 10
137.9787607852
 20
88.5698914574
 10
138.0382226326
 20
88.512965427
 10
138.1066264514
 20
88.46633334
  0
LINE
  5
429
100
AcDbEntity
  8
0
100
AcDbLine
 62
7
  6
CONTINUOUS
 10
92.4818739919
 20
141.9604339352
 11
92.5979637477
 21
141.7988125789
  0
LINE
  5
42A
100
AcDbEntity
  8
0
100
AcDbLine
 62
7
  6
CONTINUOUS
 10
93.6759039589
 20
143.2953604719
 11
93.5598139616
 21
143.4569817556
  0
LINE
  5
42B
100
AcDbEntity
  8
0
100
AcDbLine
 62
7
  6
CONTINUOUS
 10
93.7414027456
 20
143.1704949756
 11
93.6759039589
 21
143.2953604719
  0
LWPOLYLINE
  5
42C
100
AcDbEntity
  8
RUNDUNGEN
100
AcDbPolyline
 62
7
  6
CONTINUOUS
 90
6
 70
0
 10
96.7393709157
 20
151.0390458697
 10
96.6260610762
 20
151.4066555668
 10
96.5665271062
 20
151.7889627822
 10
96.5648605143
 20
152.1714761167
 10
96.6184468906
 20
152.5253811588
 10
96.7117925039
 20
152.8278937645
  0
LINE
  5
42D
100
AcDbEntity
  8
0
100
AcDbLine
 62
7
  6
CONTINUOUS
 10
99.8941215018
 20
143.654315143
 11
99.8521493577
 21
143.8334644619
  0
LWPOLYLINE
  5
42E
100
AcDbEntity
  8
RUNDUNGEN
100
AcDbPolyline
 62
7
  6
CONTINUOUS
 90
3
 70
0
 10
100.6240002312
 20
153.3307527212
 10
100.6411226648
 20
153.247916428
 10
100.6593968804
 20
153.1967271732
  0
LINE
  5
42F
100
AcDbEntity
  8
0
100
AcDbLine
 62
7
  6
CONTINUOUS
 10
102.6850802024
 20
142.2752822478
 11
102.6594219775
 21
142.4139298189
  0
LINE
  5
430
100
AcDbEntity
  8
0
100
AcDbLine
 62
7
  6
CONTINUOUS
 10
102.9332372986
 20
143.1437267885
 11
102.9075790736
 21
143.2823743596
  0
LINE
  5
431
100
AcDbEntity
  8
0
100
AcDbLine
 62
7
  6
CONTINUOUS
 10
104.009451106
 20
143.2707445625
 11
103.983792881
 21
143.4093921337
  0
LINE
  5
432
100
AcDbEntity
  8
0
100
AcDbLine
 62
7
  6
CONTINUOUS
 10
105.893950318
 20
143.0622414187
 11
105.9113010247
 21
142.9223112701
  0
LINE
  5
433
100
AcDbEntity
  8
0
100
AcDbLine
 62
7
  6
CONTINUOUS
 10
106.1689712536
 20
142.87218839
 11
106.151620547
 21
143.0121185385
  0
LINE
  5
434
100
AcDbEntity
  8
0
100
AcDbLine
 62
7
  6
CONTINUOUS
 10
107.4124990149
 20
141.8739289703
 11
107.5170772021
 21
140.8779543771
  0
LWPOLYLINE
  5
435
100
AcDbEntity
  8
RUNDUNGEN
100
AcDbPolyline
 62
7
  6
CONTINUOUS
 90
7
 70
0
 10
118.0161459533
 20
146.4569839464
 10
118.1091797185
 20
146.8370612128
 10
118.2565353048
 20
147.1994770571
 10
118.452887958
 20
147.5287097998
 10
118.6779466167
 20
147.8000804811
 10
118.9018729136
 20
148.0018037734
 10
118.9286104423
 20
148.022459258
  0
LINE
  5
436
100
AcDbEntity
  8
RUNDUNGEN
100
AcDbLine
 62
7
  6
CONTINUOUS
 10
119.3743715313
 20
148.4765266277
 11
120.3891308861
 21
151.6949321232
  0
LINE
  5
437
100
AcDbEntity
  8
RUNDUNGEN
100
AcDbLine
 62
7
  6
CONTINUOUS
 10
72.8498631669
 20
69.3855358835
 11
72.5475280309
 21
69.0555949795
  0
LINE
  5
438
100
AcDbEntity
  8
RUNDUNGEN
100
AcDbLine
 62
7
  6
CONTINUOUS
 10
72.63239106
 20
68.9778323404
 11
74.9122323476
 21
71.4658425187
  0
LWPOLYLINE
  5
439
100
AcDbEntity
  8
RUNDUNGEN
100
AcDbPolyline
 62
7
  6
CONTINUOUS
 90
6
 70
0
 10
134.2489632024
 20
131.9334863797
 10
134.5167532865
 20
132.1848454735
 10
134.813442919
 20
132.3949233041
 10
135.1279152735
 20
132.5560208597
 10
135.4350655101
 20
132.6608682769
 10
135.7199483039
 20
132.7162686218
  0
LINE
  5
43A
100
AcDbEntity
  8
RUNDUNGEN
100
AcDbLine
 62
7
  6
CONTINUOUS
 10
138.7432687043
 20
135.2513356529
 11
138.4133278003
 21
134.949000517
  0
LINE
  5
43B
100
AcDbEntity
  8
RUNDUNGEN
100
AcDbLine
 62
7
  6
CONTINUOUS
 10
136.3330211652
 20
132.8866313362
 11
138.8210313434
 21
135.1664726238
  0
LWPOLYLINE
  5
43C
100
AcDbEntity
  8
RUNDUNGEN
100
AcDbPolyline
 62
7
  6
CONTINUOUS
 90
4
 70
0
 10
61.3506383571
 20
85.2841203292
 10
61.276057473
 20
85.2481288488
 10
61.2081368666
 20
85.2000699056
 10
61.192090643
 20
85.1859842049
  0
LWPOLYLINE
  5
43D
100
AcDbEntity
  8
RUNDUNGEN
100
AcDbPolyline
 62
7
  6
CONTINUOUS
 90
3
 70
0
 10
59.3223369892
 20
88.4244925927
 10
59.4001188358
 20
88.4564277071
 10
59.4717021982
 20
88.501130956
  0
LINE
  5
43E
100
AcDbEntity
  8
RUNDUNGEN
100
AcDbLine
 62
7
  6
CONTINUOUS
 10
137.6577788432
 20
137.8227331283
 11
137.414247296
 21
137.799495941
  0
LINE
  5
43F
100
AcDbEntity
  8
0
100
AcDbLine
 62
7
  6
CONTINUOUS
 10
108.8625558036
 20
130.4363078802
 11
88.6625558036
 21
130.4363078802
  0
LINE
  5
440
100
AcDbEntity
  8
RUNDUNGEN
100
AcDbLine
 62
7
  6
CONTINUOUS
 10
61.8318102528
 20
132.7915951524
 11
62.1961421846
 21
132.7720712751
  0
LINE
  5
441
100
AcDbEntity
  8
RUNDUNGEN
100
AcDbLine
 62
7
  6
CONTINUOUS
 10
60.1317371182
 20
137.7983749297
 11
59.8673327736
 21
137.8227331282
  0
LINE
  5
442
100
AcDbEntity
  8
RUNDUNGEN
100
AcDbLine
 62
7
  6
CONTINUOUS
 10
146.1517095682
 20
114.6417352006
 11
146.7553123912
 21
114.4276806198
  0
LWPOLYLINE
  5
443
100
AcDbEntity
  8
RUNDUNGEN
100
AcDbPolyline
 62
7
  6
CONTINUOUS
 90
3
 70
0
 10
146.8400196658
 20
114.5184719093
 10
146.6174965657
 20
114.6201136885
 10
146.3999702279
 20
114.7404954704
  0
LINE
  5
444
100
AcDbEntity
  8
0
100
AcDbLine
 62
7
  6
CONTINUOUS
 10
90.0568783492
 20
141.2132907113
 11
89.8962472966
 21
141.3102011731
  0
LINE
  5
445
100
AcDbEntity
  8
0
100
AcDbLine
 62
7
  6
CONTINUOUS
 10
89.5678077538
 20
142.0559763336
 11
89.7819824852
 21
141.9267624262
  0
LINE
  5
446
100
AcDbEntity
  8
0
100
AcDbLine
 62
7
  6
CONTINUOUS
 10
90.9703555555
 20
142.049494369
 11
90.7561807483
 21
142.1787082568
  0
LINE
  5
447
100
AcDbEntity
  8
0
100
AcDbLine
 62
7
  6
CONTINUOUS
 10
90.3230462958
 20
142.805105684
 11
90.4301336993
 21
142.7404987401
  0
LINE
  5
448
100
AcDbEntity
  8
RUNDUNGEN
100
AcDbLine
 62
7
  6
CONTINUOUS
 10
78.657235612
 20
148.0743629075
 11
78.9629943817
 21
147.8752887679
  0
LINE
  5
449
100
AcDbEntity
  8
0
100
AcDbLine
 62
7
  6
CONTINUOUS
 10
92.5979637477
 20
141.7988125789
 11
92.7497364575
 21
141.6885446641
  0
LINE
  5
44A
100
AcDbEntity
  8
0
100
AcDbLine
 62
7
  6
CONTINUOUS
 10
90.6730851567
 20
142.8494813871
 11
90.5012668788
 21
142.9896494629
  0
LINE
  5
44B
100
AcDbEntity
  8
RUNDUNGEN
100
AcDbLine
 62
7
  6
CONTINUOUS
 10
79.4352432635
 20
153.2949406525
 11
79.9224213798
 21
152.8792325645
  0
LINE
  5
44C
100
AcDbEntity
  8
0
100
AcDbLine
 62
7
  6
CONTINUOUS
 10
90.7385913313
 20
141.8972540777
 11
90.8568658625
 21
141.7893893976
  0
LINE
  5
44D
100
AcDbEntity
  8
0
100
AcDbLine
 62
7
  6
CONTINUOUS
 10
120.1625558036
 20
119.1363078802
 11
118.9625558036
 21
120.3363078802
  0
LINE
  5
44E
100
AcDbEntity
  8
0
100
AcDbLine
 62
7
  6
CONTINUOUS
 10
110.0625558036
 20
129.2363078802
 11
108.8625558036
 21
130.4363078802
  0
LINE
  5
44F
100
AcDbEntity
  8
0
100
AcDbLine
 62
7
  6
CONTINUOUS
 10
93.3084468918
 20
143.3691347707
 11
93.5257183857
 21
143.1340013751
  0
LINE
  5
450
100
AcDbEntity
  8
RUNDUNGEN
100
AcDbLine
 62
7
  6
CONTINUOUS
 10
142.6054804878
 20
90.1961734564
 11
143.0211885758
 21
89.7089953401
  0
LINE
  5
451
100
AcDbEntity
  8
RUNDUNGEN
100
AcDbLine
 62
7
  6
CONTINUOUS
 10
137.748702853
 20
88.8702499547
 11
137.9550210547
 21
88.5988106133
  0
LINE
  5
452
100
AcDbEntity
  8
0
100
AcDbLine
 62
7
  6
CONTINUOUS
 10
99.5454701381
 20
143.7918291264
 11
99.6316344631
 21
143.6569236866
  0
LINE
  5
453
100
AcDbEntity
  8
0
100
AcDbLine
 62
7
  6
CONTINUOUS
 10
103.6863660474
 20
142.5024382662
 11
103.7553911173
 21
142.3580106888
  0
LINE
  5
454
100
AcDbEntity
  8
RUNDUNGEN
100
AcDbLine
 62
7
  6
CONTINUOUS
 10
96.8952189142
 20
150.7086921862
 11
96.7393709157
 21
151.0390458697
  0
LINE
  5
455
100
AcDbEntity
  8
0
100
AcDbLine
 62
7
  6
CONTINUOUS
 10
102.4189781927
 20
142.2656724397
 11
102.5195633731
 21
142.026886648
  0
LINE
  5
456
100
AcDbEntity
  8
RUNDUNGEN
100
AcDbLine
 62
7
  6
CONTINUOUS
 10
100.6593966062
 20
153.1967270581
 11
100.7913108693
 21
152.8823305865
  0
LINE
  5
457
100
AcDbEntity
  8
0
100
AcDbLine
 62
7
  6
CONTINUOUS
 10
104.021493127
 20
142.3676204968
 11
103.9583709332
 21
142.5563372832
  0
LINE
  5
458
100
AcDbEntity
  8
0
100
AcDbLine
 62
7
  6
CONTINUOUS
 10
103.7176908713
 20
143.3997823256
 11
103.7492519724
 21
143.3054239635
  0
LWPOLYLINE
  5
459
100
AcDbEntity
  8
RUNDUNGEN
100
AcDbPolyline
 62
7
  6
CONTINUOUS
 90
21
 70
0
 10
100.7913139552
 20
152.8823318812
 10
100.8963233687
 20
152.5679881314
 10
100.9560435629
 20
152.221352775
 10
100.9623780731
 20
151.8425007581
 10
100.9109466468
 20
151.4600803231
 10
100.804842305
 20
151.0891122457
 10
100.6546752912
 20
150.7531886223
 10
100.4662098806
 20
150.4548837086
 10
100.2452409631
 20
150.1990812728
 10
99.9997206621
 20
149.9916633858
 10
99.7363559174
 20
149.8350610107
 10
99.4493007457
 20
149.7249943126
 10
99.1166408581
 20
149.6517314826
 10
98.785352537
 20
149.6253685796
 10
98.4555146783
 20
149.6451681641
 10
98.121550208
 20
149.7120265002
 10
97.8276657328
 20
149.8169211425
 10
97.5622369427
 20
149.966420284
 10
97.3134324153
 20
150.1671444898
 10
97.0881870828
 20
150.416805368
 10
96.8952189142
 20
150.7086921862
  0
LWPOLYLINE
  5
45A
100
AcDbEntity
  8
RUNDUNGEN
100
AcDbPolyline
 62
7
  6
CONTINUOUS
 90
3
 70
0
 10
122.4854781394
 20
71.7406834857
 10
122.4916370234
 20
71.7034766862
 10
122.5147433546
 20
71.6243904338
  0
LINE
  5
45B
100
AcDbEntity
  8
0
100
AcDbLine
 62
7
  6
CONTINUOUS
 10
107.813624366
 20
140.801471308
 11
107.6889983383
 21
141.8949024317
  0
LINE
  5
45C
100
AcDbEntity
  8
0
100
AcDbLine
 62
7
  6
CONTINUOUS
 10
118.9625558036
 20
90.202333284
 11
118.9625558036
 21
97.7363078802
  0
LINE
  5
45D
100
AcDbEntity
  8
0
100
AcDbLine
 62
7
  6
CONTINUOUS
 10
118.9625558036
 20
120.3363078802
 11
118.9625558036
 21
127.8702824765
  0
LINE
  5
45E
100
AcDbEntity
  8
RUNDUNGEN
100
AcDbLine
 62
7
  6
CONTINUOUS
 10
117.9802801485
 20
146.0879193354
 11
118.0161459533
 21
146.4569839464
  0
LINE
  5
45F
100
AcDbEntity
  8
RUNDUNGEN
100
AcDbLine
 62
7
  6
CONTINUOUS
 10
122.4854777145
 20
146.3319323288
 11
122.4425205831
 21
145.9936998767
  0
LINE
  5
460
100
AcDbEntity
  8
RUNDUNGEN
100
AcDbLine
 62
7
  6
CONTINUOUS
 10
122.495246702
 20
146.3854005942
 11
122.4854780095
 21
146.3319322913
  0
LWPOLYLINE
  5
461
100
AcDbEntity
  8
RUNDUNGEN
100
AcDbPolyline
 62
7
  6
CONTINUOUS
 90
21
 70
0
 10
122.4425184901
 20
145.9937001417
 10
122.3806880383
 20
145.6849114198
 10
122.2620709984
 20
145.3553147645
 10
122.0799328008
 20
145.0215944292
 10
121.8445023064
 20
144.7124257293
 10
121.5658143683
 20
144.4397850708
 10
121.2658112726
 20
144.220265361
 10
120.950716304
 20
144.0533428416
 10
120.6280347084
 20
143.9406091997
 10
120.3100074177
 20
143.8839179942
 10
120.0037313099
 20
143.8814360891
 10
119.6934860116
 20
143.9323338384
 10
119.3666389066
 20
144.0373546145
 10
119.066217526
 20
144.1820924518
 10
118.7897675345
 20
144.3668646665
 10
118.5334337592
 20
144.5950083097
 10
118.330836667
 20
144.8368590839
 10
118.1773000402
 20
145.1003690929
 10
118.0645151443
 20
145.4007865642
 10
117.9972490805
 20
145.7338444314
 10
117.9802801485
 20
146.0879193354
  0
LWPOLYLINE
  5
462
100
AcDbEntity
  8
RUNDUNGEN
100
AcDbPolyline
 62
7
  6
CONTINUOUS
 90
3
 70
0
 10
100.6593970011
 20
64.8758885366
 10
100.6461273514
 20
64.8405870611
 10
100.626594895
 20
64.7605431918
  0
LINE
  5
463
100
AcDbEntity
  8
RUNDUNGEN
100
AcDbLine
 62
7
  6
CONTINUOUS
 10
134.0252959517
 20
131.6586019678
 11
134.2489632024
 21
131.9334863797
  0
LWPOLYLINE
  5
464
100
AcDbEntity
  8
RUNDUNGEN
100
AcDbPolyline
 62
7
  6
CONTINUOUS
 90
3
 70
0
 10
138.0534094089
 20
129.5714848045
 10
137.9902269569
 20
129.5152377424
 10
137.9550212914
 20
129.4738049673
  0
LINE
  5
465
100
AcDbEntity
  8
RUNDUNGEN
100
AcDbLine
 62
7
  6
CONTINUOUS
 10
56.4961197014
 20
87.6540783698
 11
56.0693193411
 21
87.5195087331
  0
LINE
  5
466
100
AcDbEntity
  8
RUNDUNGEN
100
AcDbLine
 62
7
  6
CONTINUOUS
 10
56.1039315606
 20
87.4097327977
 11
59.3223371214
 21
88.4244921731
  0
LWPOLYLINE
  5
467
100
AcDbEntity
  8
RUNDUNGEN
100
AcDbPolyline
 62
7
  6
CONTINUOUS
 90
6
 70
0
 10
140.7630255514
 20
111.0599137396
 10
141.1351256574
 20
111.1738308925
 10
141.5219984612
 20
111.2329737015
 10
141.9082757347
 20
111.2331828587
 10
142.2628116285
 20
111.1777780473
 10
142.5612975941
 20
111.0842798253
  0
LINE
  5
468
100
AcDbEntity
  8
0
100
AcDbLine
 62
7
  6
CONTINUOUS
 10
107.6889983383
 20
141.8949024317
 11
107.8807696235
 21
141.9377282699
  0
LWPOLYLINE
  5
469
100
AcDbEntity
  8
RUNDUNGEN
100
AcDbPolyline
 62
7
  6
CONTINUOUS
 90
3
 70
0
 10
60.6285024784
 20
137.8118755802
 10
60.3803079094
 20
137.7954846769
 10
60.1317371182
 20
137.7983749297
  0
LWPOLYLINE
  5
46A
100
AcDbEntity
  8
RUNDUNGEN
100
AcDbPolyline
 62
7
  6
CONTINUOUS
 90
3
 70
0
 10
137.414247296
 20
137.799495941
 10
137.1656730706
 20
137.7949864535
 10
136.9173408365
 20
137.8097634385
  0
LINE
  5
46B
100
AcDbEntity
  8
0
100
AcDbLine
 62
7
  6
CONTINUOUS
 10
89.7819824852
 20
141.9267624262
 11
89.9737827351
 21
141.8840638034
  0
LINE
  5
46C
100
AcDbEntity
  8
0
100
AcDbLine
 62
7
  6
CONTINUOUS
 10
90.7561807483
 20
142.1787082568
 11
90.5643805287
 21
142.2214068874
  0
LINE
  5
46D
100
AcDbEntity
  8
0
100
AcDbLine
 62
7
  6
CONTINUOUS
 10
89.8363013772
 20
141.0177927645
 11
90.0816453167
 21
140.9427906545
  0
LINE
  5
46E
100
AcDbEntity
  8
0
100
AcDbLine
 62
7
  6
CONTINUOUS
 10
89.9490158047
 20
142.1545638415
 11
89.7995719628
 21
142.2082166209
  0
LINE
  5
46F
100
AcDbEntity
  8
0
100
AcDbLine
 62
7
  6
CONTINUOUS
 10
90.5891475197
 20
141.9509068649
 11
90.7385913313
 21
141.8972540777
  0
LINE
  5
470
100
AcDbEntity
  8
0
100
AcDbLine
 62
7
  6
CONTINUOUS
 10
92.7497364575
 20
141.6885446641
 11
92.9877828613
 21
141.5928741851
  0
LINE
  5
471
100
AcDbEntity
  8
0
100
AcDbLine
 62
7
  6
CONTINUOUS
 10
93.4080415012
 20
143.5672496967
 11
93.1699948525
 21
143.6629201224
  0
LINE
  5
472
100
AcDbEntity
  8
0
100
AcDbLine
 62
7
  6
CONTINUOUS
 10
90.5012668788
 20
142.9896494629
 11
90.298279426
 21
143.0756057378
  0
LINE
  5
473
100
AcDbEntity
  8
0
100
AcDbLine
 62
7
  6
CONTINUOUS
 10
92.9936497576
 20
141.8204463956
 11
92.8493310643
 21
141.8866596055
  0
LINE
  5
474
100
AcDbEntity
  8
0
100
AcDbLine
 62
7
  6
CONTINUOUS
 10
93.1641281985
 20
143.4353479807
 11
93.3084468918
 21
143.3691347707
  0
LINE
  5
475
100
AcDbEntity
  8
RUNDUNGEN
100
AcDbLine
 62
7
  6
CONTINUOUS
 10
79.9021424712
 20
153.1336095252
 11
79.6883189778
 21
153.2603979531
  0
LINE
  5
476
100
AcDbEntity
  8
0
100
AcDbLine
 62
7
  6
CONTINUOUS
 10
99.4151146334
 20
143.8824906773
 11
99.5454701381
 21
143.7918291264
  0
LINE
  5
477
100
AcDbEntity
  8
RUNDUNGEN
100
AcDbLine
 62
7
  6
CONTINUOUS
 10
79.6883189778
 20
153.2603979531
 11
79.4715171978
 21
153.4136949441
  0
LINE
  5
478
100
AcDbEntity
  8
0
100
AcDbLine
 62
7
  6
CONTINUOUS
 10
93.5598139616
 20
143.4569817556
 11
93.4080415012
 21
143.5672496967
  0
LINE
  5
479
100
AcDbEntity
  8
0
100
AcDbLine
 62
7
  6
CONTINUOUS
 10
102.5195633731
 20
142.026886648
 11
102.7186870239
 21
141.8651195528
  0
LINE
  5
47A
100
AcDbEntity
  8
0
100
AcDbLine
 62
7
  6
CONTINUOUS
 10
103.0515311133
 20
143.0378086701
 11
102.9332372986
 21
143.1437267885
  0
LINE
  5
47B
100
AcDbEntity
  8
0
100
AcDbLine
 62
7
  6
CONTINUOUS
 10
103.5680722327
 20
142.6083563846
 11
103.6863660474
 21
142.5024382662
  0
LINE
  5
47C
100
AcDbEntity
  8
0
100
AcDbLine
 62
7
  6
CONTINUOUS
 10
103.8773048184
 20
143.60388867
 11
103.7215470266
 21
143.7598759416
  0
LINE
  5
47D
100
AcDbEntity
  8
0
100
AcDbLine
 62
7
  6
CONTINUOUS
 10
99.8521493577
 20
143.8334644619
 11
99.6789336942
 21
144.0139180525
  0
LINE
  5
47E
100
AcDbEntity
  8
0
100
AcDbLine
 62
7
  6
CONTINUOUS
 10
102.797471137
 20
142.1250748894
 11
102.6850802024
 21
142.2752822478
  0
LINE
  5
47F
100
AcDbEntity
  8
0
100
AcDbLine
 62
7
  6
CONTINUOUS
 10
102.6612324128
 20
143.0898277715
 11
102.811086336
 21
142.8895514232
  0
LINE
  5
480
100
AcDbEntity
  8
0
100
AcDbLine
 62
7
  6
CONTINUOUS
 10
103.9583709332
 20
142.5563372832
 11
103.80851701
 21
142.7566136314
  0
LINE
  5
481
100
AcDbEntity
  8
0
100
AcDbLine
 62
7
  6
CONTINUOUS
 10
103.6427639098
 20
143.4999204998
 11
103.7176908713
 21
143.3997823256
  0
LINE
  5
482
100
AcDbEntity
  8
RUNDUNGEN
100
AcDbLine
 62
7
  6
CONTINUOUS
 10
143.1399428723
 20
89.745269266
 11
142.9980531042
 21
89.944555179
  0
LINE
  5
483
100
AcDbEntity
  8
0
100
AcDbLine
 62
7
  6
CONTINUOUS
 10
105.8251236754
 20
143.1666664959
 11
105.893950318
 21
143.0622414187
  0
LINE
  5
484
100
AcDbEntity
  8
0
100
AcDbLine
 62
7
  6
CONTINUOUS
 10
107.8474877142
 20
142.6845998184
 11
107.9098986042
 21
142.5762173496
  0
LINE
  5
485
100
AcDbEntity
  8
0
100
AcDbLine
 62
7
  6
CONTINUOUS
 10
103.983792881
 20
143.4093921337
 11
103.8773048184
 21
143.60388867
  0
LINE
  5
486
100
AcDbEntity
  8
0
100
AcDbLine
 62
7
  6
CONTINUOUS
 10
106.151620547
 20
143.0121185385
 11
106.0569116447
 21
143.2126150072
  0
LINE
  5
487
100
AcDbEntity
  8
RUNDUNGEN
100
AcDbLine
 62
7
  6
CONTINUOUS
 10
104.355827191
 20
156.8726117556
 11
104.2447198375
 21
157.113771734
  0
LINE
  5
488
100
AcDbEntity
  8
0
100
AcDbLine
 62
7
  6
CONTINUOUS
 10
108.1640807794
 20
142.5106607191
 11
108.0816239882
 21
142.7164992181
  0
LINE
  5
489
100
AcDbEntity
  8
RUNDUNGEN
100
AcDbLine
 62
7
  6
CONTINUOUS
 10
104.1539285431
 20
157.0290644678
 11
104.3679831239
 21
156.4254616449
  0
LINE
  5
48A
100
AcDbEntity
  8
RUNDUNGEN
100
AcDbLine
 62
7
  6
CONTINUOUS
 10
127.3115751444
 20
70.7988105164
 11
127.4279998511
 21
70.1690478475
  0
LINE
  5
48B
100
AcDbEntity
  8
RUNDUNGEN
100
AcDbLine
 62
7
  6
CONTINUOUS
 10
122.4425205813
 20
72.0789158978
 11
122.4854777145
 21
71.7406834317
  0
LINE
  5
48C
100
AcDbEntity
  8
RUNDUNGEN
100
AcDbLine
 62
7
  6
CONTINUOUS
 10
127.5489810516
 20
70.1410848406
 11
127.5257438644
 21
70.3846163879
  0
LINE
  5
48D
100
AcDbEntity
  8
0
100
AcDbLine
 62
7
  6
CONTINUOUS
 10
119.9125558036
 20
100.8696408957
 11
119.9125558036
 21
104.2029741495
  0
LINE
  5
48E
100
AcDbEntity
  8
0
100
AcDbLine
 62
7
  6
CONTINUOUS
 10
119.9125558036
 20
104.8696408957
 11
119.9125558036
 21
107.8696408957
  0
LINE
  5
48F
100
AcDbEntity
  8
0
100
AcDbLine
 62
7
  6
CONTINUOUS
 10
119.9125558036
 20
108.5363074034
 11
119.9125558036
 21
112.5363078802
  0
LINE
  5
490
100
AcDbEntity
  8
0
100
AcDbLine
 62
7
  6
CONTINUOUS
 10
119.9125558036
 20
113.2029739111
 11
119.9125558036
 21
117.2029748648
  0
LINE
  5
491
100
AcDbEntity
  8
0
100
AcDbLine
 62
7
  6
CONTINUOUS
 10
120.1625558036
 20
98.9363078802
 11
120.1625558036
 21
119.1363078802
  0
LINE
  5
492
100
AcDbEntity
  8
RUNDUNGEN
100
AcDbLine
 62
7
  6
CONTINUOUS
 10
127.524622853
 20
147.6671265657
 11
127.5489810515
 21
147.9315309102
  0
LINE
  5
493
100
AcDbEntity
  8
RUNDUNGEN
100
AcDbLine
 62
7
  6
CONTINUOUS
 10
127.4279998511
 20
147.903567913
 11
127.3115751444
 21
147.2738052441
  0
LINE
  5
494
100
AcDbEntity
  8
RUNDUNGEN
100
AcDbLine
 62
7
  6
CONTINUOUS
 10
104.3679831239
 20
61.6471541156
 11
104.1539285431
 21
61.0435512927
  0
LINE
  5
495
100
AcDbEntity
  8
RUNDUNGEN
100
AcDbLine
 62
7
  6
CONTINUOUS
 10
100.7913108706
 20
65.190285177
 11
100.6593966062
 21
64.8758887023
  0
LINE
  5
496
100
AcDbEntity
  8
RUNDUNGEN
100
AcDbLine
 62
7
  6
CONTINUOUS
 10
133.8477934934
 20
131.3683446036
 11
134.0252959517
 21
131.6586019678
  0
LINE
  5
497
100
AcDbEntity
  8
RUNDUNGEN
100
AcDbLine
 62
7
  6
CONTINUOUS
 10
137.9550210547
 20
129.4738051472
 11
137.7487028614
 21
129.2023658168
  0
LWPOLYLINE
  5
498
100
AcDbEntity
  8
RUNDUNGEN
100
AcDbPolyline
 62
7
  6
CONTINUOUS
 90
22
 70
0
 10
137.7486979622
 20
129.2023695402
 10
137.5716313374
 20
128.9969546028
 10
137.3299069505
 20
128.7819843932
 10
137.0362600436
 20
128.5885962043
 10
136.7088225886
 20
128.4345417294
 10
136.3591045528
 20
128.3255142951
 10
136.0091113428
 20
128.2660433177
 10
135.6676381055
 20
128.2543211722
 10
135.3439960854
 20
128.2878576586
 10
135.043859717
 20
128.3634713015
 10
134.7700217625
 20
128.4786602967
 10
134.5281239126
 20
128.6297145986
 10
134.3023836611
 20
128.8258836093
 10
134.0885908714
 20
129.0693800701
 10
133.9173384791
 20
129.3243556812
 10
133.7806511944
 20
129.5988122836
 10
133.6750784574
 20
129.9039676918
 10
133.6154763067
 20
130.1984776711
 10
133.6030447342
 20
130.482467738
 10
133.6371984433
 20
130.7752410634
 10
133.7184867668
 20
131.0717990503
 10
133.8477934934
 20
131.3683446036
  0
LWPOLYLINE
  5
499
100
AcDbEntity
  8
RUNDUNGEN
100
AcDbPolyline
 62
7
  6
CONTINUOUS
 90
4
 70
0
 10
78.3250587997
 20
69.843842283
 10
78.2961393807
 20
69.8201028986
 10
78.2392133502
 20
69.7606410511
 10
78.1925812633
 20
69.6922372323
  0
LINE
  5
49A
100
AcDbEntity
  8
RUNDUNGEN
100
AcDbLine
 62
7
  6
CONTINUOUS
 10
140.4301837365
 20
110.9032874841
 11
140.7630255514
 21
111.0599137396
  0
LWPOLYLINE
  5
49B
100
AcDbEntity
  8
RUNDUNGEN
100
AcDbPolyline
 62
7
  6
CONTINUOUS
 90
21
 70
0
 10
142.608581722
 20
107.007545155
 10
142.3140538994
 20
106.9076554748
 10
141.9713731189
 20
106.8452497107
 10
141.5929455954
 20
106.8349671487
 10
141.2090764448
 20
106.8825588349
 10
140.8350829017
 20
106.9851737149
 10
140.4956751589
 20
107.1324589019
 10
140.1937150987
 20
107.3188950725
 10
139.934003658
 20
107.539200401
 10
139.725063997
 20
107.7831013572
 10
139.5684382289
 20
108.0445910947
 10
139.4548055693
 20
108.3375612109
 10
139.3797465839
 20
108.670610332
 10
139.3517490185
 20
109.0023719801
 10
139.3700065606
 20
109.3320167871
 10
139.4355134328
 20
109.6671879041
 10
139.5407745301
 20
109.9679274039
 10
139.6877141903
 20
110.233554804
 10
139.886551095
 20
110.4823448352
 10
140.1369701875
 20
110.709313866
 10
140.4301837365
 20
110.9032874841
  0
LINE
  5
49C
100
AcDbEntity
  8
0
100
AcDbLine
 62
7
  6
CONTINUOUS
 10
90.3046147728
 20
140.9543038368
 11
90.6434664006
 21
141.0419371842
  0
LINE
  5
49D
100
AcDbEntity
  8
0
100
AcDbLine
 62
7
  6
CONTINUOUS
 10
90.5763429937
 20
141.3014830803
 11
90.2374913659
 21
141.2138497329
  0
LINE
  5
49E
100
AcDbEntity
  8
0
100
AcDbLine
 62
7
  6
CONTINUOUS
 10
89.8203291588
 20
141.4290199415
 11
89.5661904682
 21
141.3632949388
  0
LINE
  5
49F
100
AcDbEntity
  8
0
100
AcDbLine
 62
7
  6
CONTINUOUS
 10
90.1543957821
 20
141.8846228328
 11
90.4085344727
 21
141.9503478355
  0
LINE
  5
4A0
100
AcDbEntity
  8
0
100
AcDbLine
 62
7
  6
CONTINUOUS
 10
90.3414110736
 20
142.2098937013
 11
90.0872723831
 21
142.1441686986
  0
LINE
  5
4A1
100
AcDbEntity
  8
0
100
AcDbLine
 62
7
  6
CONTINUOUS
 10
90.4948645737
 20
142.6649376082
 11
90.7490032642
 21
142.7306626109
  0
LINE
  5
4A2
100
AcDbEntity
  8
0
100
AcDbLine
 62
7
  6
CONTINUOUS
 10
89.9306510874
 20
142.7497758399
 11
90.1847897779
 21
142.8155008426
  0
LINE
  5
4A3
100
AcDbEntity
  8
0
100
AcDbLine
 62
7
  6
CONTINUOUS
 10
90.0753099103
 20
143.064092536
 11
89.8635276884
 21
143.0093217057
  0
LINE
  5
4A4
100
AcDbEntity
  8
0
100
AcDbLine
 62
7
  6
CONTINUOUS
 10
91.8790421039
 20
141.3298631467
 11
92.1357745927
 21
141.3845868087
  0
LINE
  5
4A5
100
AcDbEntity
  8
0
100
AcDbLine
 62
7
  6
CONTINUOUS
 10
91.6979852965
 20
143.4384467192
 11
91.4412528077
 21
143.3837230572
  0
LINE
  5
4A6
100
AcDbEntity
  8
0
100
AcDbLine
 62
7
  6
CONTINUOUS
 10
103.1223656425
 20
143.5692793017
 11
103.2583680853
 21
143.5962288102
  0
LINE
  5
4A7
100
AcDbEntity
  8
0
100
AcDbLine
 62
7
  6
CONTINUOUS
 10
98.8026452102
 20
143.8885772756
 11
99.0218280827
 21
143.9310821322
  0
LINE
  5
4A8
100
AcDbEntity
  8
RUNDUNGEN
100
AcDbLine
 62
7
  6
CONTINUOUS
 10
60.8106586805
 20
137.8356952198
 11
63.7782612901
 21
138.3812547594
  0
LINE
  5
4A9
100
AcDbEntity
  8
0
100
AcDbLine
 62
7
  6
CONTINUOUS
 10
105.7142134619
 20
142.5965025302
 11
105.5768467944
 21
142.5777052131
  0
LINE
  5
4AA
100
AcDbEntity
  8
RUNDUNGEN
100
AcDbLine
 62
7
  6
CONTINUOUS
 10
60.8205508571
 20
137.8379634524
 11
60.6285024784
 21
137.8118755802
  0
LINE
  5
4AB
100
AcDbEntity
  8
0
100
AcDbLine
 62
7
  6
CONTINUOUS
 10
99.067796293
 20
144.1540405694
 11
98.7611170734
 21
144.112405234
  0
LINE
  5
4AC
100
AcDbEntity
  8
0
100
AcDbLine
 62
7
  6
CONTINUOUS
 10
94.2858434343
 20
142.5189138958
 11
94.8937779798
 21
142.5935600132
  0
LINE
  5
4AD
100
AcDbEntity
  8
0
100
AcDbLine
 62
7
  6
CONTINUOUS
 10
94.8665514355
 20
142.8152990324
 11
94.25861689
 21
142.740652915
  0
LINE
  5
4AE
100
AcDbEntity
  8
0
100
AcDbLine
 62
7
  6
CONTINUOUS
 10
103.4913348316
 20
142.0325965751
 11
103.3119665282
 21
142.0114268786
  0
LINE
  5
4AF
100
AcDbEntity
  8
0
100
AcDbLine
 62
7
  6
CONTINUOUS
 10
103.2937853417
 20
143.8619640639
 11
103.1144160456
 21
143.8407944997
  0
LINE
  5
4B0
100
AcDbEntity
  8
0
100
AcDbLine
 62
7
  6
CONTINUOUS
 10
95.3333706618
 20
141.8884430729
 11
97.078116017
 21
142.0239534473
  0
LINE
  5
4B1
100
AcDbEntity
  8
0
100
AcDbLine
 62
7
  6
CONTINUOUS
 10
97.057356979
 20
142.2912336116
 11
95.574323452
 21
142.1760497953
  0
LINE
  5
4B2
100
AcDbEntity
  8
0
100
AcDbLine
 62
7
  6
CONTINUOUS
 10
95.1880573933
 20
143.7594042544
 11
96.7147093919
 21
143.8779758175
  0
LINE
  5
4B3
100
AcDbEntity
  8
0
100
AcDbLine
 62
7
  6
CONTINUOUS
 10
96.9155035522
 20
144.1176480731
 11
95.170758197
 21
143.9821376987
  0
LINE
  5
4B4
100
AcDbEntity
  8
0
100
AcDbLine
 62
7
  6
CONTINUOUS
 10
107.70242622
 20
142.1221540999
 11
107.5641765583
 21
142.1116673692
  0
LINE
  5
4B5
100
AcDbEntity
  8
0
100
AcDbLine
 62
7
  6
CONTINUOUS
 10
103.2765492678
 20
141.7456915938
 11
103.4992844248
 21
141.7610813499
  0
LINE
  5
4B6
100
AcDbEntity
  8
0
100
AcDbLine
 62
7
  6
CONTINUOUS
 10
90.0816453167
 20
140.9427906545
 11
90.3046147728
 21
140.9543038368
  0
LINE
  5
4B7
100
AcDbEntity
  8
0
100
AcDbLine
 62
7
  6
CONTINUOUS
 10
90.5643805287
 20
142.2214068874
 11
90.3414110736
 21
142.2098937013
  0
LINE
  5
4B8
100
AcDbEntity
  8
0
100
AcDbLine
 62
7
  6
CONTINUOUS
 10
90.298279426
 20
143.0756057378
 11
90.0753099103
 21
143.064092536
  0
LINE
  5
4B9
100
AcDbEntity
  8
0
100
AcDbLine
 62
7
  6
CONTINUOUS
 10
97.6908695993
 20
142.0379436166
 11
97.9532312999
 21
142.0464634796
  0
LINE
  5
4BA
100
AcDbEntity
  8
0
100
AcDbLine
 62
7
  6
CONTINUOUS
 10
97.885072396
 20
144.1453570843
 11
97.6227106954
 21
144.1368372213
  0
LINE
  5
4BB
100
AcDbEntity
  8
0
100
AcDbLine
 62
7
  6
CONTINUOUS
 10
105.4827121103
 20
142.3229065473
 11
105.7059685264
 21
142.3249963014
  0
LINE
  5
4BC
100
AcDbEntity
  8
0
100
AcDbLine
 62
7
  6
CONTINUOUS
 10
90.2374913659
 20
141.2138497329
 11
90.0568783492
 21
141.2132907113
  0
LINE
  5
4BD
100
AcDbEntity
  8
0
100
AcDbLine
 62
7
  6
CONTINUOUS
 10
89.9737827351
 20
141.8840638034
 11
90.1543957821
 21
141.8846228328
  0
LINE
  5
4BE
100
AcDbEntity
  8
0
100
AcDbLine
 62
7
  6
CONTINUOUS
 10
90.4085344727
 20
141.9503478355
 11
90.5891475197
 21
141.9509068649
  0
LINE
  5
4BF
100
AcDbEntity
  8
0
100
AcDbLine
 62
7
  6
CONTINUOUS
 10
92.9877828613
 20
141.5928741851
 11
93.2540582066
 21
141.5926118293
  0
LINE
  5
4C0
100
AcDbEntity
  8
0
100
AcDbLine
 62
7
  6
CONTINUOUS
 10
93.1699948525
 20
143.6629201224
 11
92.9037195079
 21
143.6631824743
  0
LINE
  5
4C1
100
AcDbEntity
  8
0
100
AcDbLine
 62
7
  6
CONTINUOUS
 10
98.3032150021
 20
142.0615351297
 11
99.8781372345
 21
142.0458838684
  0
LINE
  5
4C2
100
AcDbEntity
  8
0
100
AcDbLine
 62
7
  6
CONTINUOUS
 10
99.8803572716
 20
142.2692770975
 11
98.6554174237
 21
142.281450304
  0
LINE
  5
4C3
100
AcDbEntity
  8
0
100
AcDbLine
 62
7
  6
CONTINUOUS
 10
98.3629464417
 20
143.6695316537
 11
98.5816863082
 21
143.6673578608
  0
LINE
  5
4C4
100
AcDbEntity
  8
0
100
AcDbLine
 62
7
  6
CONTINUOUS
 10
99.0218280827
 20
143.9310821322
 11
99.1968197756
 21
143.9293430999
  0
LINE
  5
4C5
100
AcDbEntity
  8
0
100
AcDbLine
 62
7
  6
CONTINUOUS
 10
99.242787986
 20
144.1523015371
 11
99.067796293
 21
144.1540405694
  0
LINE
  5
4C6
100
AcDbEntity
  8
0
100
AcDbLine
 62
7
  6
CONTINUOUS
 10
93.2167881315
 20
141.8128853068
 11
92.9936497576
 21
141.8204463956
  0
LINE
  5
4C7
100
AcDbEntity
  8
0
100
AcDbLine
 62
7
  6
CONTINUOUS
 10
92.9409895778
 20
143.4429090277
 11
93.1641281985
 21
143.4353479807
  0
LINE
  5
4C8
100
AcDbEntity
  8
0
100
AcDbLine
 62
7
  6
CONTINUOUS
 10
90.0872723831
 20
142.1441686986
 11
89.9490158047
 21
142.1545638415
  0
LINE
  5
4C9
100
AcDbEntity
  8
0
100
AcDbLine
 62
7
  6
CONTINUOUS
 10
90.1847897779
 20
142.8155008426
 11
90.3230462958
 21
142.805105684
  0
LINE
  5
4CA
100
AcDbEntity
  8
RUNDUNGEN
100
AcDbLine
 62
7
  6
CONTINUOUS
 10
136.9173408365
 20
137.8097634385
 11
136.7047239044
 21
137.8379362642
  0
LINE
  5
4CB
100
AcDbEntity
  8
0
100
AcDbLine
 62
7
  6
CONTINUOUS
 10
102.9296164279
 20
141.7919308832
 11
103.2765492678
 21
141.7456915938
  0
LINE
  5
4CC
100
AcDbEntity
  8
0
100
AcDbLine
 62
7
  6
CONTINUOUS
 10
103.3119665282
 20
142.0114268786
 11
102.9650336883
 21
142.057666168
  0
LINE
  5
4CD
100
AcDbEntity
  8
0
100
AcDbLine
 62
7
  6
CONTINUOUS
 10
102.6594219775
 20
142.4139298189
 11
102.3992228438
 21
142.4486092198
  0
LINE
  5
4CE
100
AcDbEntity
  8
0
100
AcDbLine
 62
7
  6
CONTINUOUS
 10
103.1403105478
 20
142.7104445069
 11
103.4005096814
 21
142.675765106
  0
LINE
  5
4CF
100
AcDbEntity
  8
0
100
AcDbLine
 62
7
  6
CONTINUOUS
 10
103.4359269377
 20
142.9415003597
 11
103.1757278041
 21
142.9761797607
  0
LINE
  5
4D0
100
AcDbEntity
  8
0
100
AcDbLine
 62
7
  6
CONTINUOUS
 10
103.7492519724
 20
143.3054239635
 11
104.009451106
 21
143.2707445625
  0
LINE
  5
4D1
100
AcDbEntity
  8
0
100
AcDbLine
 62
7
  6
CONTINUOUS
 10
103.2583680853
 20
143.5962288102
 11
103.518567219
 21
143.5615494092
  0
LINE
  5
4D2
100
AcDbEntity
  8
0
100
AcDbLine
 62
7
  6
CONTINUOUS
 10
103.5106176222
 20
143.8330646072
 11
103.2937853417
 21
143.8619640639
  0
LINE
  5
4D3
100
AcDbEntity
  8
0
100
AcDbLine
 62
7
  6
CONTINUOUS
 10
99.5048310173
 20
144.105014354
 11
99.242787986
 21
144.1523015371
  0
LINE
  5
4D4
100
AcDbEntity
  8
RUNDUNGEN
100
AcDbLine
 62
7
  6
CONTINUOUS
 10
133.7468371238
 20
138.3812571848
 11
136.7144492248
 21
137.8356959003
  0
LINE
  5
4D5
100
AcDbEntity
  8
0
100
AcDbLine
 62
7
  6
CONTINUOUS
 10
104.2728685565
 20
141.602364045
 11
104.5305387855
 21
141.5522411648
  0
LINE
  5
4D6
100
AcDbEntity
  8
0
100
AcDbLine
 62
7
  6
CONTINUOUS
 10
104.7097014234
 20
142.4732751877
 11
105.4827121103
 21
142.3229065473
  0
LINE
  5
4D7
100
AcDbEntity
  8
0
100
AcDbLine
 62
7
  6
CONTINUOUS
 10
105.5768467944
 20
142.5777052131
 11
104.7608907417
 21
142.7364277306
  0
LINE
  5
4D8
100
AcDbEntity
  8
0
100
AcDbLine
 62
7
  6
CONTINUOUS
 10
104.8888640614
 20
143.3943092107
 11
105.704820114
 21
143.2355866931
  0
LINE
  5
4D9
100
AcDbEntity
  8
0
100
AcDbLine
 62
7
  6
CONTINUOUS
 10
105.7045325135
 20
143.463234356
 11
104.6738515977
 21
143.6637258765
  0
LINE
  5
4DA
100
AcDbEntity
  8
0
100
AcDbLine
 62
7
  6
CONTINUOUS
 10
99.1968197756
 20
143.9293430999
 11
99.4151146334
 21
143.8824906773
  0
LINE
  5
4DB
100
AcDbEntity
  8
0
100
AcDbLine
 62
7
  6
CONTINUOUS
 10
106.2038032766
 20
141.2166634681
 11
106.4579854518
 21
141.1511068376
  0
LINE
  5
4DC
100
AcDbEntity
  8
0
100
AcDbLine
 62
7
  6
CONTINUOUS
 10
107.5170772021
 20
140.8779543771
 11
107.813624366
 21
140.801471308
  0
LINE
  5
4DD
100
AcDbEntity
  8
0
100
AcDbLine
 62
7
  6
CONTINUOUS
 10
106.6923155387
 20
142.0596729235
 11
107.4124990149
 21
141.8739289703
  0
LINE
  5
4DE
100
AcDbEntity
  8
0
100
AcDbLine
 62
7
  6
CONTINUOUS
 10
107.5641765583
 20
142.1116673692
 11
106.7592669832
 21
142.3192631992
  0
LINE
  5
4DF
100
AcDbEntity
  8
0
100
AcDbLine
 62
7
  6
CONTINUOUS
 10
106.9266456256
 20
142.9682390095
 11
107.7315552007
 21
142.7606431796
  0
LINE
  5
4E0
100
AcDbEntity
  8
0
100
AcDbLine
 62
7
  6
CONTINUOUS
 10
107.7449850217
 20
142.9878943476
 11
106.7282563208
 21
143.2501208698
  0
LINE
  5
4E1
100
AcDbEntity
  8
0
100
AcDbLine
 62
7
  6
CONTINUOUS
 10
102.7186870239
 20
141.8651195528
 11
102.9296164279
 21
141.7919308832
  0
LINE
  5
4E2
100
AcDbEntity
  8
0
100
AcDbLine
 62
7
  6
CONTINUOUS
 10
103.6468563422
 20
142.8683116941
 11
103.4359269377
 21
142.9415003597
  0
LINE
  5
4E3
100
AcDbEntity
  8
0
100
AcDbLine
 62
7
  6
CONTINUOUS
 10
103.7215470266
 20
143.7598759416
 11
103.5106176222
 21
143.8330646072
  0
LINE
  5
4E4
100
AcDbEntity
  8
RUNDUNGEN
100
AcDbLine
 62
7
  6
CONTINUOUS
 10
80.2949424429
 20
152.9532574913
 11
83.137741461
 21
151.941924607
  0
LINE
  5
4E5
100
AcDbEntity
  8
0
100
AcDbLine
 62
7
  6
CONTINUOUS
 10
102.9650336883
 20
142.057666168
 11
102.797471137
 21
142.1250748894
  0
LINE
  5
4E6
100
AcDbEntity
  8
0
100
AcDbLine
 62
7
  6
CONTINUOUS
 10
102.9727470039
 20
142.7778533606
 11
103.1403105478
 21
142.7104445069
  0
LINE
  5
4E7
100
AcDbEntity
  8
0
100
AcDbLine
 62
7
  6
CONTINUOUS
 10
103.4005096814
 20
142.675765106
 11
103.5680722327
 21
142.6083563846
  0
LINE
  5
4E8
100
AcDbEntity
  8
RUNDUNGEN
100
AcDbLine
 62
7
  6
CONTINUOUS
 10
80.3046434355
 20
152.95027575
 11
80.1252807247
 21
153.0237071793
  0
LINE
  5
4E9
100
AcDbEntity
  8
0
100
AcDbLine
 62
7
  6
CONTINUOUS
 10
105.9107258236
 20
143.3776065958
 11
105.7045325135
 21
143.463234356
  0
LINE
  5
4EA
100
AcDbEntity
  8
0
100
AcDbLine
 62
7
  6
CONTINUOUS
 10
107.9456455733
 20
142.8899986095
 11
107.7449850217
 21
142.9878943476
  0
LINE
  5
4EB
100
AcDbEntity
  8
RUNDUNGEN
100
AcDbLine
 62
7
  6
CONTINUOUS
 10
80.1252807247
 20
153.0237071793
 11
79.9021424712
 21
153.1336095252
  0
LINE
  5
4EC
100
AcDbEntity
  8
0
100
AcDbLine
 62
7
  6
CONTINUOUS
 10
103.1757278041
 20
142.9761797607
 11
103.0515311133
 21
143.0378086701
  0
LINE
  5
4ED
100
AcDbEntity
  8
0
100
AcDbLine
 62
7
  6
CONTINUOUS
 10
103.518567219
 20
143.5615494092
 11
103.6427639098
 21
143.4999204998
  0
LINE
  5
4EE
100
AcDbEntity
  8
0
100
AcDbLine
 62
7
  6
CONTINUOUS
 10
99.6789336942
 20
144.0139180525
 11
99.5048310173
 21
144.105014354
  0
LINE
  5
4EF
100
AcDbEntity
  8
0
100
AcDbLine
 62
7
  6
CONTINUOUS
 10
105.704820114
 20
143.2355866931
 11
105.8251236754
 21
143.1666664959
  0
LINE
  5
4F0
100
AcDbEntity
  8
0
100
AcDbLine
 62
7
  6
CONTINUOUS
 10
107.7315552007
 20
142.7606431796
 11
107.8474877142
 21
142.6845998184
  0
LINE
  5
4F1
100
AcDbEntity
  8
RUNDUNGEN
100
AcDbLine
 62
7
  6
CONTINUOUS
 10
146.3999702279
 20
114.7404954704
 11
146.1922966971
 21
114.8774588319
  0
LINE
  5
4F2
100
AcDbEntity
  8
0
100
AcDbLine
 62
7
  6
CONTINUOUS
 10
102.811086336
 20
142.8895514232
 11
102.9727470039
 21
142.7778533606
  0
LINE
  5
4F3
100
AcDbEntity
  8
0
100
AcDbLine
 62
7
  6
CONTINUOUS
 10
103.80851701
 20
142.7566136314
 11
103.6468563422
 21
142.8683116941
  0
LINE
  5
4F4
100
AcDbEntity
  8
RUNDUNGEN
100
AcDbLine
 62
7
  6
CONTINUOUS
 10
146.1922966971
 20
114.8774588319
 11
146.0222514455
 21
115.0081656807
  0
LINE
  5
4F5
100
AcDbEntity
  8
0
100
AcDbLine
 62
7
  6
CONTINUOUS
 10
106.0569116447
 20
143.2126150072
 11
105.9107258236
 21
143.3776065958
  0
LINE
  5
4F6
100
AcDbEntity
  8
0
100
AcDbLine
 62
7
  6
CONTINUOUS
 10
108.0816239882
 20
142.7164992181
 11
107.9456455733
 21
142.8899986095
  0
LINE
  5
4F7
100
AcDbEntity
  8
RUNDUNGEN
100
AcDbLine
 62
7
  6
CONTINUOUS
 10
104.6159017773
 20
156.4491506593
 11
104.4776095542
 21
156.6558980095
  0
LINE
  5
4F8
100
AcDbEntity
  8
RUNDUNGEN
100
AcDbLine
 62
7
  6
CONTINUOUS
 10
142.9980531042
 20
89.944555179
 11
142.8698606607
 21
90.1575720292
  0
LINE
  5
4F9
100
AcDbEntity
  8
RUNDUNGEN
100
AcDbLine
 62
7
  6
CONTINUOUS
 10
104.4776095542
 20
156.6558980095
 11
104.355827191
 21
156.8726117556
  0
LWPOLYLINE
  5
4FA
100
AcDbEntity
  8
RUNDUNGEN
100
AcDbPolyline
 62
7
  6
CONTINUOUS
 90
3
 70
0
 10
127.5381235035
 20
147.1703612056
 10
127.5217326002
 20
147.4185557746
 10
127.524622853
 20
147.6671265657
  0
LWPOLYLINE
  5
4FB
100
AcDbEntity
  8
RUNDUNGEN
100
AcDbPolyline
 62
7
  6
CONTINUOUS
 90
3
 70
0
 10
127.5257438644
 20
70.3846163879
 10
127.5212343768
 20
70.6331906133
 10
127.5360113618
 20
70.8815228475
  0
LWPOLYLINE
  5
4FC
100
AcDbEntity
  8
RUNDUNGEN
100
AcDbPolyline
 62
7
  6
CONTINUOUS
 90
3
 70
0
 10
104.2447198327
 20
60.958844018
 10
104.3463616119
 20
61.1813671182
 10
104.4667433938
 20
61.398893456
  0
LINE
  5
4FD
100
AcDbEntity
  8
RUNDUNGEN
100
AcDbLine
 62
7
  6
CONTINUOUS
 10
142.9866458765
 20
128.1105447061
 11
143.1399428674
 21
128.327346486
  0
LINE
  5
4FE
100
AcDbEntity
  8
RUNDUNGEN
100
AcDbLine
 62
7
  6
CONTINUOUS
 10
143.0211885758
 20
128.3636204203
 11
142.6054804878
 21
127.8764423041
  0
LINE
  5
4FF
100
AcDbEntity
  8
0
100
AcDbLine
 62
7
  6
CONTINUOUS
 10
108.8625558036
 20
87.6363078802
 11
110.0625558036
 21
88.8363078802
  0
LINE
  5
500
100
AcDbEntity
  8
0
100
AcDbLine
 62
7
  6
CONTINUOUS
 10
118.9625558036
 20
97.7363078802
 11
120.1625558036
 21
98.9363078802
  0
LINE
  5
501
100
AcDbEntity
  8
RUNDUNGEN
100
AcDbLine
 62
7
  6
CONTINUOUS
 10
79.9224213798
 20
65.193383196
 11
79.4352432635
 21
64.777675108
  0
LINE
  5
502
100
AcDbEntity
  8
RUNDUNGEN
100
AcDbLine
 62
7
  6
CONTINUOUS
 10
78.596497878
 20
70.0501608308
 11
78.3250585366
 21
69.8438426291
  0
LINE
  5
503
100
AcDbEntity
  8
RUNDUNGEN
100
AcDbLine
 62
7
  6
CONTINUOUS
 10
142.9229749815
 20
107.1394670776
 11
142.6085785085
 21
107.007552814
  0
LINE
  5
504
100
AcDbEntity
  8
RUNDUNGEN
100
AcDbLine
 62
7
  6
CONTINUOUS
 10
146.7553123912
 20
103.6449351407
 11
146.1517095682
 21
103.4308805599
  0
LINE
  5
505
100
AcDbEntity
  8
RUNDUNGEN
100
AcDbLine
 62
7
  6
CONTINUOUS
 10
143.7323068123
 20
116.9576387907
 11
146.029553556
 21
115.0013628784
  0
LINE
  5
506
100
AcDbEntity
  8
RUNDUNGEN
100
AcDbLine
 62
7
  6
CONTINUOUS
 10
104.7276082915
 20
156.3033085804
 11
106.6838780169
 21
154.0060691019
  0
LINE
  5
507
100
AcDbEntity
  8
RUNDUNGEN
100
AcDbLine
 62
7
  6
CONTINUOUS
 10
104.7345187185
 20
156.2958758306
 11
104.6159017773
 21
156.4491506593
  0
LINE
  5
508
100
AcDbEntity
  8
RUNDUNGEN
100
AcDbLine
 62
7
  6
CONTINUOUS
 10
142.8698606607
 20
90.1575720292
 11
142.7584917881
 21
90.3800225451
  0
LINE
  5
509
100
AcDbEntity
  8
RUNDUNGEN
100
AcDbLine
 62
7
  6
CONTINUOUS
 10
142.7584917881
 20
90.3800225451
 11
142.6765817046
 21
90.578240623
  0
LINE
  5
50A
100
AcDbEntity
  8
RUNDUNGEN
100
AcDbLine
 62
7
  6
CONTINUOUS
 10
127.5360113618
 20
70.8815228475
 11
127.5641841877
 21
71.0941397803
  0
LINE
  5
50B
100
AcDbEntity
  8
RUNDUNGEN
100
AcDbLine
 62
7
  6
CONTINUOUS
 10
142.7499551027
 20
127.6735829593
 11
142.8598574486
 21
127.8967212128
  0
LINE
  5
50C
100
AcDbEntity
  8
RUNDUNGEN
100
AcDbLine
 62
7
  6
CONTINUOUS
 10
142.8598574486
 20
127.8967212128
 11
142.9866458765
 21
128.1105447061
  0
LINE
  5
50D
100
AcDbEntity
  8
RUNDUNGEN
100
AcDbLine
 62
7
  6
CONTINUOUS
 10
79.4715171894
 20
64.6589208115
 11
79.6708031024
 21
64.8008105796
  0
LINE
  5
50E
100
AcDbEntity
  8
RUNDUNGEN
100
AcDbLine
 62
7
  6
CONTINUOUS
 10
146.5988596789
 20
103.4430364928
 11
146.8400196573
 21
103.5541438463
  0
LINE
  5
50F
100
AcDbEntity
  8
RUNDUNGEN
100
AcDbLine
 62
7
  6
CONTINUOUS
 10
141.6681680342
 20
93.4115061761
 11
142.679504117
 21
90.568698167
  0
LINE
  5
510
100
AcDbEntity
  8
RUNDUNGEN
100
AcDbLine
 62
7
  6
CONTINUOUS
 10
127.5619431431
 20
146.9882050034
 11
128.1075026827
 21
144.0206023937
  0
LINE
  5
511
100
AcDbEntity
  8
RUNDUNGEN
100
AcDbLine
 62
7
  6
CONTINUOUS
 10
127.5642113741
 20
146.9783128364
 11
127.5381235035
 21
147.1703612056
  0
LINE
  5
512
100
AcDbEntity
  8
RUNDUNGEN
100
AcDbLine
 62
7
  6
CONTINUOUS
 10
128.1075051082
 20
74.05202656
 11
127.5619438015
 21
71.0844143383
  0
LINE
  5
513
100
AcDbEntity
  8
RUNDUNGEN
100
AcDbLine
 62
7
  6
CONTINUOUS
 10
142.6795054146
 20
127.5039212409
 11
141.6681725304
 21
124.6611222228
  0
LINE
  5
514
100
AcDbEntity
  8
RUNDUNGEN
100
AcDbLine
 62
7
  6
CONTINUOUS
 10
142.6765236768
 20
127.4942202576
 11
142.7499551027
 21
127.6735829593
  0
LINE
  5
515
100
AcDbEntity
  8
RUNDUNGEN
100
AcDbLine
 62
7
  6
CONTINUOUS
 10
104.4667433938
 20
61.398893456
 11
104.6037067553
 21
61.6065669868
  0
LINE
  5
516
100
AcDbEntity
  8
RUNDUNGEN
100
AcDbLine
 62
7
  6
CONTINUOUS
 10
104.6037067553
 20
61.6065669868
 11
104.7344136046
 21
61.7766122389
  0
LINE
  5
517
100
AcDbEntity
  8
RUNDUNGEN
100
AcDbLine
 62
7
  6
CONTINUOUS
 10
146.1753985826
 20
103.1829619065
 11
146.3821459328
 21
103.3212541296
  0
LINE
  5
518
100
AcDbEntity
  8
RUNDUNGEN
100
AcDbLine
 62
7
  6
CONTINUOUS
 10
79.6708031024
 20
64.8008105796
 11
79.8838199526
 21
64.9290030231
  0
LINE
  5
519
100
AcDbEntity
  8
RUNDUNGEN
100
AcDbLine
 62
7
  6
CONTINUOUS
 10
146.3821459328
 20
103.3212541296
 11
146.5988596789
 21
103.4430364928
  0
LINE
  5
51A
100
AcDbEntity
  8
RUNDUNGEN
100
AcDbLine
 62
7
  6
CONTINUOUS
 10
79.8838199526
 20
64.9290030231
 11
80.1062704685
 21
65.0403718958
  0
LINE
  5
51B
100
AcDbEntity
  8
RUNDUNGEN
100
AcDbLine
 62
7
  6
CONTINUOUS
 10
94.2050460617
 20
157.6180975573
 11
94.991000595
 21
157.6180975573
  0
LINE
  5
51C
100
AcDbEntity
  8
RUNDUNGEN
100
AcDbLine
 62
7
  6
CONTINUOUS
 10
102.5341110121
 20
157.6180975573
 11
103.3200655455
 21
157.6180975573
  0
LINE
  5
51D
100
AcDbEntity
  8
RUNDUNGEN
100
AcDbLine
 62
7
  6
CONTINUOUS
 10
103.3200655455
 20
157.7332008228
 11
102.5341110121
 21
157.7332008228
  0
LINE
  5
51E
100
AcDbEntity
  8
RUNDUNGEN
100
AcDbLine
 62
7
  6
CONTINUOUS
 10
94.991000595
 20
157.7332008228
 11
94.2050460617
 21
157.7332008228
  0
LINE
  5
51F
100
AcDbEntity
  8
RUNDUNGEN
100
AcDbLine
 62
7
  6
CONTINUOUS
 10
119.1065314276
 20
153.3881267728
 11
119.7871880197
 21
152.9951495061
  0
LINE
  5
520
100
AcDbEntity
  8
RUNDUNGEN
100
AcDbLine
 62
7
  6
CONTINUOUS
 10
126.3197132645
 20
149.2235942976
 11
127.0003698566
 21
148.8306170309
  0
LINE
  5
521
100
AcDbEntity
  8
RUNDUNGEN
100
AcDbLine
 62
7
  6
CONTINUOUS
 10
127.0579214894
 20
148.9302993829
 11
126.3772648972
 21
149.3232766496
  0
LINE
  5
522
100
AcDbEntity
  8
RUNDUNGEN
100
AcDbLine
 62
7
  6
CONTINUOUS
 10
119.8447396525
 20
153.0948318582
 11
119.1640830604
 21
153.4878091248
  0
LINE
  5
523
100
AcDbEntity
  8
RUNDUNGEN
100
AcDbLine
 62
7
  6
CONTINUOUS
 10
106.683886714
 20
64.0665568715
 11
104.7276108015
 21
61.7693101275
  0
LINE
  5
524
100
AcDbEntity
  8
RUNDUNGEN
100
AcDbLine
 62
7
  6
CONTINUOUS
 10
146.0295565038
 20
103.0712553923
 11
143.7323170253
 21
101.1149856669
  0
LINE
  5
525
100
AcDbEntity
  8
RUNDUNGEN
100
AcDbLine
 62
7
  6
CONTINUOUS
 10
146.0221237514
 20
103.0643449632
 11
146.1753985826
 21
103.1829619065
  0
LINE
  5
526
100
AcDbEntity
  8
RUNDUNGEN
100
AcDbLine
 62
7
  6
CONTINUOUS
 10
80.1062704685
 20
65.0403718958
 11
80.3044885473
 21
65.1222819796
  0
LINE
  5
527
100
AcDbEntity
  8
RUNDUNGEN
100
AcDbLine
 62
7
  6
CONTINUOUS
 10
83.1377540994
 20
66.1306956496
 11
80.2949460899
 21
65.1193595666
  0
LINE
  5
528
100
AcDbEntity
  8
RUNDUNGEN
100
AcDbLine
 62
7
  6
CONTINUOUS
 10
138.5568649542
 20
137.2741219332
 11
138.9498422209
 21
136.5934653411
  0
LINE
  5
529
100
AcDbEntity
  8
RUNDUNGEN
100
AcDbLine
 62
7
  6
CONTINUOUS
 10
142.7213974295
 20
130.0609400964
 11
143.1143746961
 21
129.3802835043
  0
LINE
  5
52A
100
AcDbEntity
  8
RUNDUNGEN
100
AcDbLine
 62
7
  6
CONTINUOUS
 10
143.2140570482
 20
129.437835137
 11
142.8210797815
 21
130.1184917292
  0
LINE
  5
52B
100
AcDbEntity
  8
RUNDUNGEN
100
AcDbLine
 62
7
  6
CONTINUOUS
 10
139.0495245729
 20
136.6510169739
 11
138.6565473063
 21
137.331673566
  0
LINE
  5
52C
100
AcDbEntity
  8
RUNDUNGEN
100
AcDbLine
 62
7
  6
CONTINUOUS
 10
147.3443454806
 20
113.5938176222
 11
147.3443454806
 21
112.8078630888
  0
LINE
  5
52D
100
AcDbEntity
  8
RUNDUNGEN
100
AcDbLine
 62
7
  6
CONTINUOUS
 10
147.3443454806
 20
105.2647526717
 11
147.3443454806
 21
104.4787981383
  0
LINE
  5
52E
100
AcDbEntity
  8
RUNDUNGEN
100
AcDbLine
 62
7
  6
CONTINUOUS
 10
147.4594487462
 20
104.4787981383
 11
147.4594487462
 21
105.2647526717
  0
LINE
  5
52F
100
AcDbEntity
  8
RUNDUNGEN
100
AcDbLine
 62
7
  6
CONTINUOUS
 10
147.4594487462
 20
112.8078630888
 11
147.4594487462
 21
113.5938176222
  0
LINE
  5
530
100
AcDbEntity
  8
RUNDUNGEN
100
AcDbLine
 62
7
  6
CONTINUOUS
 10
143.1143746961
 20
88.6923322562
 11
142.7213974295
 21
88.0116756641
  0
LINE
  5
531
100
AcDbEntity
  8
RUNDUNGEN
100
AcDbLine
 62
7
  6
CONTINUOUS
 10
138.9498422209
 20
81.4791504194
 11
138.5568649542
 21
80.7984938272
  0
LINE
  5
532
100
AcDbEntity
  8
RUNDUNGEN
100
AcDbLine
 62
7
  6
CONTINUOUS
 10
138.6565473063
 20
80.7409421945
 11
139.0495245729
 21
81.4215987866
  0
LINE
  5
533
100
AcDbEntity
  8
RUNDUNGEN
100
AcDbLine
 62
7
  6
CONTINUOUS
 10
142.8210797815
 20
87.9541240313
 11
143.2140570482
 21
88.6347806234
  0
LINE
  5
534
100
AcDbEntity
  8
RUNDUNGEN
100
AcDbLine
 62
7
  6
CONTINUOUS
 10
127.0003698566
 20
69.2419987296
 11
126.3197132645
 21
68.8490214629
  0
LINE
  5
535
100
AcDbEntity
  8
RUNDUNGEN
100
AcDbLine
 62
7
  6
CONTINUOUS
 10
119.7871880197
 20
65.0774662544
 11
119.1065314276
 21
64.6844889877
  0
LINE
  5
536
100
AcDbEntity
  8
RUNDUNGEN
100
AcDbLine
 62
7
  6
CONTINUOUS
 10
119.1640830604
 20
64.5848066356
 11
119.8447396525
 21
64.9777839023
  0
LINE
  5
537
100
AcDbEntity
  8
RUNDUNGEN
100
AcDbLine
 62
7
  6
CONTINUOUS
 10
126.3772648972
 20
68.7493391109
 11
127.0579214894
 21
69.1423163776
  0
LINE
  5
538
100
AcDbEntity
  8
RUNDUNGEN
100
AcDbLine
 62
7
  6
CONTINUOUS
 10
220.2495107338
 20
60.3395672454
 11
233.4215858202
 21
60.4545182032
  0
LINE
  5
539
100
AcDbEntity
  8
RUNDUNGEN
100
AcDbLine
 62
7
  6
CONTINUOUS
 10
207.0076233634
 20
60.4545182032
 11
220.1796984498
 21
60.3395672454
  0
LINE
  5
53A
100
AcDbEntity
  8
AUSFORMSCHRAEGEN
100
AcDbLine
 62
7
  6
CONTINUOUS
 10
220.2495107338
 20
64.4510047533
 11
233.4215858202
 21
64.5659557111
  0
LINE
  5
53B
100
AcDbEntity
  8
0
100
AcDbLine
 62
7
  6
CONTINUOUS
 10
219.5646045918
 20
63.9245135687
 11
220.8646045918
 21
63.9245135687
  0
LINE
  5
53C
100
AcDbEntity
  8
RUNDUNGEN
100
AcDbLine
 62
7
  6
CONTINUOUS
 10
220.1796984498
 20
64.4510047533
 11
220.2495107338
 21
64.4510047533
  0
LINE
  5
53D
100
AcDbEntity
  8
AUSFORMSCHRAEGEN
100
AcDbLine
 62
7
  6
CONTINUOUS
 10
207.0076233634
 20
64.5659557111
 11
220.1796984498
 21
64.4510047533
  0
LINE
  5
53E
100
AcDbEntity
  8
AUSFORMSCHRAEGEN
100
AcDbLine
 62
7
  6
CONTINUOUS
 10
220.2495107338
 20
68.5887423093
 11
233.4215858202
 21
68.7036932671
  0
LINE
  5
53F
100
AcDbEntity
  8
RUNDUNGEN
100
AcDbLine
 62
7
  6
CONTINUOUS
 10
220.1796984498
 20
68.5887423093
 11
220.2495107338
 21
68.5887423093
  0
LINE
  5
540
100
AcDbEntity
  8
AUSFORMSCHRAEGEN
100
AcDbLine
 62
7
  6
CONTINUOUS
 10
207.0076233634
 20
68.7036932671
 11
220.1796984498
 21
68.5887423093
  0
LINE
  5
541
100
AcDbEntity
  8
AUSFORMSCHRAEGEN
100
AcDbLine
 62
7
  6
CONTINUOUS
 10
220.2495107371
 20
80.241170659
 11
233.4215858202
 21
80.3561216168
  0
LINE
  5
542
100
AcDbEntity
  8
RUNDUNGEN
100
AcDbLine
 62
7
  6
CONTINUOUS
 10
220.1796984534
 20
80.2411706589
 11
220.2495107371
 21
80.241170659
  0
LINE
  5
543
100
AcDbEntity
  8
AUSFORMSCHRAEGEN
100
AcDbLine
 62
7
  6
CONTINUOUS
 10
207.0076233634
 20
80.3561216168
 11
220.1796984454
 21
80.241170659
  0
LINE
  5
544
100
AcDbEntity
  8
RUNDUNGEN
100
AcDbLine
 62
7
  6
CONTINUOUS
 10
208.9860464305
 20
85.2791076337
 11
208.7540583917
 21
85.2490461113
  0
LINE
  5
545
100
AcDbEntity
  8
RUNDUNGEN
100
AcDbLine
 62
7
  6
CONTINUOUS
 10
209.2315567473
 20
85.2988400026
 11
209.0143112145
 21
85.2817095964
  0
LINE
  5
546
100
AcDbEntity
  8
AUSFORMSCHRAEGEN
100
AcDbLine
 62
7
  6
CONTINUOUS
 10
213.2078031016
 20
85.3589334486
 11
213.1630677664
 21
85.3576724174
  0
LINE
  5
547
100
AcDbEntity
  8
AUSFORMSCHRAEGEN
100
AcDbLine
 62
7
  6
CONTINUOUS
 10
213.1630677664
 20
85.3576724174
 11
212.9193903146
 21
85.3518088675
  0
LINE
  5
548
100
AcDbEntity
  8
AUSFORMSCHRAEGEN
100
AcDbLine
 62
7
  6
CONTINUOUS
 10
212.9193903146
 20
85.3518088675
 11
212.2781922245
 21
85.3393580738
  0
LINE
  5
549
100
AcDbEntity
  8
AUSFORMSCHRAEGEN
100
AcDbLine
 62
7
  6
CONTINUOUS
 10
212.2781922245
 20
85.3393580738
 11
210.0681515696
 21
85.3092486454
  0
LINE
  5
54A
100
AcDbEntity
  8
AUSFORMSCHRAEGEN
100
AcDbLine
 62
7
  6
CONTINUOUS
 10
210.0681515696
 20
85.3092486454
 11
209.2844545144
 21
85.3009321792
  0
LINE
  5
54B
100
AcDbEntity
  8
AUSFORMSCHRAEGEN
100
AcDbLine
 62
7
  6
CONTINUOUS
 10
220.2495107338
 20
87.3543524958
 11
233.4215858202
 21
87.4693034536
  0
LINE
  5
54C
100
AcDbEntity
  8
RUNDUNGEN
100
AcDbLine
 62
7
  6
CONTINUOUS
 10
220.1796984499
 20
87.3543524958
 11
220.2495107338
 21
87.3543524958
  0
LINE
  5
54D
100
AcDbEntity
  8
AUSFORMSCHRAEGEN
100
AcDbLine
 62
7
  6
CONTINUOUS
 10
207.0076233634
 20
87.4693034536
 11
220.1796984498
 21
87.3543524958
  0
LINE
  5
54E
100
AcDbEntity
  8
AUSFORMSCHRAEGEN
100
AcDbLine
 62
7
  6
CONTINUOUS
 10
231.1449708984
 20
85.3009299821
 11
228.8222150517
 21
85.3286745104
  0
LINE
  5
54F
100
AcDbEntity
  8
AUSFORMSCHRAEGEN
100
AcDbLine
 62
7
  6
CONTINUOUS
 10
228.8222150517
 20
85.3286745104
 11
227.8746260972
 21
85.344381811
  0
LINE
  5
550
100
AcDbEntity
  8
AUSFORMSCHRAEGEN
100
AcDbLine
 62
7
  6
CONTINUOUS
 10
227.8746260972
 20
85.344381811
 11
227.418305161
 21
85.3538853041
  0
LWPOLYLINE
  5
551
100
AcDbEntity
  8
AUSFORMSCHRAEGEN
100
AcDbPolyline
 62
7
  6
CONTINUOUS
 90
3
 70
0
 10
227.418305161
 20
85.3538853041
 10
227.2438937164
 20
85.3582832813
 10
227.2287378319
 20
85.3587158554
  0
LINE
  5
552
100
AcDbEntity
  8
RUNDUNGEN
100
AcDbLine
 62
7
  6
CONTINUOUS
 10
231.4120002546
 20
85.2818569662
 11
231.2006395895
 21
85.2985945765
  0
LINE
  5
553
100
AcDbEntity
  8
RUNDUNGEN
100
AcDbLine
 62
7
  6
CONTINUOUS
 10
231.6756833045
 20
85.2489771067
 11
231.4431627078
 21
85.2791076396
  0
LWPOLYLINE
  5
554
100
AcDbEntity
  8
RUNDUNGEN
100
AcDbPolyline
 62
7
  6
CONTINUOUS
 90
4
 70
0
 10
226.8637740554
 20
78.0007083675
 10
226.8352811613
 20
78.0167339605
 10
226.7246948539
 20
78.0824610781
 10
226.6180322676
 20
78.1517704196
  0
LWPOLYLINE
  5
555
100
AcDbEntity
  8
RUNDUNGEN
100
AcDbPolyline
 62
7
  6
CONTINUOUS
 90
7
 70
0
 10
226.8619067406
 20
78.0017456349
 10
226.8092955119
 20
78.0315944742
 10
226.6855532423
 20
78.1071505451
 10
226.5658989113
 20
78.1878529123
 10
226.4505831887
 20
78.2734190155
 10
226.339834723
 20
78.363550495
 10
226.233859076
 20
78.4579350594
  0
LINE
  5
556
100
AcDbEntity
  8
RUNDUNGEN
100
AcDbLine
 62
7
  6
CONTINUOUS
 10
227.4820399834
 20
77.6413627617
 11
226.8637762539
 21
78.0007071519
  0
LINE
  5
557
100
AcDbEntity
  8
RUNDUNGEN
100
AcDbLine
 62
7
  6
CONTINUOUS
 10
233.1558225322
 20
64.2925942727
 11
232.8576892779
 21
64.5610346605
  0
LINE
  5
558
100
AcDbEntity
  8
0
100
AcDbLine
 62
7
  6
CONTINUOUS
 10
218.9785377859
 20
149.4294844264
 11
215.2455899049
 21
148.2165761348
  0
LWPOLYLINE
  5
559
100
AcDbEntity
  8
RUNDUNGEN
100
AcDbPolyline
 62
7
  6
CONTINUOUS
 90
3
 70
0
 10
208.7540868524
 20
85.249070321
 10
208.6778697828
 20
85.2343159508
 10
208.5921087761
 20
85.2050480245
  0
LINE
  5
55A
100
AcDbEntity
  8
RUNDUNGEN
100
AcDbLine
 62
7
  6
CONTINUOUS
 10
231.7361900776
 20
85.2380311756
 11
231.6750418618
 21
85.2490596109
  0
LWPOLYLINE
  5
55B
100
AcDbEntity
  8
RUNDUNGEN
100
AcDbPolyline
 62
7
  6
CONTINUOUS
 90
10
 70
0
 10
229.277554301
 20
85.3223450927
 10
228.9476525809
 20
85.4297062306
 10
228.5887750816
 20
85.5849008694
 10
228.2353839359
 20
85.7753503548
 10
227.8899794365
 20
85.9995613584
 10
227.5557242128
 20
86.2552359828
 10
227.2358656699
 20
86.5400640221
 10
226.9338636359
 20
86.8525908249
 10
226.6550754169
 20
87.1897493494
 10
226.5020827672
 20
87.4089178653
  0
LINE
  5
55C
100
AcDbEntity
  8
RUNDUNGEN
100
AcDbLine
 62
7
  6
CONTINUOUS
 10
228.2993259391
 20
77.1206747285
 11
227.4658219149
 21
77.6511867859
  0
LINE
  5
55D
100
AcDbEntity
  8
RUNDUNGEN
100
AcDbLine
 62
7
  6
CONTINUOUS
 10
229.135625772
 20
76.5391074556
 11
228.2826414775
 21
77.1318235544
  0
LWPOLYLINE
  5
55E
100
AcDbEntity
  8
RUNDUNGEN
100
AcDbPolyline
 62
7
  6
CONTINUOUS
 90
4
 70
0
 10
226.6180322676
 20
78.1517704196
 10
226.5153649469
 20
78.2244109167
 10
226.4167503926
 20
78.3001347294
 10
226.3222326294
 20
78.3786978869
  0
LINE
  5
55F
100
AcDbEntity
  8
RUNDUNGEN
100
AcDbLine
 62
7
  6
CONTINUOUS
 10
229.9858520881
 20
75.9004331637
 11
229.1187960435
 21
76.5512716262
  0
LINE
  5
560
100
AcDbEntity
  8
RUNDUNGEN
100
AcDbLine
 62
7
  6
CONTINUOUS
 10
230.8365262577
 20
75.2143103917
 11
230.8284050221
 21
75.2213156652
  0
LWPOLYLINE
  5
561
100
AcDbEntity
  8
RUNDUNGEN
100
AcDbPolyline
 62
7
  6
CONTINUOUS
 90
3
 70
0
 10
231.7074133273
 20
74.4625983712
 10
230.844987439
 20
75.2074859113
 10
229.9689152934
 20
75.9136666211
  0
LINE
  5
562
100
AcDbEntity
  8
RUNDUNGEN
100
AcDbLine
 62
7
  6
CONTINUOUS
 10
232.3890998961
 20
73.8365600684
 11
231.6918516285
 21
74.4765177174
  0
LINE
  5
563
100
AcDbEntity
  8
RUNDUNGEN
100
AcDbLine
 62
7
  6
CONTINUOUS
 10
233.1696976714
 20
73.0996288917
 11
232.3890982
 21
73.8365591257
  0
LWPOLYLINE
  5
564
100
AcDbEntity
  8
RUNDUNGEN
100
AcDbPolyline
 62
7
  6
CONTINUOUS
 90
15
 70
0
 10
226.2318428746
 20
78.4598608052
 10
226.1328379313
 20
78.5562483309
 10
226.0369283474
 20
78.6581558482
 10
225.9462623388
 20
78.7633149502
 10
225.8609401438
 20
78.8713852136
 10
225.7810617402
 20
78.9819885033
 10
225.7066911855
 20
79.0947508866
 10
225.637865544
 20
79.2092942074
 10
225.5746064262
 20
79.3252153914
 10
225.5168542119
 20
79.4422164756
 10
225.4645452448
 20
79.5599850597
 10
225.4176011027
 20
79.6782108271
 10
225.3759239862
 20
79.7965984683
 10
225.339404118
 20
79.9148502115
 10
225.3079128265
 20
80.0326876897
  0
LWPOLYLINE
  5
565
100
AcDbEntity
  8
RUNDUNGEN
100
AcDbPolyline
 62
7
  6
CONTINUOUS
 90
6
 70
0
 10
226.1456001125
 20
78.5433888345
 10
226.0635117835
 20
78.629052656
 10
225.9855743538
 20
78.7166287448
 10
225.9117740148
 20
78.8058996498
 10
225.8420872242
 20
78.8966543982
 10
225.7764814578
 20
78.9886885908
  0
LINE
  5
566
100
AcDbEntity
  8
RUNDUNGEN
100
AcDbLine
 62
7
  6
CONTINUOUS
 10
233.5288502275
 20
68.4768633358
 11
233.3238982857
 21
68.7028407609
  0
LINE
  5
567
100
AcDbEntity
  8
RUNDUNGEN
100
AcDbLine
 62
7
  6
CONTINUOUS
 10
212.694526284
 20
94.5021508985
 11
212.472087355
 21
94.4509252668
  0
LINE
  5
568
100
AcDbEntity
  8
RUNDUNGEN
100
AcDbLine
 62
7
  6
CONTINUOUS
 10
212.6938136065
 20
94.5019962002
 11
212.6944934142
 21
94.5021437435
  0
LINE
  5
569
100
AcDbEntity
  8
0
100
AcDbLine
 62
7
  6
CONTINUOUS
 10
225.2146045918
 20
97.3574244362
 11
225.4646045918
 21
97.3574244362
  0
LINE
  5
56A
100
AcDbEntity
  8
0
100
AcDbLine
 62
7
  6
CONTINUOUS
 10
225.2146045918
 20
98.2795298491
 11
225.4646045918
 21
98.2795298491
  0
LINE
  5
56B
100
AcDbEntity
  8
0
100
AcDbLine
 62
7
  6
CONTINUOUS
 10
225.2146045918
 20
98.3384380366
 11
225.4646045918
 21
98.3384380366
  0
LINE
  5
56C
100
AcDbEntity
  8
0
100
AcDbLine
 62
7
  6
CONTINUOUS
 10
225.2146045918
 20
98.5219404951
 11
225.4646045918
 21
98.5219404951
  0
LINE
  5
56D
100
AcDbEntity
  8
0
100
AcDbLine
 62
7
  6
CONTINUOUS
 10
225.2146045918
 20
98.9024830606
 11
225.4646045918
 21
98.9024830606
  0
LINE
  5
56E
100
AcDbEntity
  8
0
100
AcDbLine
 62
7
  6
CONTINUOUS
 10
225.2146045918
 20
99.0864212939
 11
225.4646045918
 21
99.0864212939
  0
LINE
  5
56F
100
AcDbEntity
  8
0
100
AcDbLine
 62
7
  6
CONTINUOUS
 10
225.2146045918
 20
99.1699195973
 11
225.4646045918
 21
99.1699195973
  0
LINE
  5
570
100
AcDbEntity
  8
0
100
AcDbLine
 62
7
  6
CONTINUOUS
 10
225.2699797138
 20
99.7616683909
 11
225.4646045918
 21
99.7616683909
  0
LINE
  5
571
100
AcDbEntity
  8
0
100
AcDbLine
 62
7
  6
CONTINUOUS
 10
225.2717142916
 20
99.7686176936
 11
225.4646045918
 21
99.7686176936
  0
LINE
  5
572
100
AcDbEntity
  8
RUNDUNGEN
100
AcDbLine
 62
7
  6
CONTINUOUS
 10
227.7346341472
 20
94.5021057545
 11
227.7351501667
 21
94.501993699
  0
LINE
  5
573
100
AcDbEntity
  8
RUNDUNGEN
100
AcDbLine
 62
7
  6
CONTINUOUS
 10
227.9741542364
 20
94.4466930585
 11
227.7345983371
 21
94.5021135489
  0
LWPOLYLINE
  5
574
100
AcDbEntity
  8
RUNDUNGEN
100
AcDbPolyline
 62
7
  6
CONTINUOUS
 90
12
 70
0
 10
227.7351248762
 20
94.5019989614
 10
227.5893757361
 20
94.5372646179
 10
227.2277961519
 20
94.6572455933
 10
226.8830125575
 20
94.8193601132
 10
226.5599290997
 20
95.021310475
 10
226.2631369883
 20
95.260229968
 10
225.9968479196
 20
95.5327275731
 10
225.7648334682
 20
95.834942696
 10
225.57040177
 20
96.1625540736
 10
225.4163209969
 20
96.5108432626
 10
225.3047141046
 20
96.8749535223
 10
225.2371460601
 20
97.2498061135
  0
LINE
  5
575
100
AcDbEntity
  8
RUNDUNGEN
100
AcDbLine
 62
7
  6
CONTINUOUS
 10
228.8499351215
 20
94.1883546784
 11
227.9741542364
 21
94.4466930585
  0
LINE
  5
576
100
AcDbEntity
  8
RUNDUNGEN
100
AcDbLine
 62
7
  6
CONTINUOUS
 10
207.5589708335
 20
102.7849688867
 11
208.3395705394
 21
102.5284887754
  0
LWPOLYLINE
  5
577
100
AcDbEntity
  8
RUNDUNGEN
100
AcDbPolyline
 62
7
  6
CONTINUOUS
 90
4
 70
0
 10
206.8971852279
 20
103.0873449651
 10
207.1297909047
 20
102.9575718035
 10
207.4061562385
 20
102.8387571664
 10
207.5594385824
 20
102.7848284942
  0
LWPOLYLINE
  5
578
100
AcDbEntity
  8
RUNDUNGEN
100
AcDbPolyline
 62
7
  6
CONTINUOUS
 90
4
 70
0
 10
231.923875383
 20
85.1594896206
 10
231.8946137896
 20
85.176852777
 10
231.8175064567
 20
85.2129851984
 10
231.7361900776
 20
85.2380311756
  0
LINE
  5
579
100
AcDbEntity
  8
RUNDUNGEN
100
AcDbLine
 62
7
  6
CONTINUOUS
 10
233.0473427024
 20
84.4507903197
 11
231.9236623408
 21
85.1596243771
  0
LINE
  5
57A
100
AcDbEntity
  8
RUNDUNGEN
100
AcDbLine
 62
7
  6
CONTINUOUS
 10
233.265886301
 20
73.0044305958
 11
233.2621134762
 21
73.0087869074
  0
LINE
  5
57B
100
AcDbEntity
  8
0
100
AcDbLine
 62
7
  6
CONTINUOUS
 10
231.6008153917
 20
152.3798809436
 11
231.8711574079
 21
152.6237014684
  0
LINE
  5
57C
100
AcDbEntity
  8
RUNDUNGEN
100
AcDbLine
 62
7
  6
CONTINUOUS
 10
226.2733866515
 20
147.5830483862
 11
233.1558225322
 21
153.7800214878
  0
LINE
  5
57D
100
AcDbEntity
  8
0
100
AcDbLine
 62
7
  6
CONTINUOUS
 10
231.9609330066
 20
148.1594053668
 11
231.9869039291
 21
148.1758307843
  0
LINE
  5
57E
100
AcDbEntity
  8
0
100
AcDbLine
 62
7
  6
CONTINUOUS
 10
231.9612265596
 20
148.1595788829
 11
231.749250877
 21
148.0335248214
  0
LINE
  5
57F
100
AcDbEntity
  8
RUNDUNGEN
100
AcDbLine
 62
7
  6
CONTINUOUS
 10
231.9611672367
 20
148.1595436362
 11
231.960936872
 21
148.1594070241
  0
LINE
  5
580
100
AcDbEntity
  8
0
100
AcDbLine
 62
7
  6
CONTINUOUS
 10
231.659538679
 20
147.9838399593
 11
231.7188071685
 21
148.0181783008
  0
LINE
  5
581
100
AcDbEntity
  8
RUNDUNGEN
100
AcDbLine
 62
7
  6
CONTINUOUS
 10
231.4069144646
 20
102.336620375
 11
232.0896813243
 21
102.5284942223
  0
LWPOLYLINE
  5
582
100
AcDbEntity
  8
RUNDUNGEN
100
AcDbPolyline
 62
7
  6
CONTINUOUS
 90
4
 70
0
 10
229.5825545511
 20
102.1179373307
 10
229.6867244805
 20
102.1194944901
 10
230.5449426725
 20
102.1821739789
 10
231.4069144646
 20
102.336620375
  0
LINE
  5
583
100
AcDbEntity
  8
AUSFORMSCHRAEGEN
100
AcDbLine
 62
7
  6
CONTINUOUS
 10
227.8900323896
 20
102.1032903239
 11
229.5827219841
 21
102.1180622022
  0
LINE
  5
584
100
AcDbEntity
  8
RUNDUNGEN
100
AcDbLine
 62
7
  6
CONTINUOUS
 10
227.9029821562
 20
102.1034033403
 11
227.9032588005
 21
102.1034057523
  0
LINE
  5
585
100
AcDbEntity
  8
RUNDUNGEN
100
AcDbLine
 62
7
  6
CONTINUOUS
 10
229.5822969624
 20
102.118058514
 11
229.5824962764
 21
102.1180602405
  0
LINE
  5
586
100
AcDbEntity
  8
AUSFORMSCHRAEGEN
100
AcDbLine
 62
7
  6
CONTINUOUS
 10
210.8465380765
 20
102.1180617582
 11
212.539430213
 21
102.1032881123
  0
LINE
  5
587
100
AcDbEntity
  8
RUNDUNGEN
100
AcDbLine
 62
7
  6
CONTINUOUS
 10
210.8467449534
 20
102.1180599608
 11
210.8473260135
 21
102.118054944
  0
LWPOLYLINE
  5
588
100
AcDbEntity
  8
RUNDUNGEN
100
AcDbPolyline
 62
7
  6
CONTINUOUS
 90
23
 70
0
 10
212.5259079634
 20
102.1034061252
 10
212.5349672303
 20
102.1032677467
 10
212.600068933
 20
102.1011725118
 10
212.6762135755
 20
102.0959317404
 10
212.7629033487
 20
102.0865756957
 10
212.8591892803
 20
102.0721792095
 10
212.9642122264
 20
102.0518379134
 10
213.0766231074
 20
102.0248000666
 10
213.1951731961
 20
101.9904013755
 10
213.3183164247
 20
101.9481955146
 10
213.4444552881
 20
101.8979422716
 10
213.5723870419
 20
101.8394189969
 10
213.7005633953
 20
101.7727284872
 10
213.8285498797
 20
101.6975270085
 10
213.9555864714
 20
101.6136501946
 10
214.0809907527
 20
101.5209123992
 10
214.2040194414
 20
101.4191903155
 10
214.3239209185
 20
101.3083916746
 10
214.439912059
 20
101.188476548
 10
214.5511598181
 20
101.059488652
 10
214.6568134182
 20
100.9215370649
 10
214.7560034055
 20
100.7748077275
 10
214.8413418662
 20
100.6313063018
  0
LWPOLYLINE
  5
589
100
AcDbEntity
  8
RUNDUNGEN
100
AcDbPolyline
 62
7
  6
CONTINUOUS
 90
5
 70
0
 10
208.3395299717
 20
102.5284932882
 10
209.007358813
 20
102.3401383637
 10
209.870657395
 20
102.1838877601
 10
210.730540085
 20
102.119759809
 10
210.8466735738
 20
102.1179404198
  0
LWPOLYLINE
  5
58A
100
AcDbEntity
  8
RUNDUNGEN
100
AcDbPolyline
 62
7
  6
CONTINUOUS
 90
5
 70
0
 10
225.7149157489
 20
79.0818046887
 10
225.6573410327
 20
79.1758126144
 10
225.6037010911
 20
79.2705293989
 10
225.5539328622
 20
79.3657797522
 10
225.5079671731
 20
79.4613959045
  0
LWPOLYLINE
  5
58B
100
AcDbEntity
  8
RUNDUNGEN
100
AcDbPolyline
 62
7
  6
CONTINUOUS
 90
7
 70
0
 10
206.2146765784
 20
104.1799790109
 10
206.2287230703
 20
104.0092489175
 10
206.2866166609
 20
103.7912759629
 10
206.388142228
 20
103.5840942508
 10
206.5267295401
 20
103.3975431473
 10
206.698299964
 20
103.2317053647
 10
206.8971852279
 20
103.0873449651
  0
LWPOLYLINE
  5
58C
100
AcDbEntity
  8
0
100
AcDbPolyline
 62
7
  6
CONTINUOUS
 90
7
 70
0
 10
206.2146599081
 20
147.4192142049
 10
206.2191444529
 20
147.2445136159
 10
206.2649006631
 20
146.8354565798
 10
206.3588512904
 20
146.437739666
 10
206.498798645
 20
146.0568218472
 10
206.6822234195
 20
145.6977048153
 10
206.9061250453
 20
145.365159976
  0
LWPOLYLINE
  5
58D
100
AcDbEntity
  8
0
100
AcDbPolyline
 62
7
  6
CONTINUOUS
 90
7
 70
0
 10
206.2146630241
 20
151.5432216258
 10
206.2185840358
 20
151.3877768603
 10
206.2633777811
 20
150.9961738245
 10
206.3574290185
 20
150.6138722224
 10
206.4988992431
 20
150.2465888949
 10
206.6855335746
 20
149.8997127794
 10
206.9143836704
 20
149.5783310067
  0
LWPOLYLINE
  5
58E
100
AcDbEntity
  8
0
100
AcDbPolyline
 62
7
  6
CONTINUOUS
 90
6
 70
0
 10
206.2146648666
 20
135.5375193849
 10
206.2168722845
 20
135.4461853066
 10
206.2559937018
 20
135.1384372746
 10
206.3448391049
 20
134.8339067587
 10
206.4827520805
 20
134.5394386872
 10
206.5535206708
 20
134.4329352272
  0
LINE
  5
58F
100
AcDbEntity
  8
0
100
AcDbLine
 62
7
  6
CONTINUOUS
 10
206.2146045918
 20
156.8181280188
 11
206.2146045918
 21
156.594989702
  0
LINE
  5
590
100
AcDbEntity
  8
RUNDUNGEN
100
AcDbLine
 62
7
  6
CONTINUOUS
 10
206.2146045918
 20
156.8181280188
 11
206.2146045918
 21
156.1580849294
  0
LINE
  5
591
100
AcDbEntity
  8
0
100
AcDbLine
 62
7
  6
CONTINUOUS
 10
206.2146045918
 20
152.706336628
 11
206.2146045918
 21
152.6864038761
  0
LINE
  5
592
100
AcDbEntity
  8
RUNDUNGEN
100
AcDbLine
 62
7
  6
CONTINUOUS
 10
206.2146045918
 20
152.7066224643
 11
206.2146045918
 21
151.5432994621
  0
LINE
  5
593
100
AcDbEntity
  8
0
100
AcDbLine
 62
7
  6
CONTINUOUS
 10
206.2146045918
 20
152.270695788
 11
206.2146045918
 21
151.5432994621
  0
LINE
  5
594
100
AcDbEntity
  8
0
100
AcDbLine
 62
7
  6
CONTINUOUS
 10
206.2146045918
 20
148.5682002712
 11
206.2146045918
 21
148.4765691944
  0
LINE
  5
595
100
AcDbEntity
  8
RUNDUNGEN
100
AcDbLine
 62
7
  6
CONTINUOUS
 10
206.2146045918
 20
148.5687764206
 11
206.2146045918
 21
147.4192319644
  0
LINE
  5
596
100
AcDbEntity
  8
RUNDUNGEN
100
AcDbLine
 62
7
  6
CONTINUOUS
 10
206.2146045918
 20
136.9165044272
 11
206.2146045918
 21
135.5387999278
  0
LINE
  5
597
100
AcDbEntity
  8
RUNDUNGEN
100
AcDbLine
 62
7
  6
CONTINUOUS
 10
206.2146045918
 20
82.5338158327
 11
206.2146045918
 21
81.1561113333
  0
LINE
  5
598
100
AcDbEntity
  8
RUNDUNGEN
100
AcDbLine
 62
7
  6
CONTINUOUS
 10
206.2146045918
 20
70.6533837961
 11
206.2146045918
 21
69.5044748398
  0
LINE
  5
599
100
AcDbEntity
  8
RUNDUNGEN
100
AcDbLine
 62
7
  6
CONTINUOUS
 10
206.2146045918
 20
66.5293162984
 11
206.2146045918
 21
65.3659932962
  0
LINE
  5
59A
100
AcDbEntity
  8
RUNDUNGEN
100
AcDbLine
 62
7
  6
CONTINUOUS
 10
206.2146045918
 20
61.9145308311
 11
206.2146045918
 21
61.2544877417
  0
LINE
  5
59B
100
AcDbEntity
  8
0
100
AcDbLine
 62
7
  6
CONTINUOUS
 10
206.2146045918
 20
109.0363078808
 11
206.2146045918
 21
133.4902361308
  0
LINE
  5
59C
100
AcDbEntity
  8
RUNDUNGEN
100
AcDbLine
 62
7
  6
CONTINUOUS
 10
206.2146045918
 20
109.0363078808
 11
206.2146045918
 21
84.5823796297
  0
LINE
  5
59D
100
AcDbEntity
  8
0
100
AcDbLine
 62
7
  6
CONTINUOUS
 10
233.1503859885
 20
149.1981342381
 11
233.2631062612
 21
149.3027464803
  0
LINE
  5
59E
100
AcDbEntity
  8
RUNDUNGEN
100
AcDbLine
 62
7
  6
CONTINUOUS
 10
233.1503868584
 20
149.1980858534
 11
233.1504103628
 21
149.1981066535
  0
LINE
  5
59F
100
AcDbEntity
  8
RUNDUNGEN
100
AcDbLine
 62
7
  6
CONTINUOUS
 10
232.04377884
 20
148.2197895516
 11
232.0438256623
 21
148.2198309597
  0
LINE
  5
5A0
100
AcDbEntity
  8
0
100
AcDbLine
 62
7
  6
CONTINUOUS
 10
233.1503868588
 20
149.1980858538
 11
232.0438011541
 21
148.2198092735
  0
LINE
  5
5A1
100
AcDbEntity
  8
0
100
AcDbLine
 62
7
  6
CONTINUOUS
 10
231.9869039291
 20
148.1758307843
 11
232.0438266187
 21
148.2198317505
  0
LWPOLYLINE
  5
5A2
100
AcDbEntity
  8
0
100
AcDbPolyline
 62
7
  6
CONTINUOUS
 90
4
 70
0
 10
226.5627612932
 20
139.8825392673
 10
226.6815607931
 20
139.9628973441
 10
226.8054398393
 20
140.0387817642
 10
226.8619063297
 20
140.0708699043
  0
LWPOLYLINE
  5
5A3
100
AcDbEntity
  8
0
100
AcDbPolyline
 62
7
  6
CONTINUOUS
 90
8
 70
0
 10
226.8637770311
 20
140.07190904
 10
227.4820399834
 20
140.4312529988
 10
228.2993259391
 20
140.951941032
 10
229.135625772
 20
141.5335083049
 10
229.9858520881
 20
142.1721825968
 10
230.844987439
 20
142.8651298491
 10
231.7074133273
 20
143.6100173893
 10
232.3890991811
 20
144.2360564189
  0
LINE
  5
5A4
100
AcDbEntity
  8
RUNDUNGEN
100
AcDbLine
 62
7
  6
CONTINUOUS
 10
226.8619014924
 20
140.070867207
 11
226.8637745669
 21
140.0719076775
  0
LWPOLYLINE
  5
5A5
100
AcDbEntity
  8
RUNDUNGEN
100
AcDbPolyline
 62
7
  6
CONTINUOUS
 90
4
 70
0
 10
208.9936698036
 20
107.083556522
 10
208.9504928209
 20
107.0825285311
 10
208.8595424259
 20
107.0753192863
 10
208.7883744261
 20
107.0636669211
  0
LINE
  5
5A6
100
AcDbEntity
  8
RUNDUNGEN
100
AcDbLine
 62
7
  6
CONTINUOUS
 10
220.1807797278
 20
107.1782665784
 11
208.99366743
 21
107.0835572946
  0
LINE
  5
5A7
100
AcDbEntity
  8
RUNDUNGEN
100
AcDbLine
 62
7
  6
CONTINUOUS
 10
231.4355417718
 20
107.0835572944
 11
220.2484295375
 21
107.1782665777
  0
LWPOLYLINE
  5
5A8
100
AcDbEntity
  8
RUNDUNGEN
100
AcDbPolyline
 62
7
  6
CONTINUOUS
 90
5
 70
0
 10
232.3136508173
 20
92.3410109895
 10
231.5752309451
 20
92.8491764333
 10
230.6557930392
 20
93.3918890147
 10
229.7454381318
 20
93.8372596748
 10
228.8499351215
 20
94.1883546784
  0
LINE
  5
5A9
100
AcDbEntity
  8
RUNDUNGEN
100
AcDbLine
 62
7
  6
CONTINUOUS
 10
233.0942028121
 20
91.7674976544
 11
232.3136032782
 21
92.3410433861
  0
LINE
  5
5AA
100
AcDbEntity
  8
RUNDUNGEN
100
AcDbLine
 62
7
  6
CONTINUOUS
 10
214.8436201799
 20
100.62721054
 11
214.8413418662
 21
100.6313063018
  0
LWPOLYLINE
  5
5AB
100
AcDbEntity
  8
RUNDUNGEN
100
AcDbPolyline
 62
7
  6
CONTINUOUS
 90
5
 70
0
 10
214.8436093905
 20
100.6272044195
 10
214.9588701634
 20
100.3968556961
 10
215.0887954976
 20
100.050333544
 10
215.1709181942
 20
99.7091130703
 10
215.2091786776
 20
99.3903647888
  0
LINE
  5
5AC
100
AcDbEntity
  8
0
100
AcDbLine
 62
7
  6
CONTINUOUS
 10
226.154735006
 20
143.4628006484
 11
226.3495367584
 21
143.7633535083
  0
LINE
  5
5AD
100
AcDbEntity
  8
0
100
AcDbLine
 62
7
  6
CONTINUOUS
 10
226.3495367584
 20
143.7633535083
 11
226.5794322099
 21
144.0793547079
  0
LWPOLYLINE
  5
5AE
100
AcDbEntity
  8
0
100
AcDbPolyline
 62
7
  6
CONTINUOUS
 90
15
 70
0
 10
226.5794322099
 20
144.0793547079
 10
226.8425806957
 20
144.4085411244
 10
227.1381838736
 20
144.7488587581
 10
227.4647995159
 20
145.0970740282
 10
227.8226386407
 20
145.4516206938
 10
228.2066720643
 20
145.8053845557
 10
228.6150999711
 20
146.154060671
 10
229.035953734
 20
146.4858892867
 10
229.460452482
 20
146.7932263772
 10
229.8756050726
 20
147.0664344386
 10
230.2616693186
 20
147.2951062014
 10
230.63306871
 20
147.4905477003
 10
231.0137699278
 20
147.667689168
 10
231.3573870103
 20
147.8214119926
 10
231.659538679
 20
147.9838399593
  0
LINE
  5
5AF
100
AcDbEntity
  8
0
100
AcDbLine
 62
7
  6
CONTINUOUS
 10
233.2631062612
 20
149.3027464803
 11
233.5288502275
 21
149.5957524247
  0
LINE
  5
5B0
100
AcDbEntity
  8
0
100
AcDbLine
 62
7
  6
CONTINUOUS
 10
233.1696860338
 20
144.9730171841
 11
233.2777355391
 21
145.0799072535
  0
LINE
  5
5B1
100
AcDbEntity
  8
0
100
AcDbLine
 62
7
  6
CONTINUOUS
 10
233.1696976714
 20
144.9729868688
 11
232.3890982
 21
144.2360566348
  0
LINE
  5
5B2
100
AcDbEntity
  8
RUNDUNGEN
100
AcDbLine
 62
7
  6
CONTINUOUS
 10
207.5804803266
 20
106.8113266912
 11
207.3625740021
 21
106.7576406653
  0
LINE
  5
5B3
100
AcDbEntity
  8
RUNDUNGEN
100
AcDbLine
 62
7
  6
CONTINUOUS
 10
207.6460699073
 20
106.8254247604
 11
207.5804803266
 21
106.8113266912
  0
LINE
  5
5B4
100
AcDbEntity
  8
RUNDUNGEN
100
AcDbLine
 62
7
  6
CONTINUOUS
 10
208.7879823953
 20
107.0635851288
 11
207.6453627313
 21
106.8252877727
  0
LINE
  5
5B5
100
AcDbEntity
  8
02___PRT_ALL_AXES
100
AcDbLine
 62
7
  6
CENTER
 10
203.2146045918
 20
109.0363078802
 11
237.2146045918
 21
109.0363078802
  0
LINE
  5
5B6
100
AcDbEntity
  8
0
100
AcDbLine
 62
2
  6
CONTINUOUS
 10
206.2146045918
 20
109.0363078808
 11
234.2146045918
 21
109.0363078808
  0
LWPOLYLINE
  5
5B7
100
AcDbEntity
  8
RUNDUNGEN
100
AcDbPolyline
 62
7
  6
CONTINUOUS
 90
4
 70
0
 10
231.6406605933
 20
107.0637033879
 10
231.5730274186
 20
107.0749001251
 10
231.481065456
 20
107.0824328223
 10
231.4355392597
 20
107.0835559768
  0
LINE
  5
5B8
100
AcDbEntity
  8
RUNDUNGEN
100
AcDbLine
 62
7
  6
CONTINUOUS
 10
232.7838467143
 20
106.8252877181
 11
231.6411261417
 21
107.063606119
  0
LINE
  5
5B9
100
AcDbEntity
  8
RUNDUNGEN
100
AcDbLine
 62
7
  6
CONTINUOUS
 10
232.8621032952
 20
106.8083447537
 11
232.7831549236
 21
106.8254214116
  0
LINE
  5
5BA
100
AcDbEntity
  8
RUNDUNGEN
100
AcDbLine
 62
7
  6
CONTINUOUS
 10
233.0784782881
 20
106.7543781219
 11
232.8621032952
 21
106.8083447537
  0
LWPOLYLINE
  5
5BB
100
AcDbEntity
  8
RUNDUNGEN
100
AcDbPolyline
 62
7
  6
CONTINUOUS
 90
5
 70
0
 10
225.4657295281
 20
79.5572170946
 10
225.4271360325
 20
79.653101329
 10
225.3921153349
 20
79.7488695887
 10
225.3605735679
 20
79.844394161
 10
225.3324529314
 20
79.9394182981
  0
LINE
  5
5BC
100
AcDbEntity
  8
RUNDUNGEN
100
AcDbLine
 62
7
  6
CONTINUOUS
 10
215.2091786776
 20
99.3903647888
 11
215.214604154
 21
99.2179265429
  0
LINE
  5
5BD
100
AcDbEntity
  8
0
100
AcDbLine
 62
7
  6
CONTINUOUS
 10
215.2146045918
 20
145.480353925
 11
215.2146045918
 21
138.3996158165
  0
LINE
  5
5BE
100
AcDbEntity
  8
RUNDUNGEN
100
AcDbLine
 62
7
  6
CONTINUOUS
 10
215.2146045918
 20
79.1589689554
 11
215.2146045918
 21
80.2845003766
  0
LINE
  5
5BF
100
AcDbEntity
  8
RUNDUNGEN
100
AcDbLine
 62
7
  6
CONTINUOUS
 10
215.2146045918
 20
97.4553446445
 11
215.2146045918
 21
99.2177721567
  0
LWPOLYLINE
  5
5C0
100
AcDbEntity
  8
RUNDUNGEN
100
AcDbPolyline
 62
7
  6
CONTINUOUS
 90
7
 70
0
 10
214.6925822376
 20
109.0363078808
 10
214.6790228025
 20
108.6787424627
 10
214.6370376593
 20
108.3107816621
 10
214.5663168572
 20
107.9343332271
 10
214.4657936351
 20
107.5719054949
 10
214.3276195787
 20
107.232927071
 10
214.2668735599
 20
107.1281998764
  0
LWPOLYLINE
  5
5C1
100
AcDbEntity
  8
RUNDUNGEN
100
AcDbPolyline
 62
7
  6
CONTINUOUS
 90
13
 70
0
 10
215.2146157108
 20
97.6287312258
 10
215.1919141455
 20
97.2485975781
 10
215.1242240271
 20
96.8738840998
 10
215.0125255102
 20
96.5099221545
 10
214.8583803161
 20
96.1617786026
 10
214.6639029619
 20
95.8342982687
 10
214.4318619604
 20
95.532206128
 10
214.1655667326
 20
95.2598257343
 10
213.8687875457
 20
95.0210153255
 10
213.5457356722
 20
94.8191642038
 10
213.2010026038
 20
94.6571371802
 10
212.8394937796
 20
94.5372295194
 10
212.6938314899
 20
94.501999595
  0
LWPOLYLINE
  5
5C2
100
AcDbEntity
  8
0
100
AcDbPolyline
 62
7
  6
CONTINUOUS
 90
7
 70
0
 10
233.5288502275
 20
149.5957524247
 10
233.7554670194
 20
149.9188302974
 10
233.9396200977
 20
150.2670422814
 10
234.0784122278
 20
150.6352373406
 10
234.1696747163
 20
151.0180274131
 10
234.2116497345
 20
151.4096836234
 10
234.2145462266
 20
151.5432220225
  0
LWPOLYLINE
  5
5C3
100
AcDbEntity
  8
0
100
AcDbPolyline
 62
7
  6
CONTINUOUS
 90
8
 70
0
 10
233.2777355391
 20
145.0799072535
 10
233.5367669034
 20
145.3831707076
 10
233.7584581769
 20
145.7173328392
 10
233.9394534786
 20
146.0776951838
 10
234.0768033256
 20
146.4594318136
 10
234.1680669246
 20
146.8575496586
 10
234.2111233328
 20
147.2665720196
 10
234.2145492497
 20
147.4192144809
  0
LINE
  5
5C4
100
AcDbEntity
  8
0
100
AcDbLine
 62
7
  6
CONTINUOUS
 10
229.0656683202
 20
112.0363078802
 11
232.2146045918
 21
112.0363078802
  0
LINE
  5
5C5
100
AcDbEntity
  8
0
100
AcDbLine
 62
7
  6
CONTINUOUS
 10
232.2146045918
 20
112.5363078802
 11
228.2146045918
 21
112.5363078802
  0
LINE
  5
5C6
100
AcDbEntity
  8
0
100
AcDbLine
 62
7
  6
CONTINUOUS
 10
228.2146045918
 20
113.2029739111
 11
232.2146045918
 21
113.2029739111
  0
LINE
  5
5C7
100
AcDbEntity
  8
0
100
AcDbLine
 62
7
  6
CONTINUOUS
 10
232.2146045918
 20
113.7029739111
 11
229.0656683202
 21
113.7029739111
  0
LINE
  5
5C8
100
AcDbEntity
  8
0
100
AcDbLine
 62
7
  6
CONTINUOUS
 10
228.2146045918
 20
111.7863078802
 11
231.7890726681
 21
110.5363078802
  0
LINE
  5
5C9
100
AcDbEntity
  8
0
100
AcDbLine
 62
7
  6
CONTINUOUS
 10
232.2146045918
 20
110.8696408957
 11
229.0656683202
 21
112.0363078802
  0
LWPOLYLINE
  5
5CA
100
AcDbEntity
  8
RUNDUNGEN
100
AcDbPolyline
 62
7
  6
CONTINUOUS
 90
4
 70
0
 10
233.6030929163
 20
106.5536233699
 10
233.4444538861
 20
106.6291047837
 10
233.2710701249
 20
106.6951015243
 10
233.0784782881
 20
106.7543781219
  0
LINE
  5
5CB
100
AcDbEntity
  8
RUNDUNGEN
100
AcDbLine
 62
7
  6
CONTINUOUS
 10
225.3076739228
 20
80.0337014513
 11
225.2813109855
 21
80.1498252874
  0
LINE
  5
5CC
100
AcDbEntity
  8
0
100
AcDbLine
 62
7
  6
CONTINUOUS
 10
225.3091093547
 20
138.0447586143
 11
225.3376965885
 21
138.1518110046
  0
LINE
  5
5CD
100
AcDbEntity
  8
0
100
AcDbLine
 62
7
  6
CONTINUOUS
 10
225.3376965885
 20
138.1518110046
 11
225.3705848602
 21
138.2596989465
  0
LWPOLYLINE
  5
5CE
100
AcDbEntity
  8
0
100
AcDbPolyline
 62
7
  6
CONTINUOUS
 90
17
 70
0
 10
225.3705848602
 20
138.2596989465
 10
225.4078878033
 20
138.3681000818
 10
225.4497327824
 20
138.4767791241
 10
225.4962117255
 20
138.5854370845
 10
225.5474540052
 20
138.6938851509
 10
225.6035696028
 20
138.8018913079
 10
225.6646597492
 20
138.9092118461
 10
225.730815579
 20
139.0155906682
 10
225.8021168226
 20
139.1207590961
 10
225.8786310681
 20
139.2244366997
 10
225.9604123344
 20
139.326331155
 10
226.047500137
 20
139.4261389466
 10
226.1399184297
 20
139.5235459235
 10
226.2376742885
 20
139.6182276747
 10
226.3407568378
 20
139.7098502926
 10
226.4491359796
 20
139.7980710376
 10
226.5627612932
 20
139.8825392673
  0
LINE
  5
5CF
100
AcDbEntity
  8
0
100
AcDbLine
 62
7
  6
CONTINUOUS
 10
229.0656683202
 20
116.7029739111
 11
232.2146045918
 21
116.7029739111
  0
LINE
  5
5D0
100
AcDbEntity
  8
0
100
AcDbLine
 62
7
  6
CONTINUOUS
 10
232.2146045918
 20
117.2029748648
 11
228.2146045918
 21
117.2029748648
  0
LINE
  5
5D1
100
AcDbEntity
  8
0
100
AcDbLine
 62
7
  6
CONTINUOUS
 10
206.2146045918
 20
119.1363078802
 11
234.2146045918
 21
119.1363078802
  0
LINE
  5
5D2
100
AcDbEntity
  8
0
100
AcDbLine
 62
7
  6
CONTINUOUS
 10
228.2146045918
 20
116.4529739111
 11
231.7890726681
 21
115.2029739111
  0
LINE
  5
5D3
100
AcDbEntity
  8
0
100
AcDbLine
 62
7
  6
CONTINUOUS
 10
232.2146045918
 20
115.5363078802
 11
229.0656683202
 21
116.7029739111
  0
LWPOLYLINE
  5
5D4
100
AcDbEntity
  8
RUNDUNGEN
100
AcDbPolyline
 62
7
  6
CONTINUOUS
 90
8
 70
0
 10
226.1617217294
 20
107.1282050736
 10
226.1099613822
 20
107.2159136598
 10
225.9699429298
 20
107.5527230334
 10
225.8676524082
 20
107.9135394954
 10
225.7954248583
 20
108.2895288643
 10
225.7518546085
 20
108.6575426306
 10
225.7364325347
 20
109.0209076945
 10
225.7369888212
 20
109.0363078808
  0
LWPOLYLINE
  5
5D5
100
AcDbEntity
  8
0
100
AcDbPolyline
 62
7
  6
CONTINUOUS
 90
5
 70
0
 10
215.0873177491
 20
138.1663202348
 10
215.0960981537
 20
138.1355537685
 10
215.1045015218
 20
138.1049572369
 10
215.112534768
 20
138.0745352328
 10
215.1202048004
 20
138.0442921558
  0
LWPOLYLINE
  5
5D6
100
AcDbEntity
  8
0
100
AcDbPolyline
 62
7
  6
CONTINUOUS
 90
7
 70
0
 10
215.1202048004
 20
138.0442921558
 10
215.127518494
 20
138.014232309
 10
215.134482746
 20
137.98435966
 10
215.1411042855
 20
137.9546786647
 10
215.1473906777
 20
137.9251895883
 10
215.153346241
 20
137.8959080693
 10
215.1580015837
 20
137.8718777984
  0
LINE
  5
5D7
100
AcDbEntity
  8
RUNDUNGEN
100
AcDbLine
 62
7
  6
CONTINUOUS
 10
225.2861220209
 20
80.1270953762
 11
225.2713170445
 21
80.201233776
  0
LWPOLYLINE
  5
5D8
100
AcDbEntity
  8
RUNDUNGEN
100
AcDbPolyline
 62
7
  6
CONTINUOUS
 90
3
 70
0
 10
225.2813109855
 20
80.1498252874
 10
225.2594400557
 20
80.2660082677
 10
225.2566007924
 20
80.2848668719
  0
LINE
  5
5D9
100
AcDbEntity
  8
RUNDUNGEN
100
AcDbLine
 62
7
  6
CONTINUOUS
 10
225.2371460601
 20
97.2498061135
 11
225.2145958134
 21
97.6290330938
  0
LWPOLYLINE
  5
5DA
100
AcDbEntity
  8
RUNDUNGEN
100
AcDbPolyline
 62
7
  6
CONTINUOUS
 90
4
 70
0
 10
215.1727841826
 20
80.2848653378
 10
215.1716270308
 20
80.2771526849
 10
215.1539497322
 20
80.1797568866
 10
215.1328310749
 20
80.0810543501
  0
LWPOLYLINE
  5
5DB
100
AcDbEntity
  8
0
100
AcDbPolyline
 62
7
  6
CONTINUOUS
 90
3
 70
0
 10
225.2714129661
 20
137.8709475184
 10
225.2846832646
 20
137.9388411681
 10
225.3091093547
 20
138.0447586143
  0
LINE
  5
5DC
100
AcDbEntity
  8
RUNDUNGEN
100
AcDbLine
 62
7
  6
CONTINUOUS
 10
215.1328310749
 20
80.0810543501
 11
215.1081312763
 21
79.9812558154
  0
LWPOLYLINE
  5
5DD
100
AcDbEntity
  8
0
100
AcDbPolyline
 62
7
  6
CONTINUOUS
 90
6
 70
0
 10
233.8755257981
 20
134.433156314
 10
233.9536944177
 20
134.5523893128
 10
234.089957114
 20
134.8488569856
 10
234.1766179016
 20
135.1551610979
 10
234.2131146088
 20
135.464314258
 10
234.2145443262
 20
135.537500012
  0
LINE
  5
5DE
100
AcDbEntity
  8
0
100
AcDbLine
 62
7
  6
CONTINUOUS
 10
206.2146045918
 20
120.3363078802
 11
234.2146045918
 21
120.3363078802
  0
LWPOLYLINE
  5
5DF
100
AcDbEntity
  8
0
100
AcDbPolyline
 62
7
  6
CONTINUOUS
 90
4
 70
0
 10
215.0586448814
 20
138.2595912459
 10
215.0685980654
 20
138.2283439418
 10
215.0781533674
 20
138.1972519268
 10
215.0873177491
 20
138.1663202348
  0
LINE
  5
5E0
100
AcDbEntity
  8
0
100
AcDbLine
 62
7
  6
CONTINUOUS
 10
225.2146045918
 20
145.4803653425
 11
225.2146045918
 21
144.1126005587
  0
LINE
  5
5E1
100
AcDbEntity
  8
0
100
AcDbLine
 62
7
  6
CONTINUOUS
 10
225.2146045918
 20
143.8618615273
 11
225.2146045918
 21
142.6935107384
  0
LINE
  5
5E2
100
AcDbEntity
  8
0
100
AcDbLine
 62
7
  6
CONTINUOUS
 10
225.2146045918
 20
142.3758303825
 11
225.2146045918
 21
142.2803855843
  0
LINE
  5
5E3
100
AcDbEntity
  8
0
100
AcDbLine
 62
7
  6
CONTINUOUS
 10
225.2146045918
 20
142.0569702929
 11
225.2146045918
 21
138.3996158165
  0
LINE
  5
5E4
100
AcDbEntity
  8
RUNDUNGEN
100
AcDbLine
 62
7
  6
CONTINUOUS
 10
225.2146045918
 20
99.2177668587
 11
225.2146045918
 21
97.4552910326
  0
LINE
  5
5E5
100
AcDbEntity
  8
RUNDUNGEN
100
AcDbLine
 62
7
  6
CONTINUOUS
 10
225.2146045918
 20
80.2845003766
 11
225.2146045918
 21
79.1589359686
  0
LINE
  5
5E6
100
AcDbEntity
  8
0
100
AcDbLine
 62
7
  6
CONTINUOUS
 10
225.4646045918
 20
142.0458838684
 11
225.4646045918
 21
140.801471308
  0
LINE
  5
5E7
100
AcDbEntity
  8
0
100
AcDbLine
 62
7
  6
CONTINUOUS
 10
225.4646045918
 20
100.3765406644
 11
225.4646045918
 21
99.7682641632
  0
LINE
  5
5E8
100
AcDbEntity
  8
0
100
AcDbLine
 62
7
  6
CONTINUOUS
 10
225.4646045918
 20
99.7616683909
 11
225.4646045918
 21
97.3570872833
  0
LINE
  5
5E9
100
AcDbEntity
  8
0
100
AcDbLine
 62
7
  6
CONTINUOUS
 10
225.4646045918
 20
142.0569702929
 11
225.4646045918
 21
144.1540405694
  0
LINE
  5
5EA
100
AcDbEntity
  8
0
100
AcDbLine
 62
7
  6
CONTINUOUS
 10
228.2146045918
 20
117.2029748648
 11
228.2146045918
 21
116.4529739111
  0
LINE
  5
5EB
100
AcDbEntity
  8
0
100
AcDbLine
 62
7
  6
CONTINUOUS
 10
228.2146045918
 20
113.9529739111
 11
228.2146045918
 21
113.2029739111
  0
LINE
  5
5EC
100
AcDbEntity
  8
0
100
AcDbLine
 62
7
  6
CONTINUOUS
 10
228.2146045918
 20
112.5363078802
 11
228.2146045918
 21
111.7863078802
  0
LINE
  5
5ED
100
AcDbEntity
  8
0
100
AcDbLine
 62
7
  6
CONTINUOUS
 10
228.2146045918
 20
109.2863078802
 11
228.2146045918
 21
109.0363078808
  0
LINE
  5
5EE
100
AcDbEntity
  8
RUNDUNGEN
100
AcDbLine
 62
7
  6
CONTINUOUS
 10
225.2146049956
 20
99.2179192543
 11
225.2210217938
 21
99.4055157593
  0
LWPOLYLINE
  5
5EF
100
AcDbEntity
  8
RUNDUNGEN
100
AcDbPolyline
 62
7
  6
CONTINUOUS
 90
5
 70
0
 10
225.2210217938
 20
99.4055157593
 10
225.2620925239
 20
99.7300696522
 10
225.3486786365
 20
100.076962774
 10
225.4846191943
 20
100.4282627518
 10
225.5854959672
 20
100.6270158784
  0
LWPOLYLINE
  5
5F0
100
AcDbEntity
  8
RUNDUNGEN
100
AcDbPolyline
 62
7
  6
CONTINUOUS
 90
23
 70
0
 10
215.1081312763
 20
79.9812558154
 10
215.0797208848
 20
79.8805752349
 10
215.0474804462
 20
79.7792285089
 10
215.011314486
 20
79.6774711969
 10
214.971158356
 20
79.5755974133
 10
214.9268972922
 20
79.4737444346
 10
214.878438368
 20
79.3721031625
 10
214.8256902283
 20
79.270862538
 10
214.7685698146
 20
79.1702240153
 10
214.7070017421
 20
79.0703983334
 10
214.6409190957
 20
78.9716055438
 10
214.5702647315
 20
78.8740755851
 10
214.494991605
 20
78.7780472665
 10
214.4150636175
 20
78.683768084
 10
214.3304565293
 20
78.5914940066
 10
214.2411587048
 20
78.5014889856
 10
214.1471720565
 20
78.4140246169
 10
214.0485128225
 20
78.3293795513
 10
213.9452124931
 20
78.2478389815
 10
213.8373185978
 20
78.1696939331
 10
213.7248956085
 20
78.0952405831
 10
213.6080257169
 20
78.024779415
 10
213.5673950931
 20
78.0018418957
  0
LWPOLYLINE
  5
5F1
100
AcDbEntity
  8
RUNDUNGEN
100
AcDbPolyline
 62
7
  6
CONTINUOUS
 90
5
 70
0
 10
206.5536832739
 20
83.639459276
 10
206.4755147659
 20
83.5202264477
 10
206.3392520696
 20
83.2237587749
 10
206.2525912821
 20
82.9174546626
 10
206.2165215444
 20
82.6119182392
  0
LWPOLYLINE
  5
5F2
100
AcDbEntity
  8
RUNDUNGEN
100
AcDbPolyline
 62
7
  6
CONTINUOUS
 90
9
 70
0
 10
206.9939831889
 20
106.6329962746
 10
206.8343718489
 20
106.5580080208
 10
206.6875904843
 20
106.4703078658
 10
206.5506324805
 20
106.3635416254
 10
206.4291905993
 20
106.2356414923
 10
206.3284716414
 20
106.0845440374
 10
206.2570160676
 20
105.9157194896
 10
206.2202240236
 20
105.7404485079
 10
206.2146849845
 20
105.6454298596
  0
LINE
  5
5F3
100
AcDbEntity
  8
0
100
AcDbLine
 62
7
  6
CONTINUOUS
 10
229.0656683202
 20
113.7029739111
 11
232.2146045918
 21
114.8696408957
  0
LINE
  5
5F4
100
AcDbEntity
  8
0
100
AcDbLine
 62
7
  6
CONTINUOUS
 10
231.7890726681
 20
115.2029739111
 11
228.2146045918
 21
113.9529739111
  0
LWPOLYLINE
  5
5F5
100
AcDbEntity
  8
RUNDUNGEN
100
AcDbPolyline
 62
7
  6
CONTINUOUS
 90
3
 70
0
 10
207.3625740021
 20
106.7576406653
 10
207.1685729076
 20
106.6986479413
 10
206.9939831889
 20
106.6329962746
  0
LINE
  5
5F6
100
AcDbEntity
  8
0
100
AcDbLine
 62
7
  6
CONTINUOUS
 10
206.2146045918
 20
127.8702824765
 11
234.2146045918
 21
127.8702824765
  0
LINE
  5
5F7
100
AcDbEntity
  8
0
100
AcDbLine
 62
7
  6
CONTINUOUS
 10
206.9061250453
 20
145.365159976
 11
207.1670957075
 21
145.0638288531
  0
LINE
  5
5F8
100
AcDbEntity
  8
0
100
AcDbLine
 62
7
  6
CONTINUOUS
 10
214.0057850949
 20
143.8685412132
 11
214.2044323397
 21
143.5755305716
  0
LWPOLYLINE
  5
5F9
100
AcDbEntity
  8
0
100
AcDbPolyline
 62
7
  6
CONTINUOUS
 90
10
 70
0
 10
214.2044323397
 20
143.5755305716
 10
214.3674346503
 20
143.3017640788
 10
214.4910430737
 20
143.0557183551
 10
214.5765645806
 20
142.841667325
 10
214.6353407297
 20
142.6515071753
 10
214.6729449069
 20
142.4894679176
 10
214.6902279747
 20
142.365794074
 10
214.6924370367
 20
142.2894691287
 10
214.6882317697
 20
142.2479757462
 10
214.6856903989
 20
142.2363770798
  0
LINE
  5
5FA
100
AcDbEntity
  8
0
100
AcDbLine
 62
7
  6
CONTINUOUS
 10
232.2146045918
 20
110.2029739111
 11
232.2146045918
 21
110.8696408957
  0
LINE
  5
5FB
100
AcDbEntity
  8
0
100
AcDbLine
 62
7
  6
CONTINUOUS
 10
232.2146045918
 20
112.0363078802
 11
232.2146045918
 21
112.5363078802
  0
LINE
  5
5FC
100
AcDbEntity
  8
0
100
AcDbLine
 62
7
  6
CONTINUOUS
 10
232.2146045918
 20
113.2029739111
 11
232.2146045918
 21
113.7029739111
  0
LINE
  5
5FD
100
AcDbEntity
  8
0
100
AcDbLine
 62
7
  6
CONTINUOUS
 10
232.2146045918
 20
114.8696408957
 11
232.2146045918
 21
115.5363078802
  0
LINE
  5
5FE
100
AcDbEntity
  8
0
100
AcDbLine
 62
7
  6
CONTINUOUS
 10
232.2146045918
 20
116.7029739111
 11
232.2146045918
 21
117.2029748648
  0
LINE
  5
5FF
100
AcDbEntity
  8
0
100
AcDbLine
 62
7
  6
CONTINUOUS
 10
231.7890726681
 20
110.5363078802
 11
228.2146045918
 21
109.2863078802
  0
LINE
  5
600
100
AcDbEntity
  8
0
100
AcDbLine
 62
7
  6
CONTINUOUS
 10
206.2146045918
 20
129.2363078802
 11
234.2146045918
 21
129.2363078802
  0
LINE
  5
601
100
AcDbEntity
  8
0
100
AcDbLine
 62
7
  6
CONTINUOUS
 10
234.2146045918
 20
130.4363078802
 11
206.2146045918
 21
130.4363078802
  0
LWPOLYLINE
  5
602
100
AcDbEntity
  8
0
100
AcDbPolyline
 62
7
  6
CONTINUOUS
 90
8
 70
0
 10
208.0401095445
 20
144.2360561595
 10
208.7372053879
 20
143.596233596
 10
209.6005456187
 20
142.8515166624
 10
210.4599835451
 20
142.159188578
 10
211.3100840899
 20
141.5215813517
 10
212.1462673849
 20
140.9409909121
 10
212.9631447246
 20
140.4215764901
 10
213.5655573917
 20
140.0717947372
  0
LINE
  5
603
100
AcDbEntity
  8
0
100
AcDbLine
 62
7
  6
CONTINUOUS
 10
208.0401108562
 20
144.2360567552
 11
207.2595122638
 21
144.9729861593
  0
LINE
  5
604
100
AcDbEntity
  8
0
100
AcDbLine
 62
7
  6
CONTINUOUS
 10
207.1670957075
 20
145.0638288531
 11
207.2595237282
 21
144.9730160843
  0
LINE
  5
605
100
AcDbEntity
  8
0
100
AcDbLine
 62
7
  6
CONTINUOUS
 10
206.9143836704
 20
149.5783310067
 11
207.1820507373
 21
149.2873241306
  0
LWPOLYLINE
  5
606
100
AcDbEntity
  8
RUNDUNGEN
100
AcDbPolyline
 62
7
  6
CONTINUOUS
 90
7
 70
0
 10
234.209789965
 20
105.7328737606
 10
234.1745741425
 20
105.9079962431
 10
234.1047333172
 20
106.0770860871
 10
234.0054580552
 20
106.2288236183
 10
233.8851005362
 20
106.3576290522
 10
233.7490195609
 20
106.4652562143
 10
233.6030929163
 20
106.5536233699
  0
LINE
  5
607
100
AcDbEntity
  8
RUNDUNGEN
100
AcDbLine
 62
7
  6
CONTINUOUS
 10
234.214522739
 20
105.6456274665
 11
234.209789965
 21
105.7328737606
  0
LWPOLYLINE
  5
608
100
AcDbEntity
  8
RUNDUNGEN
100
AcDbPolyline
 62
7
  6
CONTINUOUS
 90
9
 70
0
 10
234.2145486284
 20
89.6775607604
 10
234.2117843214
 20
89.7910049306
 10
234.1691318478
 20
90.1390109047
 10
234.0748040202
 20
90.4813124735
 10
233.9302032103
 20
90.8108707705
 10
233.7377172357
 20
91.1218528988
 10
233.5006400832
 20
91.4090093985
 10
233.2230809773
 20
91.6674459947
 10
233.0942696399
 20
91.7674171967
  0
LWPOLYLINE
  5
609
100
AcDbEntity
  8
RUNDUNGEN
100
AcDbPolyline
 62
7
  6
CONTINUOUS
 90
6
 70
0
 10
234.2126876393
 20
82.6119182392
 10
234.2123368992
 20
82.6264304539
 10
234.1732154819
 20
82.9341784859
 10
234.0843700788
 20
83.2387090018
 10
233.9464571032
 20
83.5331770733
 10
233.87568858
 20
83.6396804322
  0
LWPOLYLINE
  5
60A
100
AcDbEntity
  8
RUNDUNGEN
100
AcDbPolyline
 62
7
  6
CONTINUOUS
 90
9
 70
0
 10
234.2145492497
 20
70.6534012796
 10
234.2111233328
 20
70.8060437409
 10
234.1680669246
 20
71.2150661019
 10
234.0768033256
 20
71.6131839469
 10
233.9394534786
 20
71.9949205767
 10
233.7584581769
 20
72.3552829213
 10
233.5367669034
 20
72.6894450529
 10
233.2777355391
 20
72.992708507
 10
233.1696860338
 20
73.0995985764
  0
LWPOLYLINE
  5
60B
100
AcDbEntity
  8
RUNDUNGEN
100
AcDbPolyline
 62
7
  6
CONTINUOUS
 90
7
 70
0
 10
234.2145462266
 20
66.529393738
 10
234.2116497345
 20
66.6629321371
 10
234.1696747163
 20
67.0545883474
 10
234.0784122278
 20
67.4373784199
 10
233.9396200977
 20
67.8055734791
 10
233.7554670194
 20
68.1537854631
 10
233.5288502275
 20
68.4768633358
  0
LWPOLYLINE
  5
60C
100
AcDbEntity
  8
RUNDUNGEN
100
AcDbPolyline
 62
7
  6
CONTINUOUS
 90
9
 70
0
 10
234.2145443262
 20
82.5351157485
 10
234.2131146088
 20
82.6083015025
 10
234.1766179016
 20
82.9174546626
 10
234.089957114
 20
83.2237587749
 10
233.9536944177
 20
83.5202264477
 10
233.7695167039
 20
83.8011583768
 10
233.5397904235
 20
84.0618694563
 10
233.2673387917
 20
84.2982050032
 10
233.0473833623
 20
84.4507309581
  0
LINE
  5
60D
100
AcDbEntity
  8
0
100
AcDbLine
 62
7
  6
CONTINUOUS
 10
234.2146045918
 20
156.8181280188
 11
234.2146045918
 21
156.594989702
  0
LINE
  5
60E
100
AcDbEntity
  8
0
100
AcDbLine
 62
7
  6
CONTINUOUS
 10
234.2146045918
 20
152.706336628
 11
234.2146045918
 21
152.6864038761
  0
LINE
  5
60F
100
AcDbEntity
  8
0
100
AcDbLine
 62
7
  6
CONTINUOUS
 10
234.2146045918
 20
148.5682002712
 11
234.2146045918
 21
148.4765691944
  0
LINE
  5
610
100
AcDbEntity
  8
RUNDUNGEN
100
AcDbLine
 62
7
  6
CONTINUOUS
 10
234.2146045918
 20
61.2544877417
 11
234.2146045918
 21
61.9145308311
  0
LINE
  5
611
100
AcDbEntity
  8
RUNDUNGEN
100
AcDbLine
 62
7
  6
CONTINUOUS
 10
234.2146045918
 20
65.3664716441
 11
234.2146045918
 21
66.5293162984
  0
LINE
  5
612
100
AcDbEntity
  8
RUNDUNGEN
100
AcDbLine
 62
7
  6
CONTINUOUS
 10
234.2146045918
 20
69.5085452733
 11
234.2146045918
 21
70.6533837961
  0
LINE
  5
613
100
AcDbEntity
  8
RUNDUNGEN
100
AcDbLine
 62
7
  6
CONTINUOUS
 10
234.2146045918
 20
81.1567493698
 11
234.2146045918
 21
82.5338158327
  0
LINE
  5
614
100
AcDbEntity
  8
RUNDUNGEN
100
AcDbLine
 62
7
  6
CONTINUOUS
 10
234.2146045918
 20
84.5823796297
 11
234.2146045918
 21
109.0363078808
  0
LINE
  5
615
100
AcDbEntity
  8
0
100
AcDbLine
 62
7
  6
CONTINUOUS
 10
234.2146045918
 20
109.0363078808
 11
234.2146045918
 21
133.4902361308
  0
LINE
  5
616
100
AcDbEntity
  8
RUNDUNGEN
100
AcDbLine
 62
7
  6
CONTINUOUS
 10
234.2146045918
 20
135.5387999278
 11
234.2146045918
 21
136.9151120282
  0
LINE
  5
617
100
AcDbEntity
  8
0
100
AcDbLine
 62
7
  6
CONTINUOUS
 10
234.2146045918
 20
147.4192319644
 11
234.2146045918
 21
148.1466282904
  0
LINE
  5
618
100
AcDbEntity
  8
RUNDUNGEN
100
AcDbLine
 62
7
  6
CONTINUOUS
 10
234.2146045918
 20
147.4192319644
 11
234.2146045918
 21
148.5651706006
  0
LINE
  5
619
100
AcDbEntity
  8
0
100
AcDbLine
 62
7
  6
CONTINUOUS
 10
234.2146045918
 20
151.5432994621
 11
234.2146045918
 21
152.270695788
  0
LINE
  5
61A
100
AcDbEntity
  8
RUNDUNGEN
100
AcDbLine
 62
7
  6
CONTINUOUS
 10
234.2146045918
 20
151.5432994621
 11
234.2146045918
 21
152.7066224644
  0
LINE
  5
61B
100
AcDbEntity
  8
RUNDUNGEN
100
AcDbLine
 62
7
  6
CONTINUOUS
 10
234.2146045918
 20
156.1580849294
 11
234.2146045918
 21
156.8181280188
  0
LINE
  5
61C
100
AcDbEntity
  8
RUNDUNGEN
100
AcDbLine
 62
7
  6
CONTINUOUS
 10
225.5854959672
 20
100.6270158784
 11
225.5877907967
 21
100.6311419285
  0
LWPOLYLINE
  5
61D
100
AcDbEntity
  8
RUNDUNGEN
100
AcDbPolyline
 62
7
  6
CONTINUOUS
 90
19
 70
0
 10
225.5877795367
 20
100.6311482604
 10
225.6158793301
 20
100.6804660984
 10
225.7356176578
 20
100.8693065443
 10
225.8658573938
 20
101.0443995168
 10
226.004930113
 20
101.2054465929
 10
226.1511629391
 20
101.3522513616
 10
226.3029555333
 20
101.4847966017
 10
226.4588198289
 20
101.6032386672
 10
226.6173738731
 20
101.7078615805
 10
226.7771849055
 20
101.7989653479
 10
226.9373528211
 20
101.8771653868
 10
227.0952679899
 20
101.9423603879
 10
227.2490376264
 20
101.9950888705
 10
227.3954447696
 20
102.0357474739
 10
227.5314874192
 20
102.065271381
 10
227.6549032348
 20
102.0850870525
 10
227.7631991959
 20
102.0967997853
 10
227.8551600946
 20
102.102285869
 10
227.9035316384
 20
102.1033737876
  0
LWPOLYLINE
  5
61E
100
AcDbEntity
  8
RUNDUNGEN
100
AcDbPolyline
 62
7
  6
CONTINUOUS
 90
10
 70
0
 10
213.9276006216
 20
87.408913727
 10
213.7587520219
 20
87.1696613527
 10
213.4800741188
 20
86.8355990992
 10
213.1787109374
 20
86.5260757891
 10
212.860149728
 20
86.2442558121
 10
212.5277014687
 20
85.9914487706
 10
212.1844206013
 20
85.7697780636
 10
211.8334602618
 20
85.5815230182
 10
211.4772172931
 20
85.4280584962
 10
211.1514273982
 20
85.3223424832
  0
LWPOLYLINE
  5
61F
100
AcDbEntity
  8
RUNDUNGEN
100
AcDbPolyline
 62
7
  6
CONTINUOUS
 90
9
 70
0
 10
207.3349456392
 20
91.7674221393
 10
207.2220278561
 20
91.6803839609
 10
206.9426910097
 20
91.4238728016
 10
206.7034278866
 20
91.1383418321
 10
206.5084480503
 20
90.8286462003
 10
206.3611313948
 20
90.4999926565
 10
206.2639636672
 20
90.1582334249
 10
206.2184438786
 20
89.8104423419
 10
206.2146605145
 20
89.6775530801
  0
LINE
  5
620
100
AcDbEntity
  8
RUNDUNGEN
100
AcDbLine
 62
7
  6
CONTINUOUS
 10
208.1156057155
 20
92.3410432465
 11
207.3350074887
 21
91.7674984752
  0
LINE
  5
621
100
AcDbEntity
  8
RUNDUNGEN
100
AcDbLine
 62
7
  6
CONTINUOUS
 10
208.869804205
 20
92.8593904729
 11
208.1155599563
 21
92.3410142585
  0
LINE
  5
622
100
AcDbEntity
  8
0
100
AcDbLine
 62
7
  6
CONTINUOUS
 10
229.0656683202
 20
109.0363078802
 11
232.2146045918
 21
110.2029739111
  0
LINE
  5
623
100
AcDbEntity
  8
RUNDUNGEN
100
AcDbLine
 62
7
  6
CONTINUOUS
 10
213.5655629463
 20
140.0717916655
 11
213.567402607
 21
140.0707696891
  0
LWPOLYLINE
  5
624
100
AcDbEntity
  8
0
100
AcDbPolyline
 62
7
  6
CONTINUOUS
 90
7
 70
0
 10
213.5673952346
 20
140.0707737915
 10
213.5928508639
 20
140.0564946253
 10
213.6370421581
 20
140.0309724194
 10
213.6805242816
 20
140.0049295843
 10
213.7232950731
 20
139.9783866425
 10
213.7653528487
 20
139.9513639023
 10
213.8066963886
 20
139.9238814509
  0
LWPOLYLINE
  5
625
100
AcDbEntity
  8
0
100
AcDbPolyline
 62
7
  6
CONTINUOUS
 90
53
 70
0
 10
213.8066963886
 20
139.9238814509
 10
213.8473249254
 20
139.8959591464
 10
213.887238131
 20
139.8676166115
 10
213.9264361048
 20
139.8388732268
 10
213.9649193607
 20
139.8097481251
 10
214.0026888153
 20
139.7802601853
 10
214.039745775
 20
139.7504280284
 10
214.0760919258
 20
139.7202700106
 10
214.1117293155
 20
139.6898042239
 10
214.1466603457
 20
139.6590484894
 10
214.1808877678
 20
139.6280203458
 10
214.2144146616
 20
139.5967370552
 10
214.2472444281
 20
139.5652155953
 10
214.2793807756
 20
139.5334726598
 10
214.3108277073
 20
139.5015246563
 10
214.3415895117
 20
139.4693877033
 10
214.3716707501
 20
139.4370776301
 10
214.4010762474
 20
139.4046099733
 10
214.4298110795
 20
139.3719999781
 10
214.4578805645
 20
139.3392625953
 10
214.4852902508
 20
139.3064124828
 10
214.512045908
 20
139.2734640033
 10
214.5381535158
 20
139.2404312264
 10
214.5636192553
 20
139.2073279265
 10
214.5884494977
 20
139.1741675859
 10
214.6126507965
 20
139.1409633925
 10
214.6362298764
 20
139.1077282436
 10
214.6591933967
 20
139.0744750806
 10
214.6815490859
 20
139.0412152114
 10
214.7033037857
 20
139.0079611427
 10
214.7244674845
 20
138.9747203567
 10
214.7450492013
 20
138.941501376
 10
214.7650585539
 20
138.9083113264
 10
214.7845049347
 20
138.8751572113
 10
214.8033976643
 20
138.8420456739
 10
214.8217459881
 20
138.8089829994
 10
214.839559067
 20
138.7759751316
 10
214.8568459752
 20
138.7430276745
 10
214.8736156905
 20
138.7101459092
 10
214.8898770934
 20
138.6773347949
 10
214.9056389584
 20
138.6445989863
 10
214.9209101178
 20
138.6119424757
 10
214.9356986301
 20
138.5793703989
 10
214.9500131536
 20
138.54688609
 10
214.9638602171
 20
138.5144973226
 10
214.9772469963
 20
138.4822102507
 10
214.9901802793
 20
138.4500317867
 10
215.0026669849
 20
138.4179683977
 10
215.014714042
 20
138.3860263805
 10
215.0263284015
 20
138.3542118254
 10
215.0375170167
 20
138.3225306599
 10
215.0482868556
 20
138.2909886096
 10
215.0586448814
 20
138.2595912459
  0
LINE
  5
626
100
AcDbEntity
  8
0
100
AcDbLine
 62
7
  6
CONTINUOUS
 10
208.3853974974
 20
148.2198192095
 11
208.4103367525
 21
148.1990670574
  0
LINE
  5
627
100
AcDbEntity
  8
RUNDUNGEN
100
AcDbLine
 62
7
  6
CONTINUOUS
 10
208.3854353744
 20
148.2197850997
 11
208.3854729703
 21
148.2197518845
  0
LINE
  5
628
100
AcDbEntity
  8
0
100
AcDbLine
 62
7
  6
CONTINUOUS
 10
208.3852813493
 20
148.2199212651
 11
207.2788227052
 21
149.1980855176
  0
LINE
  5
629
100
AcDbEntity
  8
RUNDUNGEN
100
AcDbLine
 62
7
  6
CONTINUOUS
 10
207.2788227366
 20
149.1980854898
 11
207.2788000173
 21
149.1981055943
  0
LINE
  5
62A
100
AcDbEntity
  8
0
100
AcDbLine
 62
7
  6
CONTINUOUS
 10
207.1820507373
 20
149.2873241306
 11
207.2788241865
 21
149.1981329482
  0
LWPOLYLINE
  5
62B
100
AcDbEntity
  8
0
100
AcDbPolyline
 62
7
  6
CONTINUOUS
 90
11
 70
0
 10
225.7436429625
 20
142.2335720171
 10
225.745733366
 20
142.2296086199
 10
225.7450322312
 20
142.2311545402
 10
225.7394220539
 20
142.2578228136
 10
225.7364214568
 20
142.3135440933
 10
225.743621571
 20
142.4096894161
 10
225.7700708355
 20
142.5561101356
 10
225.8200397876
 20
142.7419628032
 10
225.8934877581
 20
142.9507204384
 10
226.0018517742
 20
143.1884587429
 10
226.154735006
 20
143.4628006484
  0
LWPOLYLINE
  5
62C
100
AcDbEntity
  8
RUNDUNGEN
100
AcDbPolyline
 62
7
  6
CONTINUOUS
 90
6
 70
0
 10
206.9003589562
 20
68.4768633358
 10
206.6737421642
 20
68.1537854631
 10
206.489589086
 20
67.8055734791
 10
206.3507969559
 20
67.4373784199
 10
206.2595344674
 20
67.0545883474
 10
206.2181767349
 20
66.6686918438
  0
LWPOLYLINE
  5
62D
100
AcDbEntity
  8
RUNDUNGEN
100
AcDbPolyline
 62
7
  6
CONTINUOUS
 90
7
 70
0
 10
206.9143836704
 20
68.4942847538
 10
206.6855335746
 20
68.1729029811
 10
206.4988992431
 20
67.8260268656
 10
206.3574290185
 20
67.4587435381
 10
206.2633777811
 20
67.0764419359
 10
206.2185840358
 20
66.6848389002
 10
206.2146630241
 20
66.5293941347
  0
LWPOLYLINE
  5
62E
100
AcDbEntity
  8
RUNDUNGEN
100
AcDbPolyline
 62
7
  6
CONTINUOUS
 90
4
 70
0
 10
232.8697582505
 20
102.7848242144
 10
233.0081710169
 20
102.8331918115
 10
233.285391508
 20
102.9507367581
 10
233.5188024448
 20
103.0790105407
  0
LINE
  5
62F
100
AcDbEntity
  8
RUNDUNGEN
100
AcDbLine
 62
7
  6
CONTINUOUS
 10
232.0896390063
 20
102.5284888944
 11
232.8702375244
 21
102.7849686154
  0
LINE
  5
630
100
AcDbEntity
  8
0
100
AcDbLine
 62
7
  6
CONTINUOUS
 10
212.7558387534
 20
135.6204865919
 11
207.5318005767
 21
134.9790553582
  0
LINE
  5
631
100
AcDbEntity
  8
0
100
AcDbLine
 62
7
  6
CONTINUOUS
 10
207.0076233634
 20
137.7164941437
 11
215.1393636101
 21
137.7874587657
  0
LINE
  5
632
100
AcDbEntity
  8
0
100
AcDbLine
 62
7
  6
CONTINUOUS
 10
225.2898456396
 20
137.7874587652
 11
233.4215858202
 21
137.7164941437
  0
LINE
  5
633
100
AcDbEntity
  8
0
100
AcDbLine
 62
7
  6
CONTINUOUS
 10
232.8974086069
 20
134.9790553582
 11
227.6733704303
 21
135.6204865919
  0
LINE
  5
634
100
AcDbEntity
  8
0
100
AcDbLine
 62
7
  6
CONTINUOUS
 10
208.7621751701
 20
147.9872176979
 11
209.0385906742
 21
147.837603457
  0
LINE
  5
635
100
AcDbEntity
  8
0
100
AcDbLine
 62
7
  6
CONTINUOUS
 10
208.7043931025
 20
148.0207958002
 11
208.7621751701
 21
147.9872176979
  0
LINE
  5
636
100
AcDbEntity
  8
0
100
AcDbLine
 62
7
  6
CONTINUOUS
 10
208.6799576698
 20
148.0335252001
 11
208.4681744667
 21
148.1594648012
  0
LINE
  5
637
100
AcDbEntity
  8
RUNDUNGEN
100
AcDbLine
 62
7
  6
CONTINUOUS
 10
208.4679087472
 20
148.1596228149
 11
208.4673120835
 21
148.1599791149
  0
LINE
  5
638
100
AcDbEntity
  8
0
100
AcDbLine
 62
7
  6
CONTINUOUS
 10
208.4103367525
 20
148.1990670574
 11
208.4670866665
 21
148.1601623737
  0
LINE
  5
639
100
AcDbEntity
  8
RUNDUNGEN
100
AcDbLine
 62
7
  6
CONTINUOUS
 10
207.2733866515
 20
153.7800214878
 11
214.1558225322
 21
147.5830483862
  0
LINE
  5
63A
100
AcDbEntity
  8
0
100
AcDbLine
 62
7
  6
CONTINUOUS
 10
208.5577308113
 20
152.6239374842
 11
208.7902818739
 21
152.4142002916
  0
LINE
  5
63B
100
AcDbEntity
  8
RUNDUNGEN
100
AcDbLine
 62
7
  6
CONTINUOUS
 10
207.1053108979
 20
68.7028407609
 11
206.9003589562
 21
68.4768633358
  0
LINE
  5
63C
100
AcDbEntity
  8
RUNDUNGEN
100
AcDbLine
 62
7
  6
CONTINUOUS
 10
207.1062055464
 20
68.7028329534
 11
206.9143836704
 21
68.4942847538
  0
LWPOLYLINE
  5
63D
100
AcDbEntity
  8
RUNDUNGEN
100
AcDbPolyline
 62
7
  6
CONTINUOUS
 90
8
 70
0
 10
207.1633228827
 20
73.0044305958
 10
207.1514736445
 20
72.992708507
 10
206.8924422803
 20
72.6894450529
 10
206.6707510068
 20
72.3552829213
 10
206.4897557051
 20
71.9949205767
 10
206.3524058581
 20
71.6131839469
 10
206.261142259
 20
71.2150661019
 10
206.2180858509
 20
70.8060437409
  0
LWPOLYLINE
  5
63E
100
AcDbEntity
  8
RUNDUNGEN
100
AcDbPolyline
 62
7
  6
CONTINUOUS
 90
9
 70
0
 10
207.2595237282
 20
73.0995996762
 10
207.1670957075
 20
73.0087869074
 10
206.9061250453
 20
72.7074557844
 10
206.6822234195
 20
72.3749109452
 10
206.498798645
 20
72.0157939132
 10
206.3588512904
 20
71.6348760945
 10
206.2649006631
 20
71.2371591806
 10
206.2191444529
 20
70.8281021446
 10
206.2146599081
 20
70.6534015556
  0
LINE
  5
63F
100
AcDbEntity
  8
RUNDUNGEN
100
AcDbLine
 62
7
  6
CONTINUOUS
 10
208.0401108562
 20
73.8365590053
 11
207.2595122638
 21
73.0996296012
  0
LWPOLYLINE
  5
640
100
AcDbEntity
  8
RUNDUNGEN
100
AcDbPolyline
 62
7
  6
CONTINUOUS
 90
7
 70
0
 10
233.5188024448
 20
103.0790105407
 10
233.7185838393
 20
103.2215365814
 10
233.8913187826
 20
103.3850629103
 10
234.0316998941
 20
103.5690613593
 10
234.1359186524
 20
103.7738864446
 10
234.1972373008
 20
103.9901055016
 10
234.2145307826
 20
104.1797160635
  0
LWPOLYLINE
  5
641
100
AcDbEntity
  8
RUNDUNGEN
100
AcDbPolyline
 62
7
  6
CONTINUOUS
 90
9
 70
0
 10
207.3818271088
 20
84.4507320842
 10
207.1707786856
 20
84.3049607337
 10
206.898289926
 20
84.0706155679
 10
206.6680227418
 20
83.812000862
 10
206.4827520805
 20
83.5331770733
 10
206.3448391049
 20
83.2387090018
 10
206.2559937018
 20
82.9341784859
 10
206.2168722845
 20
82.6264304539
 10
206.2146648666
 20
82.5350963755
  0
LINE
  5
642
100
AcDbEntity
  8
RUNDUNGEN
100
AcDbLine
 62
7
  6
CONTINUOUS
 10
208.5051578541
 20
85.1593789973
 11
207.3818670223
 21
84.4507906609
  0
LWPOLYLINE
  5
643
100
AcDbEntity
  8
RUNDUNGEN
100
AcDbPolyline
 62
7
  6
CONTINUOUS
 90
5
 70
0
 10
212.472087355
 20
94.4509252668
 10
211.5963061539
 20
94.1941891648
 10
210.7008388017
 20
93.8448582953
 10
209.7901668293
 20
93.4008996959
 10
208.869804205
 20
92.8593904729
  0
LINE
  5
644
100
AcDbEntity
  8
0
100
AcDbLine
 62
7
  6
CONTINUOUS
 10
225.2146045918
 20
140.801471308
 11
225.4646045918
 21
140.801471308
  0
LINE
  5
645
100
AcDbEntity
  8
0
100
AcDbLine
 62
7
  6
CONTINUOUS
 10
225.2146045918
 20
140.8779543771
 11
225.4646045918
 21
140.8779543771
  0
LINE
  5
646
100
AcDbEntity
  8
0
100
AcDbLine
 62
7
  6
CONTINUOUS
 10
225.2146045918
 20
141.1511068376
 11
225.4646045918
 21
141.1511068376
  0
LINE
  5
647
100
AcDbEntity
  8
0
100
AcDbLine
 62
7
  6
CONTINUOUS
 10
225.2146045918
 20
141.2166634681
 11
225.4646045918
 21
141.2166634681
  0
LINE
  5
648
100
AcDbEntity
  8
0
100
AcDbLine
 62
7
  6
CONTINUOUS
 10
225.2146045918
 20
141.5522411648
 11
225.4646045918
 21
141.5522411648
  0
LINE
  5
649
100
AcDbEntity
  8
0
100
AcDbLine
 62
7
  6
CONTINUOUS
 10
225.2146045918
 20
141.602364045
 11
225.4646045918
 21
141.602364045
  0
LINE
  5
64A
100
AcDbEntity
  8
0
100
AcDbLine
 62
7
  6
CONTINUOUS
 10
225.2146045918
 20
141.7456915938
 11
225.4646045918
 21
141.7456915938
  0
LINE
  5
64B
100
AcDbEntity
  8
0
100
AcDbLine
 62
7
  6
CONTINUOUS
 10
225.2146045918
 20
141.7919308832
 11
225.4646045918
 21
141.7919308832
  0
LINE
  5
64C
100
AcDbEntity
  8
0
100
AcDbLine
 62
7
  6
CONTINUOUS
 10
225.2146045918
 20
141.8651195528
 11
225.4646045918
 21
141.8651195528
  0
LINE
  5
64D
100
AcDbEntity
  8
0
100
AcDbLine
 62
7
  6
CONTINUOUS
 10
225.2146045918
 20
142.026886648
 11
225.4646045918
 21
142.026886648
  0
LINE
  5
64E
100
AcDbEntity
  8
0
100
AcDbLine
 62
7
  6
CONTINUOUS
 10
225.4646045918
 20
142.0569702929
 11
225.2146045918
 21
142.0569702929
  0
LINE
  5
64F
100
AcDbEntity
  8
0
100
AcDbLine
 62
7
  6
CONTINUOUS
 10
225.4646045918
 20
142.2803855843
 11
225.2146045918
 21
142.2803855843
  0
LINE
  5
650
100
AcDbEntity
  8
0
100
AcDbLine
 62
7
  6
CONTINUOUS
 10
225.4646045918
 20
142.3758303825
 11
225.2146045918
 21
142.3758303825
  0
LINE
  5
651
100
AcDbEntity
  8
0
100
AcDbLine
 62
7
  6
CONTINUOUS
 10
225.4646045918
 20
142.6935107384
 11
225.2146045918
 21
142.6935107384
  0
LINE
  5
652
100
AcDbEntity
  8
0
100
AcDbLine
 62
7
  6
CONTINUOUS
 10
225.2146045918
 20
143.3897212452
 11
225.4646045918
 21
143.3897212452
  0
LINE
  5
653
100
AcDbEntity
  8
0
100
AcDbLine
 62
7
  6
CONTINUOUS
 10
225.2146045918
 20
143.5675662823
 11
225.4646045918
 21
143.5675662823
  0
LINE
  5
654
100
AcDbEntity
  8
0
100
AcDbLine
 62
7
  6
CONTINUOUS
 10
225.2146045918
 20
143.6569236866
 11
225.4646045918
 21
143.6569236866
  0
LINE
  5
655
100
AcDbEntity
  8
0
100
AcDbLine
 62
7
  6
CONTINUOUS
 10
225.2146045918
 20
143.7918291264
 11
225.4646045918
 21
143.7918291264
  0
LINE
  5
656
100
AcDbEntity
  8
0
100
AcDbLine
 62
7
  6
CONTINUOUS
 10
225.4646045918
 20
143.8618615273
 11
225.2146045918
 21
143.8618615273
  0
LINE
  5
657
100
AcDbEntity
  8
0
100
AcDbLine
 62
7
  6
CONTINUOUS
 10
225.4646045918
 20
144.1126005587
 11
225.2146045918
 21
144.1126005587
  0
LINE
  5
658
100
AcDbEntity
  8
0
100
AcDbLine
 62
7
  6
CONTINUOUS
 10
225.2146045918
 20
144.1540405694
 11
225.4646045918
 21
144.1540405694
  0
LWPOLYLINE
  5
659
100
AcDbEntity
  8
0
100
AcDbPolyline
 62
7
  6
CONTINUOUS
 90
15
 70
0
 10
209.0385906742
 20
147.837603457
 10
209.6840154127
 20
147.5447187146
 10
209.9990910942
 20
147.3868320227
 10
210.3231656598
 20
147.2059267533
 10
210.6781961309
 20
146.987359671
 10
211.0490479119
 20
146.7372194816
 10
211.4272642238
 20
146.4600818348
 10
211.8072736742
 20
146.1596654832
 10
212.1827968417
 20
145.8405070285
 10
212.5472997402
 20
145.5079548648
 10
212.8944902766
 20
145.1684108002
 10
213.2183501651
 20
144.8286177801
 10
213.5109837624
 20
144.4982655279
 10
213.7739587059
 20
144.1772182942
 10
214.0057850949
 20
143.8685412132
  0
LINE
  5
65A
100
AcDbEntity
  8
RUNDUNGEN
100
AcDbLine
 62
7
  6
CONTINUOUS
 10
208.737205097
 20
74.476381905
 11
208.0401095445
 21
73.836559601
  0
LINE
  5
65B
100
AcDbEntity
  8
RUNDUNGEN
100
AcDbLine
 62
7
  6
CONTINUOUS
 10
209.6005450546
 20
75.2210986279
 11
208.722242885
 21
74.4630225637
  0
LINE
  5
65C
100
AcDbEntity
  8
RUNDUNGEN
100
AcDbLine
 62
7
  6
CONTINUOUS
 10
208.5921087761
 20
85.2050480245
 11
208.5056285675
 21
85.1596983133
  0
LINE
  5
65D
100
AcDbEntity
  8
0
100
AcDbLine
 62
7
  6
CONTINUOUS
 10
225.1836245265
 20
148.2165744297
 11
221.450672321
 21
149.4294841264
  0
LINE
  5
65E
100
AcDbEntity
  8
RUNDUNGEN
100
AcDbLine
 62
7
  6
CONTINUOUS
 10
207.5715199058
 20
64.5610346605
 11
207.273386654
 21
64.292594275
  0
LWPOLYLINE
  5
65F
100
AcDbEntity
  8
RUNDUNGEN
100
AcDbPolyline
 62
7
  6
CONTINUOUS
 90
3
 70
0
 10
211.3100830556
 20
76.5510336617
 10
210.4599827319
 20
75.9134265501
 10
209.5931095359
 20
75.2146847522
  0
LINE
  5
660
100
AcDbEntity
  8
RUNDUNGEN
100
AcDbLine
 62
7
  6
CONTINUOUS
 10
212.1462661613
 20
77.1316240339
 11
211.3024008576
 21
76.5452717251
  0
LINE
  5
661
100
AcDbEntity
  8
RUNDUNGEN
100
AcDbLine
 62
7
  6
CONTINUOUS
 10
212.9631433469
 20
77.6510384368
 11
212.1462661613
 21
77.1316240339
  0
LINE
  5
662
100
AcDbEntity
  8
RUNDUNGEN
100
AcDbLine
 62
7
  6
CONTINUOUS
 10
213.5655149121
 20
78.0007937552
 11
212.9564705258
 21
77.6467954986
  0
LINE
  5
663
100
AcDbEntity
  8
0
100
AcDbLine
 62
7
  6
CONTINUOUS
 10
207.0076233634
 20
149.3689224934
 11
207.1062055464
 21
149.3697828071
  0
LINE
  5
664
100
AcDbEntity
  8
0
100
AcDbLine
 62
7
  6
CONTINUOUS
 10
233.3238982857
 20
149.3697749996
 11
233.4215858202
 21
149.3689224934
  0
LINE
  5
665
100
AcDbEntity
  8
RUNDUNGEN
100
AcDbLine
 62
7
  6
CONTINUOUS
 10
213.5655629979
 20
78.0008241237
 11
213.5674024506
 21
78.0018459846
  0
LINE
  5
666
100
AcDbEntity
  8
0
100
AcDbLine
 62
7
  6
CONTINUOUS
 10
207.0076233634
 20
153.5066600494
 11
207.5715199058
 21
153.5115810999
  0
LINE
  5
667
100
AcDbEntity
  8
0
100
AcDbLine
 62
7
  6
CONTINUOUS
 10
232.8576892779
 20
153.5115810999
 11
233.4215858202
 21
153.5066600494
  0
LINE
  5
668
100
AcDbEntity
  8
RUNDUNGEN
100
AcDbLine
 62
7
  6
CONTINUOUS
 10
207.0076233634
 20
157.6180975573
 11
220.1796984498
 21
157.7330485151
  0
LINE
  5
669
100
AcDbEntity
  8
RUNDUNGEN
100
AcDbLine
 62
7
  6
CONTINUOUS
 10
220.2495107338
 20
157.7330485151
 11
233.4215858202
 21
157.6180975573
  0
LINE
  5
66A
100
AcDbEntity
  8
0
100
AcDbLine
 62
7
  6
CONTINUOUS
 10
220.2495107338
 20
157.7330485151
 11
233.4215858202
 21
157.6180975573
  0
ARC
  5
66B
100
AcDbEntity
  8
RUNDUNGEN
100
AcDbCircle
 62
7
  6
CONTINUOUS
 10
70.0210876874
 20
80.294839764
 40
5.8502187227
100
AcDbArc
 50
195.5845720823
 51
254.4154279177
  0
ARC
  5
66C
100
AcDbEntity
  8
RUNDUNGEN
100
AcDbCircle
 62
7
  6
CONTINUOUS
 10
68.0463712109
 20
73.2148702985
 40
1.4999901728
100
AcDbArc
 50
21.0832852042
 51
74.415120602
  0
ARC
  5
66D
100
AcDbEntity
  8
RUNDUNGEN
100
AcDbCircle
 62
7
  6
CONTINUOUS
 10
62.9411499063
 20
78.3201174628
 40
1.4999727468
100
AcDbArc
 50
15.5854188812
 51
68.918366861
  0
ARC
  5
66E
100
AcDbEntity
  8
RUNDUNGEN
100
AcDbCircle
 62
7
  6
CONTINUOUS
 10
59.5146856113
 20
82.0215226298
 40
1.1998476865
100
AcDbArc
 50
132.5
 51
210.0
  0
ARC
  5
66F
100
AcDbEntity
  8
RUNDUNGEN
100
AcDbCircle
 62
7
  6
CONTINUOUS
 10
71.7477705531
 20
69.788437688
 40
1.1998476865
100
AcDbArc
 50
240.0
 51
317.5
  0
ARC
  5
670
100
AcDbEntity
  8
RUNDUNGEN
100
AcDbCircle
 62
7
  6
CONTINUOUS
 10
59.5146856113
 20
82.0215226298
 40
1.0847444209
100
AcDbArc
 50
132.5
 51
210.0
  0
ARC
  5
671
100
AcDbEntity
  8
RUNDUNGEN
100
AcDbCircle
 62
7
  6
CONTINUOUS
 10
71.7477705531
 20
69.788437688
 40
1.0847444209
100
AcDbArc
 50
240.0
 51
317.5
  0
ARC
  5
672
100
AcDbEntity
  8
RUNDUNGEN
100
AcDbCircle
 62
7
  6
CONTINUOUS
 10
59.7344577973
 20
81.2408660377
 40
0.9998476865
100
AcDbArc
 50
210.0
 51
277.6368952005
  0
ARC
  5
673
100
AcDbEntity
  8
RUNDUNGEN
100
AcDbCircle
 62
7
  6
CONTINUOUS
 10
70.967113961
 20
70.0082098739
 40
0.9998476865
100
AcDbArc
 50
172.3631044465
 51
240.0
  0
ARC
  5
674
100
AcDbEntity
  8
RUNDUNGEN
100
AcDbCircle
 62
7
  6
CONTINUOUS
 10
59.7344577973
 20
81.2408660377
 40
0.8847444209
100
AcDbArc
 50
210.0
 51
280.4740584204
  0
ARC
  5
675
100
AcDbEntity
  8
RUNDUNGEN
100
AcDbCircle
 62
7
  6
CONTINUOUS
 10
70.967113961
 20
70.0082098739
 40
0.8847444209
100
AcDbArc
 50
169.5259415796
 51
240.0
  0
ARC
  5
676
100
AcDbEntity
  8
0
100
AcDbCircle
 62
7
  6
CONTINUOUS
 10
63.7262026575
 20
92.9239654099
 40
17.3014571185
100
AcDbArc
 50
86.5996958129
 51
88.8564937331
  0
ARC
  5
677
100
AcDbEntity
  8
0
100
AcDbCircle
 62
7
  6
CONTINUOUS
 10
66.2109965456
 20
89.6151411714
 40
15.8890915049
100
AcDbArc
 50
94.7655023937
 51
97.1030894188
  0
ARC
  5
678
100
AcDbEntity
  8
0
100
AcDbCircle
 62
7
  6
CONTINUOUS
 10
61.5018019183
 20
102.0843681828
 40
15.8861922242
100
AcDbArc
 50
74.5162552147
 51
76.854268916
  0
ARC
  5
679
100
AcDbEntity
  8
RUNDUNGEN
100
AcDbCircle
 62
7
  6
CONTINUOUS
 10
56.224813392
 20
109.035696905
 40
6.9191074446
100
AcDbArc
 50
80.0910970948
 51
109.987089226
  0
ARC
  5
67A
100
AcDbEntity
  8
RUNDUNGEN
100
AcDbCircle
 62
7
  6
CONTINUOUS
 10
61.9240957409
 20
87.7669075569
 40
6.9191074413
100
AcDbArc
 50
110.0910969631
 51
139.9870892307
  0
ARC
  5
67B
100
AcDbEntity
  8
RUNDUNGEN
100
AcDbCircle
 62
7
  6
CONTINUOUS
 10
61.9234891698
 20
87.7679484271
 40
6.9190895763
100
AcDbArc
 50
280.0128998834
 51
309.9108232375
  0
ARC
  5
67C
100
AcDbEntity
  8
RUNDUNGEN
100
AcDbCircle
 62
7
  6
CONTINUOUS
 10
59.5009802148
 20
98.5162004076
 40
5.8502187227
100
AcDbArc
 50
165.5845720823
 51
224.4154279177
  0
ARC
  5
67D
100
AcDbEntity
  8
RUNDUNGEN
100
AcDbCircle
 62
7
  6
CONTINUOUS
 10
54.2508408481
 20
93.3721252307
 40
1.4999901728
100
AcDbArc
 50
351.0832852042
 51
44.415120602
  0
ARC
  5
67E
100
AcDbEntity
  8
RUNDUNGEN
100
AcDbCircle
 62
7
  6
CONTINUOUS
 10
52.3822130885
 20
100.3460096199
 40
1.4999727468
100
AcDbArc
 50
345.5854188812
 51
38.918366861
  0
ARC
  5
67F
100
AcDbEntity
  8
RUNDUNGEN
100
AcDbCircle
 62
7
  6
CONTINUOUS
 10
51.2655105474
 20
105.2647526717
 40
1.1998476865
100
AcDbArc
 50
102.5
 51
180.0
  0
ARC
  5
680
100
AcDbEntity
  8
RUNDUNGEN
100
AcDbCircle
 62
7
  6
CONTINUOUS
 10
55.7431304028
 20
88.5540478746
 40
1.1998476865
100
AcDbArc
 50
210.0
 51
287.5
  0
ARC
  5
681
100
AcDbEntity
  8
RUNDUNGEN
100
AcDbCircle
 62
7
  6
CONTINUOUS
 10
51.2655105474
 20
105.2647526717
 40
1.0847444209
100
AcDbArc
 50
102.5
 51
180.0
  0
ARC
  5
682
100
AcDbEntity
  8
RUNDUNGEN
100
AcDbCircle
 62
7
  6
CONTINUOUS
 10
55.7431304028
 20
88.5540478746
 40
1.0847444209
100
AcDbArc
 50
210.0
 51
287.5
  0
ARC
  5
683
100
AcDbEntity
  8
RUNDUNGEN
100
AcDbCircle
 62
7
  6
CONTINUOUS
 10
51.0655105474
 20
104.4787981383
 40
0.9998476865
100
AcDbArc
 50
180.0
 51
247.6368952004
  0
ARC
  5
684
100
AcDbEntity
  8
RUNDUNGEN
100
AcDbCircle
 62
7
  6
CONTINUOUS
 10
55.1769480554
 20
89.1347044667
 40
0.9998476865
100
AcDbArc
 50
142.3631044465
 51
210.0
  0
ARC
  5
685
100
AcDbEntity
  8
RUNDUNGEN
100
AcDbCircle
 62
7
  6
CONTINUOUS
 10
51.0655105474
 20
104.4787981383
 40
0.8847444209
100
AcDbArc
 50
180.0
 51
250.4740584204
  0
ARC
  5
686
100
AcDbEntity
  8
RUNDUNGEN
100
AcDbCircle
 62
7
  6
CONTINUOUS
 10
55.1769480554
 20
89.1347044667
 40
0.8847444209
100
AcDbArc
 50
139.5259415796
 51
210.0
  0
ARC
  5
687
100
AcDbEntity
  8
RUNDUNGEN
100
AcDbCircle
 62
7
  6
CONTINUOUS
 10
77.4942137218
 20
72.1972368431
 40
6.9191074487
100
AcDbArc
 50
140.0910972576
 51
169.9870892202
  0
ARC
  5
688
100
AcDbEntity
  8
RUNDUNGEN
100
AcDbCircle
 62
7
  6
CONTINUOUS
 10
77.4931651174
 20
72.1978378336
 40
6.9190935983
100
AcDbArc
 50
310.0129028051
 51
339.9105334017
  0
ARC
  5
689
100
AcDbEntity
  8
RUNDUNGEN
100
AcDbCircle
 62
7
  6
CONTINUOUS
 10
98.7619596991
 20
66.4985612311
 40
6.9190920211
100
AcDbArc
 50
340.0129016593
 51
9.9106470864
  0
ARC
  5
68A
100
AcDbEntity
  8
RUNDUNGEN
100
AcDbCircle
 62
7
  6
CONTINUOUS
 10
88.242448331
 20
69.7747322914
 40
5.8502187227
100
AcDbArc
 50
225.5845720823
 51
284.4154279177
  0
ARC
  5
68B
100
AcDbEntity
  8
RUNDUNGEN
100
AcDbCircle
 62
7
  6
CONTINUOUS
 10
90.0722784299
 20
62.655940638
 40
1.4999901728
100
AcDbArc
 50
51.0832852042
 51
104.415120602
  0
ARC
  5
68C
100
AcDbEntity
  8
RUNDUNGEN
100
AcDbCircle
 62
7
  6
CONTINUOUS
 10
83.098403506
 20
64.5246037226
 40
1.4999727468
100
AcDbArc
 50
45.5854188812
 51
98.918366861
  0
ARC
  5
68D
100
AcDbEntity
  8
RUNDUNGEN
100
AcDbCircle
 62
7
  6
CONTINUOUS
 10
78.2802957979
 20
66.0168824795
 40
1.1998476865
100
AcDbArc
 50
162.5
 51
240.0
  0
ARC
  5
68E
100
AcDbEntity
  8
RUNDUNGEN
100
AcDbCircle
 62
7
  6
CONTINUOUS
 10
94.991000595
 20
61.5392626241
 40
1.1998476865
100
AcDbArc
 50
270.0
 51
347.5
  0
ARC
  5
68F
100
AcDbEntity
  8
RUNDUNGEN
100
AcDbCircle
 62
7
  6
CONTINUOUS
 10
78.2802957979
 20
66.0168824795
 40
1.0847444209
100
AcDbArc
 50
162.5
 51
240.0
  0
ARC
  5
690
100
AcDbEntity
  8
RUNDUNGEN
100
AcDbCircle
 62
7
  6
CONTINUOUS
 10
94.991000595
 20
61.5392626241
 40
1.0847444209
100
AcDbArc
 50
270.0
 51
347.5
  0
ARC
  5
691
100
AcDbEntity
  8
RUNDUNGEN
100
AcDbCircle
 62
7
  6
CONTINUOUS
 10
78.86095239
 20
65.450700132
 40
0.9998476865
100
AcDbArc
 50
240.0
 51
307.6368952005
  0
ARC
  5
692
100
AcDbEntity
  8
RUNDUNGEN
100
AcDbCircle
 62
7
  6
CONTINUOUS
 10
94.2050460617
 20
61.3392626241
 40
0.9998476865
100
AcDbArc
 50
202.3631044466
 51
270.0
  0
ARC
  5
693
100
AcDbEntity
  8
RUNDUNGEN
100
AcDbCircle
 62
7
  6
CONTINUOUS
 10
78.86095239
 20
65.450700132
 40
0.8847444209
100
AcDbArc
 50
240.0
 51
310.4740584204
  0
ARC
  5
694
100
AcDbEntity
  8
RUNDUNGEN
100
AcDbCircle
 62
7
  6
CONTINUOUS
 10
94.2050460617
 20
61.3392626241
 40
0.8847444209
100
AcDbArc
 50
199.5259415796
 51
270.0
  0
ARC
  5
695
100
AcDbEntity
  8
0
100
AcDbCircle
 62
7
  6
CONTINUOUS
 10
79.0625558036
 20
89.3363078802
 40
1.0
100
AcDbArc
 50
120.0
 51
330.0
  0
ARC
  5
696
100
AcDbEntity
  8
RUNDUNGEN
100
AcDbCircle
 62
7
  6
CONTINUOUS
 10
61.9234848411
 20
130.3046501702
 40
6.9191072308
100
AcDbArc
 50
50.0910889616
 51
79.9870895288
  0
ARC
  5
697
100
AcDbEntity
  8
RUNDUNGEN
100
AcDbCircle
 62
7
  6
CONTINUOUS
 10
61.9240856036
 20
130.3056984118
 40
6.9190933814
100
AcDbArc
 50
220.0129026409
 51
249.9105484986
  0
ARC
  5
698
100
AcDbEntity
  8
RUNDUNGEN
100
AcDbCircle
 62
7
  6
CONTINUOUS
 10
56.2248090976
 20
109.036903772
 40
6.9190918018
100
AcDbArc
 50
250.0129015
 51
279.9106628612
  0
ARC
  5
699
100
AcDbEntity
  8
RUNDUNGEN
100
AcDbCircle
 62
7
  6
CONTINUOUS
 10
59.5009802148
 20
119.5564153528
 40
5.8502187227
100
AcDbArc
 50
135.5845720823
 51
194.4154279177
  0
ARC
  5
69A
100
AcDbEntity
  8
RUNDUNGEN
100
AcDbCircle
 62
7
  6
CONTINUOUS
 10
52.3821885614
 20
117.7265852539
 40
1.4999901728
100
AcDbArc
 50
321.0832852042
 51
14.415120602
  0
ARC
  5
69B
100
AcDbEntity
  8
RUNDUNGEN
100
AcDbCircle
 62
7
  6
CONTINUOUS
 10
54.2508516459
 20
124.7004601778
 40
1.4999727468
100
AcDbArc
 50
315.5854188812
 51
8.918366861
  0
ARC
  5
69C
100
AcDbEntity
  8
RUNDUNGEN
100
AcDbCircle
 62
7
  6
CONTINUOUS
 10
55.7431304028
 20
129.5185678859
 40
1.1998476865
100
AcDbArc
 50
72.5
 51
150.0
  0
ARC
  5
69D
100
AcDbEntity
  8
RUNDUNGEN
100
AcDbCircle
 62
7
  6
CONTINUOUS
 10
51.2655105474
 20
112.8078630888
 40
1.1998476865
100
AcDbArc
 50
180.0
 51
257.5
  0
ARC
  5
69E
100
AcDbEntity
  8
RUNDUNGEN
100
AcDbCircle
 62
7
  6
CONTINUOUS
 10
55.7431304028
 20
129.5185678859
 40
1.0847444209
100
AcDbArc
 50
72.5
 51
150.0
  0
ARC
  5
69F
100
AcDbEntity
  8
RUNDUNGEN
100
AcDbCircle
 62
7
  6
CONTINUOUS
 10
51.2655105474
 20
112.8078630888
 40
1.0847444209
100
AcDbArc
 50
180.0
 51
257.5
  0
ARC
  5
6A0
100
AcDbEntity
  8
RUNDUNGEN
100
AcDbCircle
 62
7
  6
CONTINUOUS
 10
55.1769480554
 20
128.9379112938
 40
0.9998476865
100
AcDbArc
 50
150.0
 51
217.6368952005
  0
ARC
  5
6A1
100
AcDbEntity
  8
RUNDUNGEN
100
AcDbCircle
 62
7
  6
CONTINUOUS
 10
51.0655105474
 20
113.5938176222
 40
0.9998476865
100
AcDbArc
 50
112.3631044466
 51
180.0
  0
ARC
  5
6A2
100
AcDbEntity
  8
RUNDUNGEN
100
AcDbCircle
 62
7
  6
CONTINUOUS
 10
55.1769480554
 20
128.9379112938
 40
0.8847444209
100
AcDbArc
 50
150.0
 51
220.4740584204
  0
ARC
  5
6A3
100
AcDbEntity
  8
RUNDUNGEN
100
AcDbCircle
 62
7
  6
CONTINUOUS
 10
51.0655105474
 20
113.5938176222
 40
0.8847444209
100
AcDbArc
 50
109.5259415796
 51
180.0
  0
ARC
  5
6A4
100
AcDbEntity
  8
RUNDUNGEN
100
AcDbCircle
 62
7
  6
CONTINUOUS
 10
70.0210876874
 20
137.7777759965
 40
5.8502187227
100
AcDbArc
 50
105.5845720823
 51
164.4154279177
  0
ARC
  5
6A5
100
AcDbEntity
  8
RUNDUNGEN
100
AcDbCircle
 62
7
  6
CONTINUOUS
 10
62.9411182218
 20
139.7524924729
 40
1.4999901728
100
AcDbArc
 50
291.0832852042
 51
344.415120602
  0
ARC
  5
6A6
100
AcDbEntity
  8
RUNDUNGEN
100
AcDbCircle
 62
7
  6
CONTINUOUS
 10
68.0463653861
 20
144.8577137775
 40
1.4999727468
100
AcDbArc
 50
285.5854188812
 51
338.918366861
  0
ARC
  5
6A7
100
AcDbEntity
  8
RUNDUNGEN
100
AcDbCircle
 62
7
  6
CONTINUOUS
 10
71.7477705531
 20
148.2841780725
 40
1.1998476865
100
AcDbArc
 50
42.5
 51
120.0
  0
ARC
  5
6A8
100
AcDbEntity
  8
RUNDUNGEN
100
AcDbCircle
 62
7
  6
CONTINUOUS
 10
59.5146856113
 20
136.0510931307
 40
1.1998476865
100
AcDbArc
 50
150.0
 51
227.5
  0
ARC
  5
6A9
100
AcDbEntity
  8
RUNDUNGEN
100
AcDbCircle
 62
7
  6
CONTINUOUS
 10
71.7477705531
 20
148.2841780725
 40
1.0847444209
100
AcDbArc
 50
42.5
 51
120.0
  0
ARC
  5
6AA
100
AcDbEntity
  8
RUNDUNGEN
100
AcDbCircle
 62
7
  6
CONTINUOUS
 10
59.5146856113
 20
136.0510931307
 40
1.0847444209
100
AcDbArc
 50
150.0
 51
227.5
  0
ARC
  5
6AB
100
AcDbEntity
  8
RUNDUNGEN
100
AcDbCircle
 62
7
  6
CONTINUOUS
 10
70.967113961
 20
148.0644058865
 40
0.9998476865
100
AcDbArc
 50
120.0
 51
187.6368952005
  0
ARC
  5
6AC
100
AcDbEntity
  8
RUNDUNGEN
100
AcDbCircle
 62
7
  6
CONTINUOUS
 10
59.7344577973
 20
136.8317497228
 40
0.9998476865
100
AcDbArc
 50
82.3631044465
 51
150.0
  0
ARC
  5
6AD
100
AcDbEntity
  8
RUNDUNGEN
100
AcDbCircle
 62
7
  6
CONTINUOUS
 10
70.967113961
 20
148.0644058865
 40
0.8847444209
100
AcDbArc
 50
120.0
 51
190.4740584204
  0
ARC
  5
6AE
100
AcDbEntity
  8
RUNDUNGEN
100
AcDbCircle
 62
7
  6
CONTINUOUS
 10
59.7344577973
 20
136.8317497228
 40
0.8847444209
100
AcDbArc
 50
79.5259415796
 51
150.0
  0
ARC
  5
6AF
100
AcDbEntity
  8
0
100
AcDbCircle
 62
7
  6
CONTINUOUS
 10
79.0625558036
 20
128.7363078802
 40
1.0
100
AcDbArc
 50
30.0
 51
240.0
  0
ARC
  5
6B0
100
AcDbEntity
  8
RUNDUNGEN
100
AcDbCircle
 62
7
  6
CONTINUOUS
 10
98.7619441885
 20
151.5740501755
 40
6.9191080857
100
AcDbArc
 50
350.0911225291
 51
19.9870883201
  0
ARC
  5
6B1
100
AcDbEntity
  8
RUNDUNGEN
100
AcDbCircle
 62
7
  6
CONTINUOUS
 10
77.4931556513
 20
145.8747680879
 40
6.9191072202
100
AcDbArc
 50
20.0910885439
 51
49.9870895436
  0
ARC
  5
6B2
100
AcDbEntity
  8
RUNDUNGEN
100
AcDbCircle
 62
7
  6
CONTINUOUS
 10
77.4941961328
 20
145.8753744548
 40
6.9190893517
100
AcDbArc
 50
190.0128997135
 51
219.9108388931
  0
ARC
  5
6B3
100
AcDbEntity
  8
RUNDUNGEN
100
AcDbCircle
 62
7
  6
CONTINUOUS
 10
88.242448331
 20
148.297883469
 40
5.8502187227
100
AcDbArc
 50
75.5845720823
 51
134.4154279177
  0
ARC
  5
6B4
100
AcDbEntity
  8
RUNDUNGEN
100
AcDbCircle
 62
7
  6
CONTINUOUS
 10
83.098373154
 20
153.5480228357
 40
1.4999901728
100
AcDbArc
 50
261.0832852042
 51
314.415120602
  0
ARC
  5
6B5
100
AcDbEntity
  8
RUNDUNGEN
100
AcDbCircle
 62
7
  6
CONTINUOUS
 10
90.0722575432
 20
155.4166505953
 40
1.4999727468
100
AcDbArc
 50
255.5854188812
 51
308.918366861
  0
ARC
  5
6B6
100
AcDbEntity
  8
RUNDUNGEN
100
AcDbCircle
 62
7
  6
CONTINUOUS
 10
78.2802957979
 20
152.055733281
 40
1.1998476865
100
AcDbArc
 50
120.0
 51
197.5
  0
ARC
  5
6B7
100
AcDbEntity
  8
RUNDUNGEN
100
AcDbCircle
 62
7
  6
CONTINUOUS
 10
94.991000595
 20
156.5333531364
 40
1.1998476865
100
AcDbArc
 50
12.5
 51
90.0
  0
ARC
  5
6B8
100
AcDbEntity
  8
RUNDUNGEN
100
AcDbCircle
 62
7
  6
CONTINUOUS
 10
78.2802957979
 20
152.055733281
 40
1.0847444209
100
AcDbArc
 50
120.0
 51
197.5
  0
ARC
  5
6B9
100
AcDbEntity
  8
RUNDUNGEN
100
AcDbCircle
 62
7
  6
CONTINUOUS
 10
94.991000595
 20
156.5333531364
 40
1.0847444209
100
AcDbArc
 50
12.5
 51
90.0
  0
ARC
  5
6BA
100
AcDbEntity
  8
RUNDUNGEN
100
AcDbCircle
 62
7
  6
CONTINUOUS
 10
78.86095239
 20
152.6219156285
 40
0.9998476865
100
AcDbArc
 50
52.3631044465
 51
120.0
  0
ARC
  5
6BB
100
AcDbEntity
  8
RUNDUNGEN
100
AcDbCircle
 62
7
  6
CONTINUOUS
 10
94.2050460617
 20
156.7333531364
 40
0.9998476865
100
AcDbArc
 50
90.0
 51
157.6368952006
  0
ARC
  5
6BC
100
AcDbEntity
  8
RUNDUNGEN
100
AcDbCircle
 62
7
  6
CONTINUOUS
 10
78.86095239
 20
152.6219156285
 40
0.8847444209
100
AcDbArc
 50
49.5259415796
 51
120.0
  0
ARC
  5
6BD
100
AcDbEntity
  8
RUNDUNGEN
100
AcDbCircle
 62
7
  6
CONTINUOUS
 10
94.2050460617
 20
156.7333531364
 40
0.8847444209
100
AcDbArc
 50
90.0
 51
160.4740584204
  0
ARC
  5
6BE
100
AcDbEntity
  8
RUNDUNGEN
100
AcDbCircle
 62
7
  6
CONTINUOUS
 10
98.7631669921
 20
66.4985655074
 40
6.9191076583
100
AcDbArc
 50
170.0911055736
 51
199.987088924
  0
ARC
  5
6BF
100
AcDbEntity
  8
RUNDUNGEN
100
AcDbCircle
 62
7
  6
CONTINUOUS
 10
120.0319562881
 20
72.1978479545
 40
6.9191076498
100
AcDbArc
 50
200.0911055854
 51
229.9870889366
  0
ARC
  5
6C0
100
AcDbEntity
  8
RUNDUNGEN
100
AcDbCircle
 62
7
  6
CONTINUOUS
 10
120.0309150505
 20
72.1972411919
 40
6.9190897889
100
AcDbArc
 50
10.0129000311
 51
39.9108074468
  0
ARC
  5
6C1
100
AcDbEntity
  8
RUNDUNGEN
100
AcDbCircle
 62
7
  6
CONTINUOUS
 10
109.2826632762
 20
69.7747322914
 40
5.8502187227
100
AcDbArc
 50
255.5845720823
 51
314.4154279177
  0
ARC
  5
6C2
100
AcDbEntity
  8
RUNDUNGEN
100
AcDbCircle
 62
7
  6
CONTINUOUS
 10
114.4267384532
 20
64.5245929248
 40
1.4999901728
100
AcDbArc
 50
81.0832852042
 51
134.415120602
  0
ARC
  5
6C3
100
AcDbEntity
  8
RUNDUNGEN
100
AcDbCircle
 62
7
  6
CONTINUOUS
 10
107.4528540639
 20
62.6559651652
 40
1.4999727468
100
AcDbArc
 50
75.5854188812
 51
128.918366861
  0
ARC
  5
6C4
100
AcDbEntity
  8
RUNDUNGEN
100
AcDbCircle
 62
7
  6
CONTINUOUS
 10
102.5341110121
 20
61.5392626241
 40
1.1998476865
100
AcDbArc
 50
192.5
 51
270.0
  0
ARC
  5
6C5
100
AcDbEntity
  8
RUNDUNGEN
100
AcDbCircle
 62
7
  6
CONTINUOUS
 10
119.2448158093
 20
66.0168824795
 40
1.1998476865
100
AcDbArc
 50
300.0
 51
17.5
  0
ARC
  5
6C6
100
AcDbEntity
  8
RUNDUNGEN
100
AcDbCircle
 62
7
  6
CONTINUOUS
 10
102.5341110121
 20
61.5392626241
 40
1.0847444209
100
AcDbArc
 50
192.5
 51
270.0
  0
ARC
  5
6C7
100
AcDbEntity
  8
RUNDUNGEN
100
AcDbCircle
 62
7
  6
CONTINUOUS
 10
119.2448158093
 20
66.0168824795
 40
1.0847444209
100
AcDbArc
 50
300.0
 51
17.5
  0
ARC
  5
6C8
100
AcDbEntity
  8
RUNDUNGEN
100
AcDbCircle
 62
7
  6
CONTINUOUS
 10
103.3200655455
 20
61.3392626241
 40
0.9998476865
100
AcDbArc
 50
270.0
 51
337.6368952005
  0
ARC
  5
6C9
100
AcDbEntity
  8
RUNDUNGEN
100
AcDbCircle
 62
7
  6
CONTINUOUS
 10
118.6641592171
 20
65.450700132
 40
0.9998476865
100
AcDbArc
 50
232.3631044466
 51
300.0
  0
ARC
  5
6CA
100
AcDbEntity
  8
RUNDUNGEN
100
AcDbCircle
 62
7
  6
CONTINUOUS
 10
103.3200655455
 20
61.3392626241
 40
0.8847444209
100
AcDbArc
 50
270.0
 51
340.4740584204
  0
ARC
  5
6CB
100
AcDbEntity
  8
RUNDUNGEN
100
AcDbCircle
 62
7
  6
CONTINUOUS
 10
118.6641592171
 20
65.450700132
 40
0.8847444209
100
AcDbArc
 50
229.5259415796
 51
300.0
  0
ARC
  5
6CC
100
AcDbEntity
  8
0
100
AcDbCircle
 62
7
  6
CONTINUOUS
 10
118.4625558036
 20
89.3363078802
 40
1.0
100
AcDbArc
 50
210.0
 51
60.0
  0
ARC
  5
6CD
100
AcDbEntity
  8
RUNDUNGEN
100
AcDbCircle
 62
7
  6
CONTINUOUS
 10
127.5040239198
 20
80.294839764
 40
5.8502187227
100
AcDbArc
 50
285.5845720823
 51
344.4154279177
  0
ARC
  5
6CE
100
AcDbEntity
  8
RUNDUNGEN
100
AcDbCircle
 62
7
  6
CONTINUOUS
 10
134.5839933854
 20
78.3201232876
 40
1.4999901728
100
AcDbArc
 50
111.0832852042
 51
164.415120602
  0
ARC
  5
6CF
100
AcDbEntity
  8
RUNDUNGEN
100
AcDbCircle
 62
7
  6
CONTINUOUS
 10
129.478746221
 20
73.214901983
 40
1.4999727468
100
AcDbArc
 50
105.5854188812
 51
158.918366861
  0
ARC
  5
6D0
100
AcDbEntity
  8
RUNDUNGEN
100
AcDbCircle
 62
7
  6
CONTINUOUS
 10
125.777341054
 20
69.788437688
 40
1.1998476865
100
AcDbArc
 50
222.5
 51
300.0
  0
ARC
  5
6D1
100
AcDbEntity
  8
RUNDUNGEN
100
AcDbCircle
 62
7
  6
CONTINUOUS
 10
138.0104259958
 20
82.0215226298
 40
1.1998476865
100
AcDbArc
 50
330.0
 51
47.5
  0
ARC
  5
6D2
100
AcDbEntity
  8
RUNDUNGEN
100
AcDbCircle
 62
7
  6
CONTINUOUS
 10
125.777341054
 20
69.788437688
 40
1.0847444209
100
AcDbArc
 50
222.5
 51
300.0
  0
ARC
  5
6D3
100
AcDbEntity
  8
RUNDUNGEN
100
AcDbCircle
 62
7
  6
CONTINUOUS
 10
138.0104259958
 20
82.0215226298
 40
1.0847444209
100
AcDbArc
 50
330.0
 51
47.5
  0
ARC
  5
6D4
100
AcDbEntity
  8
RUNDUNGEN
100
AcDbCircle
 62
7
  6
CONTINUOUS
 10
126.5579976461
 20
70.0082098739
 40
0.9998476865
100
AcDbArc
 50
300.0
 51
7.6368952005
  0
ARC
  5
6D5
100
AcDbEntity
  8
RUNDUNGEN
100
AcDbCircle
 62
7
  6
CONTINUOUS
 10
137.7906538099
 20
81.2408660377
 40
0.9998476865
100
AcDbArc
 50
262.3631044466
 51
330.0
  0
ARC
  5
6D6
100
AcDbEntity
  8
RUNDUNGEN
100
AcDbCircle
 62
7
  6
CONTINUOUS
 10
126.5579976461
 20
70.0082098739
 40
0.8847444209
100
AcDbArc
 50
300.0
 51
10.4740584204
  0
ARC
  5
6D7
100
AcDbEntity
  8
RUNDUNGEN
100
AcDbCircle
 62
7
  6
CONTINUOUS
 10
137.7906538099
 20
81.2408660377
 40
0.8847444209
100
AcDbArc
 50
259.5259415796
 51
330.0
  0
ARC
  5
6D8
100
AcDbEntity
  8
RUNDUNGEN
100
AcDbCircle
 62
7
  6
CONTINUOUS
 10
135.6016269118
 20
87.7679659972
 40
6.9191076568
100
AcDbArc
 50
230.0911058629
 51
259.9870889267
  0
ARC
  5
6D9
100
AcDbEntity
  8
RUNDUNGEN
100
AcDbCircle
 62
7
  6
CONTINUOUS
 10
135.6010256919
 20
87.7669170367
 40
6.9190938207
100
AcDbArc
 50
40.01290296
 51
69.9105168956
  0
ARC
  5
6DA
100
AcDbEntity
  8
RUNDUNGEN
100
AcDbCircle
 62
7
  6
CONTINUOUS
 10
141.3003023959
 20
109.0357115634
 40
6.9190922401
100
AcDbArc
 50
70.0129018185
 51
99.9106313258
  0
ARC
  5
6DB
100
AcDbEntity
  8
RUNDUNGEN
100
AcDbCircle
 62
7
  6
CONTINUOUS
 10
138.0241313924
 20
98.5162004076
 40
5.8502187227
100
AcDbArc
 50
315.5845720823
 51
14.4154279177
  0
ARC
  5
6DC
100
AcDbEntity
  8
RUNDUNGEN
100
AcDbCircle
 62
7
  6
CONTINUOUS
 10
145.1429230458
 20
100.3460305066
 40
1.4999901728
100
AcDbArc
 50
141.0832852042
 51
194.415120602
  0
ARC
  5
6DD
100
AcDbEntity
  8
RUNDUNGEN
100
AcDbCircle
 62
7
  6
CONTINUOUS
 10
143.2742599612
 20
93.3721555827
 40
1.4999727468
100
AcDbArc
 50
135.5854188812
 51
188.918366861
  0
ARC
  5
6DE
100
AcDbEntity
  8
RUNDUNGEN
100
AcDbCircle
 62
7
  6
CONTINUOUS
 10
141.7819812043
 20
88.5540478746
 40
1.1998476865
100
AcDbArc
 50
252.5
 51
330.0
  0
ARC
  5
6DF
100
AcDbEntity
  8
RUNDUNGEN
100
AcDbCircle
 62
7
  6
CONTINUOUS
 10
146.2596010597
 20
105.2647526717
 40
1.1998476865
100
AcDbArc
 50
0.0
 51
77.5
  0
ARC
  5
6E0
100
AcDbEntity
  8
RUNDUNGEN
100
AcDbCircle
 62
7
  6
CONTINUOUS
 10
141.7819812043
 20
88.5540478746
 40
1.0847444209
100
AcDbArc
 50
252.5
 51
330.0
  0
ARC
  5
6E1
100
AcDbEntity
  8
RUNDUNGEN
100
AcDbCircle
 62
7
  6
CONTINUOUS
 10
146.2596010597
 20
105.2647526717
 40
1.0847444209
100
AcDbArc
 50
0.0
 51
77.5
  0
ARC
  5
6E2
100
AcDbEntity
  8
RUNDUNGEN
100
AcDbCircle
 62
7
  6
CONTINUOUS
 10
142.3481635518
 20
89.1347044667
 40
0.9998476865
100
AcDbArc
 50
330.0
 51
37.6368952005
  0
ARC
  5
6E3
100
AcDbEntity
  8
RUNDUNGEN
100
AcDbCircle
 62
7
  6
CONTINUOUS
 10
146.4596010597
 20
104.4787981383
 40
0.9998476865
100
AcDbArc
 50
292.3631044466
 51
360.0
  0
ARC
  5
6E4
100
AcDbEntity
  8
RUNDUNGEN
100
AcDbCircle
 62
7
  6
CONTINUOUS
 10
142.3481635518
 20
89.1347044667
 40
0.8847444209
100
AcDbArc
 50
330.0
 51
40.4740584204
  0
ARC
  5
6E5
100
AcDbEntity
  8
RUNDUNGEN
100
AcDbCircle
 62
7
  6
CONTINUOUS
 10
146.4596010597
 20
104.4787981383
 40
0.8847444209
100
AcDbArc
 50
289.5259415796
 51
360.0
  0
ARC
  5
6E6
100
AcDbEntity
  8
0
100
AcDbCircle
 62
7
  6
CONTINUOUS
 10
118.4625558036
 20
128.7363078802
 40
1.0
100
AcDbArc
 50
300.0
 51
150.0
  0
ARC
  5
6E7
100
AcDbEntity
  8
RUNDUNGEN
100
AcDbCircle
 62
7
  6
CONTINUOUS
 10
120.0308974783
 20
145.8753790631
 40
6.9191078749
100
AcDbArc
 50
320.0911141662
 51
349.9870886179
  0
ARC
  5
6E8
100
AcDbEntity
  8
RUNDUNGEN
100
AcDbCircle
 62
7
  6
CONTINUOUS
 10
120.0319468013
 20
145.8747776156
 40
6.919094037
100
AcDbArc
 50
130.0129031238
 51
159.9105018348
  0
ARC
  5
6E9
100
AcDbEntity
  8
RUNDUNGEN
100
AcDbCircle
 62
7
  6
CONTINUOUS
 10
98.7631523328
 20
151.5740544157
 40
6.9190924591
100
AcDbArc
 50
160.0129019776
 51
189.9106155743
  0
ARC
  5
6EA
100
AcDbEntity
  8
RUNDUNGEN
100
AcDbCircle
 62
7
  6
CONTINUOUS
 10
109.2826632762
 20
148.297883469
 40
5.8502187227
100
AcDbArc
 50
45.5845720823
 51
104.4154279177
  0
ARC
  5
6EB
100
AcDbEntity
  8
RUNDUNGEN
100
AcDbCircle
 62
7
  6
CONTINUOUS
 10
107.4528331772
 20
155.4166751225
 40
1.4999901728
100
AcDbArc
 50
231.0832852042
 51
284.415120602
  0
ARC
  5
6EC
100
AcDbEntity
  8
RUNDUNGEN
100
AcDbCircle
 62
7
  6
CONTINUOUS
 10
114.4267081012
 20
153.5480120379
 40
1.4999727468
100
AcDbArc
 50
225.5854188812
 51
278.918366861
  0
ARC
  5
6ED
100
AcDbEntity
  8
RUNDUNGEN
100
AcDbCircle
 62
7
  6
CONTINUOUS
 10
119.2448158093
 20
152.055733281
 40
1.1998476865
100
AcDbArc
 50
342.5
 51
60.0
  0
ARC
  5
6EE
100
AcDbEntity
  8
RUNDUNGEN
100
AcDbCircle
 62
7
  6
CONTINUOUS
 10
102.5341110121
 20
156.5333531364
 40
1.1998476865
100
AcDbArc
 50
90.0
 51
167.5
  0
ARC
  5
6EF
100
AcDbEntity
  8
RUNDUNGEN
100
AcDbCircle
 62
7
  6
CONTINUOUS
 10
119.2448158093
 20
152.055733281
 40
1.0847444209
100
AcDbArc
 50
342.5
 51
60.0
  0
ARC
  5
6F0
100
AcDbEntity
  8
RUNDUNGEN
100
AcDbCircle
 62
7
  6
CONTINUOUS
 10
102.5341110121
 20
156.5333531364
 40
1.0847444209
100
AcDbArc
 50
90.0
 51
167.5
  0
ARC
  5
6F1
100
AcDbEntity
  8
RUNDUNGEN
100
AcDbCircle
 62
7
  6
CONTINUOUS
 10
118.6641592171
 20
152.6219156285
 40
0.9998476865
100
AcDbArc
 50
60.0
 51
127.6368952006
  0
ARC
  5
6F2
100
AcDbEntity
  8
RUNDUNGEN
100
AcDbCircle
 62
7
  6
CONTINUOUS
 10
103.3200655455
 20
156.7333531364
 40
0.9998476865
100
AcDbArc
 50
22.3631044467
 51
90.0
  0
ARC
  5
6F3
100
AcDbEntity
  8
RUNDUNGEN
100
AcDbCircle
 62
7
  6
CONTINUOUS
 10
118.6641592171
 20
152.6219156285
 40
0.8847444209
100
AcDbArc
 50
60.0
 51
130.4740584204
  0
ARC
  5
6F4
100
AcDbEntity
  8
RUNDUNGEN
100
AcDbCircle
 62
7
  6
CONTINUOUS
 10
103.3200655455
 20
156.7333531364
 40
0.8847444209
100
AcDbArc
 50
19.5259415796
 51
90.0
  0
ARC
  5
6F5
100
AcDbEntity
  8
RUNDUNGEN
100
AcDbCircle
 62
7
  6
CONTINUOUS
 10
141.3002981377
 20
109.0369192819
 40
6.9191078718
100
AcDbArc
 50
260.0911140434
 51
289.9870886223
  0
ARC
  5
6F6
100
AcDbEntity
  8
RUNDUNGEN
100
AcDbCircle
 62
7
  6
CONTINUOUS
 10
135.6010155854
 20
130.3057085347
 40
6.9191078693
100
AcDbArc
 50
290.0911139442
 51
319.9870886258
  0
ARC
  5
6F7
100
AcDbEntity
  8
RUNDUNGEN
100
AcDbCircle
 62
7
  6
CONTINUOUS
 10
135.6016225512
 20
130.3046669093
 40
6.9190900137
100
AcDbArc
 50
100.0129002011
 51
129.9107917728
  0
ARC
  5
6F8
100
AcDbEntity
  8
RUNDUNGEN
100
AcDbCircle
 62
7
  6
CONTINUOUS
 10
138.0241313924
 20
119.5564153528
 40
5.8502187227
100
AcDbArc
 50
345.5845720823
 51
44.4154279177
  0
ARC
  5
6F9
100
AcDbEntity
  8
RUNDUNGEN
100
AcDbCircle
 62
7
  6
CONTINUOUS
 10
143.274270759
 20
124.7004905298
 40
1.4999901728
100
AcDbArc
 50
171.0832852042
 51
224.415120602
  0
ARC
  5
6FA
100
AcDbEntity
  8
RUNDUNGEN
100
AcDbCircle
 62
7
  6
CONTINUOUS
 10
145.1428985186
 20
117.7266061406
 40
1.4999727468
100
AcDbArc
 50
165.5854188812
 51
218.918366861
  0
ARC
  5
6FB
100
AcDbEntity
  8
RUNDUNGEN
100
AcDbCircle
 62
7
  6
CONTINUOUS
 10
146.2596010597
 20
112.8078630888
 40
1.1998476865
100
AcDbArc
 50
282.5
 51
360.0
  0
ARC
  5
6FC
100
AcDbEntity
  8
RUNDUNGEN
100
AcDbCircle
 62
7
  6
CONTINUOUS
 10
141.7819812043
 20
129.5185678859
 40
1.1998476865
100
AcDbArc
 50
30.0
 51
107.5
  0
ARC
  5
6FD
100
AcDbEntity
  8
RUNDUNGEN
100
AcDbCircle
 62
7
  6
CONTINUOUS
 10
146.2596010597
 20
112.8078630888
 40
1.0847444209
100
AcDbArc
 50
282.5
 51
360.0
  0
ARC
  5
6FE
100
AcDbEntity
  8
RUNDUNGEN
100
AcDbCircle
 62
7
  6
CONTINUOUS
 10
141.7819812043
 20
129.5185678859
 40
1.0847444209
100
AcDbArc
 50
30.0
 51
107.5
  0
ARC
  5
6FF
100
AcDbEntity
  8
RUNDUNGEN
100
AcDbCircle
 62
7
  6
CONTINUOUS
 10
146.4596010597
 20
113.5938176222
 40
0.9998476865
100
AcDbArc
 50
0.0
 51
67.6368952005
  0
ARC
  5
700
100
AcDbEntity
  8
RUNDUNGEN
100
AcDbCircle
 62
7
  6
CONTINUOUS
 10
142.3481635518
 20
128.9379112938
 40
0.9998476865
100
AcDbArc
 50
322.3631044466
 51
30.0
  0
ARC
  5
701
100
AcDbEntity
  8
RUNDUNGEN
100
AcDbCircle
 62
7
  6
CONTINUOUS
 10
146.4596010597
 20
113.5938176222
 40
0.8847444209
100
AcDbArc
 50
0.0
 51
70.4740584204
  0
ARC
  5
702
100
AcDbEntity
  8
RUNDUNGEN
100
AcDbCircle
 62
7
  6
CONTINUOUS
 10
142.3481635518
 20
128.9379112938
 40
0.8847444209
100
AcDbArc
 50
319.5259415796
 51
30.0
  0
ARC
  5
703
100
AcDbEntity
  8
RUNDUNGEN
100
AcDbCircle
 62
7
  6
CONTINUOUS
 10
127.5040239198
 20
137.7777759965
 40
5.8502187227
100
AcDbArc
 50
15.5845720823
 51
74.4154279177
  0
ARC
  5
704
100
AcDbEntity
  8
RUNDUNGEN
100
AcDbCircle
 62
7
  6
CONTINUOUS
 10
129.4787403962
 20
144.857745462
 40
1.4999901728
100
AcDbArc
 50
201.0832852042
 51
254.415120602
  0
ARC
  5
705
100
AcDbEntity
  8
RUNDUNGEN
100
AcDbCircle
 62
7
  6
CONTINUOUS
 10
134.5839617008
 20
139.7524982977
 40
1.4999727468
100
AcDbArc
 50
195.5854188812
 51
248.918366861
  0
ARC
  5
706
100
AcDbEntity
  8
RUNDUNGEN
100
AcDbCircle
 62
7
  6
CONTINUOUS
 10
138.0104259958
 20
136.0510931307
 40
1.1998476865
100
AcDbArc
 50
312.5
 51
30.0
  0
ARC
  5
707
100
AcDbEntity
  8
RUNDUNGEN
100
AcDbCircle
 62
7
  6
CONTINUOUS
 10
125.777341054
 20
148.2841780725
 40
1.1998476865
100
AcDbArc
 50
60.0
 51
137.5
  0
ARC
  5
708
100
AcDbEntity
  8
RUNDUNGEN
100
AcDbCircle
 62
7
  6
CONTINUOUS
 10
138.0104259958
 20
136.0510931307
 40
1.0847444209
100
AcDbArc
 50
312.5
 51
30.0
  0
ARC
  5
709
100
AcDbEntity
  8
RUNDUNGEN
100
AcDbCircle
 62
7
  6
CONTINUOUS
 10
125.777341054
 20
148.2841780725
 40
1.0847444209
100
AcDbArc
 50
60.0
 51
137.5
  0
ARC
  5
70A
100
AcDbEntity
  8
RUNDUNGEN
100
AcDbCircle
 62
7
  6
CONTINUOUS
 10
137.7906538099
 20
136.8317497228
 40
0.9998476865
100
AcDbArc
 50
30.0
 51
97.6368952006
  0
ARC
  5
70B
100
AcDbEntity
  8
RUNDUNGEN
100
AcDbCircle
 62
7
  6
CONTINUOUS
 10
126.5579976461
 20
148.0644058865
 40
0.9998476865
100
AcDbArc
 50
352.3631044466
 51
60.0
  0
ARC
  5
70C
100
AcDbEntity
  8
RUNDUNGEN
100
AcDbCircle
 62
7
  6
CONTINUOUS
 10
137.7906538099
 20
136.8317497228
 40
0.8847444209
100
AcDbArc
 50
30.0
 51
100.4740584204
  0
ARC
  5
70D
100
AcDbEntity
  8
RUNDUNGEN
100
AcDbCircle
 62
7
  6
CONTINUOUS
 10
126.5579976461
 20
148.0644058865
 40
0.8847444209
100
AcDbArc
 50
349.5259415796
 51
60.0
  0
ARC
  5
70E
100
AcDbEntity
  8
RUNDUNGEN
100
AcDbCircle
 62
7
  6
CONTINUOUS
 10
209.4146045918
 20
61.9145308311
 40
3.2
100
AcDbArc
 50
132.0
 51
180.0
  0
ARC
  5
70F
100
AcDbEntity
  8
RUNDUNGEN
100
AcDbCircle
 62
7
  6
CONTINUOUS
 10
212.4146045918
 20
79.672999944
 40
2.8
100
AcDbArc
 50
10.9038393603
 51
12.6617242118
  0
ARC
  5
710
100
AcDbEntity
  8
RUNDUNGEN
100
AcDbCircle
 62
7
  6
CONTINUOUS
 10
207.7146045918
 20
84.5823796297
 40
1.5
100
AcDbArc
 50
180.0
 51
219.0681759225
  0
ARC
  5
711
100
AcDbEntity
  8
RUNDUNGEN
100
AcDbCircle
 62
7
  6
CONTINUOUS
 10
219.5646045918
 20
65.0245135687
 40
1.1
100
AcDbArc
 50
210.6852461968
 51
270.0
  0
ARC
  5
712
100
AcDbEntity
  8
RUNDUNGEN
100
AcDbCircle
 62
7
  6
CONTINUOUS
 10
207.0146045918
 20
81.1560911552
 40
0.8
100
AcDbArc
 50
180.0
 51
269.4999999985
  0
ARC
  5
713
100
AcDbEntity
  8
RUNDUNGEN
100
AcDbCircle
 62
7
  6
CONTINUOUS
 10
207.0146045918
 20
88.2692729921
 40
0.8
100
AcDbArc
 50
180.0
 51
269.4999999992
  0
ARC
  5
714
100
AcDbEntity
  8
RUNDUNGEN
100
AcDbCircle
 62
7
  6
CONTINUOUS
 10
207.0146045918
 20
65.3659252496
 40
0.8
100
AcDbArc
 50
180.0
 51
269.5
  0
ARC
  5
715
100
AcDbEntity
  8
RUNDUNGEN
100
AcDbCircle
 62
7
  6
CONTINUOUS
 10
207.0146045918
 20
69.5036628056
 40
0.8
100
AcDbArc
 50
180.0
 51
269.5
  0
ARC
  5
716
100
AcDbEntity
  8
RUNDUNGEN
100
AcDbCircle
 62
7
  6
CONTINUOUS
 10
207.0146045918
 20
61.2544877417
 40
0.8
100
AcDbArc
 50
180.0
 51
269.5
  0
ARC
  5
717
100
AcDbEntity
  8
RUNDUNGEN
100
AcDbCircle
 62
7
  6
CONTINUOUS
 10
209.4146045918
 20
156.1580849294
 40
3.2
100
AcDbArc
 50
180.0
 51
228.0
  0
ARC
  5
718
100
AcDbEntity
  8
0
100
AcDbCircle
 62
7
  6
CONTINUOUS
 10
212.0146045918
 20
145.4803539277
 40
3.2
100
AcDbArc
 50
0.0
 51
29.5936041476
  0
ARC
  5
719
100
AcDbEntity
  8
RUNDUNGEN
100
AcDbCircle
 62
7
  6
CONTINUOUS
 10
212.0146045918
 20
145.2049849654
 40
3.2
100
AcDbArc
 50
4.9224494015
 51
48.0001236004
  0
ARC
  5
71A
100
AcDbEntity
  8
0
100
AcDbCircle
 62
7
  6
CONTINUOUS
 10
212.4146045918
 20
138.3996158165
 40
2.8
100
AcDbArc
 50
277.0
 51
360.0
  0
ARC
  5
71B
100
AcDbEntity
  8
0
100
AcDbCircle
 62
7
  6
CONTINUOUS
 10
207.7146045918
 20
133.4902361308
 40
1.5
100
AcDbArc
 50
97.0
 51
180.0
  0
ARC
  5
71C
100
AcDbEntity
  8
0
100
AcDbCircle
 62
7
  6
CONTINUOUS
 10
207.0146045918
 20
136.9165246052
 40
0.8
100
AcDbArc
 50
90.5000000015
 51
180.0
  0
ARC
  5
71D
100
AcDbEntity
  8
0
100
AcDbCircle
 62
7
  6
CONTINUOUS
 10
207.0146045918
 20
152.7066905109
 40
0.8
100
AcDbArc
 50
90.5
 51
180.0
  0
ARC
  5
71E
100
AcDbEntity
  8
0
100
AcDbCircle
 62
7
  6
CONTINUOUS
 10
207.0146045918
 20
148.5689529549
 40
0.8
100
AcDbArc
 50
90.5
 51
180.0
  0
ARC
  5
71F
100
AcDbEntity
  8
RUNDUNGEN
100
AcDbCircle
 62
7
  6
CONTINUOUS
 10
207.0146045918
 20
156.8181280188
 40
0.8
100
AcDbArc
 50
90.5
 51
180.0
  0
ARC
  5
720
100
AcDbEntity
  8
0
100
AcDbCircle
 62
7
  6
CONTINUOUS
 10
215.4928032303
 20
147.4557317422
 40
0.7999996707
100
AcDbArc
 50
107.999999763
 51
209.5935733791
  0
ARC
  5
721
100
AcDbEntity
  8
RUNDUNGEN
100
AcDbCircle
 62
7
  6
CONTINUOUS
 10
220.2146045918
 20
64.3394149377
 40
4.0
100
AcDbArc
 50
269.5
 51
270.5
  0
ARC
  5
722
100
AcDbEntity
  8
RUNDUNGEN
100
AcDbCircle
 62
7
  6
CONTINUOUS
 10
220.2146045918
 20
103.1784103154
 40
3.9999991783
100
AcDbArc
 50
89.5149460984
 51
89.9998491647
  0
ARC
  5
723
100
AcDbEntity
  8
RUNDUNGEN
100
AcDbCircle
 62
7
  6
CONTINUOUS
 10
231.0146045918
 20
61.9145308311
 40
3.2
100
AcDbArc
 50
0.0
 51
48.0
  0
ARC
  5
724
100
AcDbEntity
  8
RUNDUNGEN
100
AcDbCircle
 62
7
  6
CONTINUOUS
 10
228.0146045918
 20
79.6730232769
 40
2.7999939958
100
AcDbArc
 50
167.3387399143
 51
169.0827095781
  0
ARC
  5
725
100
AcDbEntity
  8
RUNDUNGEN
100
AcDbCircle
 62
7
  6
CONTINUOUS
 10
232.7146045918
 20
84.5823796297
 40
1.5
100
AcDbArc
 50
320.921321587
 51
360.0
  0
ARC
  5
726
100
AcDbEntity
  8
RUNDUNGEN
100
AcDbCircle
 62
7
  6
CONTINUOUS
 10
220.8646045918
 20
65.0245135687
 40
1.1
100
AcDbArc
 50
270.0
 51
329.3147524116
  0
ARC
  5
727
100
AcDbEntity
  8
RUNDUNGEN
100
AcDbCircle
 62
7
  6
CONTINUOUS
 10
233.4146045918
 20
81.1560911552
 40
0.8
100
AcDbArc
 50
270.5000000015
 51
360.0
  0
ARC
  5
728
100
AcDbEntity
  8
RUNDUNGEN
100
AcDbCircle
 62
7
  6
CONTINUOUS
 10
233.4146045918
 20
88.2692729921
 40
0.8
100
AcDbArc
 50
270.5000000008
 51
360.0
  0
ARC
  5
729
100
AcDbEntity
  8
RUNDUNGEN
100
AcDbCircle
 62
7
  6
CONTINUOUS
 10
233.4146045918
 20
65.3659252496
 40
0.8
100
AcDbArc
 50
270.5
 51
360.0
  0
ARC
  5
72A
100
AcDbEntity
  8
RUNDUNGEN
100
AcDbCircle
 62
7
  6
CONTINUOUS
 10
233.4146045918
 20
69.5036628056
 40
0.8
100
AcDbArc
 50
270.5
 51
360.0
  0
ARC
  5
72B
100
AcDbEntity
  8
RUNDUNGEN
100
AcDbCircle
 62
7
  6
CONTINUOUS
 10
233.4146045918
 20
61.2544877417
 40
0.8
100
AcDbArc
 50
270.5
 51
360.0
  0
ARC
  5
72C
100
AcDbEntity
  8
RUNDUNGEN
100
AcDbCircle
 62
7
  6
CONTINUOUS
 10
220.2146045918
 20
153.7332008228
 40
4.0
100
AcDbArc
 50
89.5
 51
90.4999999958
  0
ARC
  5
72D
100
AcDbEntity
  8
0
100
AcDbCircle
 62
7
  6
CONTINUOUS
 10
220.2146045918
 20
145.6252588257
 40
3.9999990782
100
AcDbArc
 50
72.0000000001
 51
107.9999860952
  0
ARC
  5
72E
100
AcDbEntity
  8
RUNDUNGEN
100
AcDbCircle
 62
7
  6
CONTINUOUS
 10
231.0146045918
 20
156.1580849294
 40
3.2
100
AcDbArc
 50
312.0
 51
360.0
  0
ARC
  5
72F
100
AcDbEntity
  8
0
100
AcDbCircle
 62
7
  6
CONTINUOUS
 10
228.4146045918
 20
145.4803653486
 40
3.2
100
AcDbArc
 50
150.4064274548
 51
180.0000000647
  0
ARC
  5
730
100
AcDbEntity
  8
RUNDUNGEN
100
AcDbCircle
 62
7
  6
CONTINUOUS
 10
228.4146045918
 20
145.2049849447
 40
3.2
100
AcDbArc
 50
131.9999694047
 51
175.0773460794
  0
ARC
  5
731
100
AcDbEntity
  8
0
100
AcDbCircle
 62
7
  6
CONTINUOUS
 10
228.0146045918
 20
138.3996158165
 40
2.8
100
AcDbArc
 50
180.0
 51
263.0
  0
ARC
  5
732
100
AcDbEntity
  8
0
100
AcDbCircle
 62
7
  6
CONTINUOUS
 10
232.7146045918
 20
133.4902361308
 40
1.5
100
AcDbArc
 50
0.0
 51
83.0
  0
ARC
  5
733
100
AcDbEntity
  8
0
100
AcDbCircle
 62
7
  6
CONTINUOUS
 10
233.4146045918
 20
136.9165246052
 40
0.8
100
AcDbArc
 50
0.0
 51
89.4999999985
  0
ARC
  5
734
100
AcDbEntity
  8
0
100
AcDbCircle
 62
7
  6
CONTINUOUS
 10
233.4146045918
 20
152.7066905109
 40
0.8
100
AcDbArc
 50
0.0
 51
89.5
  0
ARC
  5
735
100
AcDbEntity
  8
0
100
AcDbCircle
 62
7
  6
CONTINUOUS
 10
233.4146045918
 20
148.5689529549
 40
0.8
100
AcDbArc
 50
0.0
 51
89.5
  0
ARC
  5
736
100
AcDbEntity
  8
RUNDUNGEN
100
AcDbCircle
 62
7
  6
CONTINUOUS
 10
233.4146045918
 20
156.8181280188
 40
0.8
100
AcDbArc
 50
0.0
 51
89.5
  0
ARC
  5
737
100
AcDbEntity
  8
0
100
AcDbCircle
 62
7
  6
CONTINUOUS
 10
224.9364141513
 20
147.4557391236
 40
0.7999953428
100
AcDbArc
 50
330.4062611352
 51
72.0000000779
  0
SPLINE
  5
738
100
AcDbEntity
  8
0
100
AcDbSpline
 62
7
  6
CONTINUOUS
 70
0
 71
3
 72
8
 73
4
 74
2
 42
0.0000001
 43
0.0000001
 44
0.0000000001
 12
0.1934422582
 22
-0.2037398226
 32
0.0
 13
0.191403862
 23
-0.1713960094
 33
0.0
 40
0.0
 40
0.0
 40
0.0
 40
0.0
 40
1.0
 40
1.0
 40
1.0
 40
1.0
 10
66.4720893336
 20
119.953986379
 30
0.0
 10
66.5365700863
 20
119.8860731048
 30
0.0
 10
66.6021336702
 20
119.8213024861
 30
0.0
 10
66.6659349576
 20
119.764170483
 30
0.0
 11
66.4720893336
 21
119.953986379
 31
0.0
 11
66.6659349576
 21
119.764170483
 31
0.0
  0
SPLINE
  5
739
100
AcDbEntity
  8
0
100
AcDbSpline
 62
7
  6
CONTINUOUS
 70
0
 71
3
 72
8
 73
4
 74
2
 42
0.0000001
 43
0.0000001
 44
0.0000000001
 12
1.0599473026
 22
0.1304509119
 32
0.0
 13
0.2890468452
 23
0.8389569265
 33
0.0
 40
0.0
 40
0.0
 40
0.0
 40
0.0
 40
1.0
 40
1.0
 40
1.0
 40
1.0
 10
67.461822107
 20
119.8168729475
 30
0.0
 10
67.8151378745
 20
119.8603565848
 30
0.0
 10
67.9749130972
 20
119.9670075151
 30
0.0
 10
68.0712620456
 20
120.2466598239
 30
0.0
 11
67.461822107
 21
119.8168729475
 31
0.0
 11
68.0712620456
 21
120.2466598239
 31
0.0
  0
SPLINE
  5
73A
100
AcDbEntity
  8
0
100
AcDbSpline
 62
7
  6
CONTINUOUS
 70
0
 71
3
 72
8
 73
4
 74
2
 42
0.0000001
 43
0.0000001
 44
0.0000000001
 12
-0.5876376007
 22
-0.1567729434
 32
0.0
 13
-0.1571037674
 23
-0.5668870442
 33
0.0
 40
0.0
 40
0.0
 40
0.0
 40
0.0
 40
1.0
 40
1.0
 40
1.0
 40
1.0
 10
65.7030612415
 20
118.8669041989
 30
0.0
 10
65.5071820413
 20
118.8146465512
 30
0.0
 10
65.3831696155
 20
118.6938245451
 30
0.0
 10
65.3308016931
 20
118.504862197
 30
0.0
 11
65.7030612415
 21
118.8669041989
 31
0.0
 11
65.3308016931
 21
118.504862197
 31
0.0
  0
SPLINE
  5
73B
100
AcDbEntity
  8
0
100
AcDbSpline
 62
7
  6
CONTINUOUS
 70
0
 71
3
 72
8
 73
4
 74
2
 42
0.0000001
 43
0.0000001
 44
0.0000000001
 12
-0.1810672694
 22
-0.6533560006
 32
0.0
 13
0.5486708656
 23
-0.4934789514
 33
0.0
 40
0.0
 40
0.0
 40
0.0
 40
0.0
 40
1.0
 40
1.0
 40
1.0
 40
1.0
 10
65.3308016931
 20
118.504862197
 30
0.0
 10
65.2704459366
 20
118.2870768635
 30
0.0
 10
65.3301555677
 20
118.0980951169
 30
0.0
 10
65.5130458562
 20
117.9336021331
 30
0.0
 11
65.3308016931
 21
118.504862197
 31
0.0
 11
65.5130458562
 21
117.9336021331
 31
0.0
  0
SPLINE
  5
73C
100
AcDbEntity
  8
0
100
AcDbSpline
 62
7
  6
CONTINUOUS
 70
0
 71
3
 72
8
 73
4
 74
2
 42
0.0000001
 43
0.0000001
 44
0.0000000001
 12
-0.6245317124
 22
0.1730790743
 32
0.0
 13
0.138463206
 23
0.4996251769
 33
0.0
 40
0.0
 40
0.0
 40
0.0
 40
0.0
 40
1.0
 40
1.0
 40
1.0
 40
1.0
 10
66.0819455518
 20
117.8242213603
 30
0.0
 10
65.8737683143
 20
117.881914385
 30
0.0
 10
65.7291373712
 20
118.0289080944
 30
0.0
 10
65.7752917732
 20
118.1954498201
 30
0.0
 11
66.0819455518
 21
117.8242213603
 31
0.0
 11
65.7752917732
 21
118.1954498201
 31
0.0
  0
SPLINE
  5
73D
100
AcDbEntity
  8
0
100
AcDbSpline
 62
7
  6
CONTINUOUS
 70
0
 71
3
 72
8
 73
4
 74
2
 42
0.0000001
 43
0.0000001
 44
0.0000000001
 12
0.1358000241
 22
0.4900154564
 32
0.0
 13
0.852726145
 23
-0.2363195478
 33
0.0
 40
0.0
 40
0.0
 40
0.0
 40
0.0
 40
1.0
 40
1.0
 40
1.0
 40
1.0
 10
65.7752917732
 20
118.1954498201
 30
0.0
 10
65.8205584479
 20
118.3587883056
 30
0.0
 10
65.9837551745
 20
118.4032283691
 30
0.0
 10
66.2679972229
 20
118.3244551865
 30
0.0
 11
65.7752917732
 21
118.1954498201
 31
0.0
 11
66.2679972229
 21
118.3244551865
 31
0.0
  0
SPLINE
  5
73E
100
AcDbEntity
  8
0
100
AcDbSpline
 62
7
  6
CONTINUOUS
 70
0
 71
3
 72
8
 73
4
 74
2
 42
0.0000001
 43
0.0000001
 44
0.0000000001
 12
0.6845828757
 22
-0.1897213033
 32
0.0
 13
0.1517756921
 23
0.5476614274
 33
0.0
 40
0.0
 40
0.0
 40
0.0
 40
0.0
 40
1.0
 40
1.0
 40
1.0
 40
1.0
 10
66.9325630441
 20
118.1402812928
 30
0.0
 10
67.160757336
 20
118.0770408584
 30
0.0
 10
67.3955250295
 20
118.177516575
 30
0.0
 10
67.4461169269
 20
118.3600703841
 30
0.0
 11
66.9325630441
 21
118.1402812928
 31
0.0
 11
67.4461169269
 21
118.3600703841
 31
0.0
  0
SPLINE
  5
73F
100
AcDbEntity
  8
0
100
AcDbSpline
 62
7
  6
CONTINUOUS
 70
0
 71
3
 72
8
 73
4
 74
2
 42
0.0000001
 43
0.0000001
 44
0.0000000001
 12
-0.7446339184
 22
0.2063634989
 32
0.0
 13
-0.5156108946
 23
-0.137557293
 33
0.0
 40
0.0
 40
0.0
 40
0.0
 40
0.0
 40
1.0
 40
1.0
 40
1.0
 40
1.0
 10
66.3308486862
 20
118.8312401384
 30
0.0
 10
66.0826373801
 20
118.9000279714
 30
0.0
 10
65.8749315397
 20
118.9127566299
 30
0.0
 10
65.7030612415
 20
118.8669041989
 30
0.0
 11
66.3308486862
 21
118.8312401384
 31
0.0
 11
65.7030612415
 21
118.8669041989
 31
0.0
  0
SPLINE
  5
740
100
AcDbEntity
  8
0
100
AcDbSpline
 62
7
  6
CONTINUOUS
 70
0
 71
3
 72
8
 73
4
 74
2
 42
0.0000001
 43
0.0000001
 44
0.0000000001
 12
-0.1322800116
 22
-0.573188026
 32
0.0
 13
0.7164796661
 23
-0.1653487761
 33
0.0
 40
0.0
 40
0.0
 40
0.0
 40
0.0
 40
1.0
 40
1.0
 40
1.0
 40
1.0
 10
64.0778689957
 20
117.1397340605
 30
0.0
 10
64.0337756585
 20
116.9486713852
 30
0.0
 10
64.1856019517
 20
116.7567375543
 30
0.0
 10
64.4244285071
 20
116.7016212956
 30
0.0
 11
64.0778689957
 21
117.1397340605
 31
0.0
 11
64.4244285071
 21
116.7016212956
 31
0.0
  0
SPLINE
  5
741
100
AcDbEntity
  8
0
100
AcDbSpline
 62
7
  6
CONTINUOUS
 70
0
 71
3
 72
8
 73
4
 74
2
 42
0.0000001
 43
0.0000001
 44
0.0000000001
 12
0.7208095903
 22
-0.1453157942
 32
0.0
 13
0.1162522593
 23
0.5766458072
 33
0.0
 40
0.0
 40
0.0
 40
0.0
 40
0.0
 40
1.0
 40
1.0
 40
1.0
 40
1.0
 10
66.2603157479
 20
115.3311224796
 30
0.0
 10
66.5005856113
 20
115.2826838815
 30
0.0
 10
66.7181273885
 20
115.3947824051
 30
0.0
 10
66.7568781416
 20
115.5869976741
 30
0.0
 11
66.2603157479
 21
115.3311224796
 31
0.0
 11
66.7568781416
 21
115.5869976741
 31
0.0
  0
SPLINE
  5
742
100
AcDbEntity
  8
0
100
AcDbSpline
 62
7
  6
CONTINUOUS
 70
0
 71
3
 72
8
 73
4
 74
2
 42
0.0000001
 43
0.0000001
 44
0.0000000001
 12
0.3923415226
 22
-0.2331358006
 32
0.0
 13
-0.0540964709
 23
-0.3447410814
 33
0.0
 40
0.0
 40
0.0
 40
0.0
 40
0.0
 40
1.0
 40
1.0
 40
1.0
 40
1.0
 10
65.9168702675
 20
114.4510791019
 30
0.0
 10
66.0476507751
 20
114.3733671684
 30
0.0
 10
66.1045398697
 20
114.2803369085
 30
0.0
 10
66.0865077128
 20
114.1654232147
 30
0.0
 11
65.9168702675
 21
114.4510791019
 31
0.0
 11
66.0865077128
 21
114.1654232147
 31
0.0
  0
SPLINE
  5
743
100
AcDbEntity
  8
0
100
AcDbSpline
 62
7
  6
CONTINUOUS
 70
0
 71
3
 72
8
 73
4
 74
2
 42
0.0000001
 43
0.0000001
 44
0.0000000001
 12
-0.0540969676
 22
-0.344744247
 32
0.0
 13
-0.4312545384
 23
-0.1065723885
 33
0.0
 40
0.0
 40
0.0
 40
0.0
 40
0.0
 40
1.0
 40
1.0
 40
1.0
 40
1.0
 10
66.0865077128
 20
114.1654232147
 30
0.0
 10
66.0684753902
 20
114.0505084657
 30
0.0
 10
65.9888996187
 20
113.9721650167
 30
0.0
 10
65.8451481059
 20
113.9366408872
 30
0.0
 11
66.0865077128
 21
114.1654232147
 31
0.0
 11
65.8451481059
 21
113.9366408872
 31
0.0
  0
SPLINE
  5
744
100
AcDbEntity
  8
0
100
AcDbSpline
 62
7
  6
CONTINUOUS
 70
0
 71
3
 72
8
 73
4
 74
2
 42
0.0000001
 43
0.0000001
 44
0.0000000001
 12
-0.3430823604
 22
-0.0847831231
 32
0.0
 13
-0.4801775296
 23
0.0753490407
 33
0.0
 40
0.0
 40
0.0
 40
0.0
 40
0.0
 40
1.0
 40
1.0
 40
1.0
 40
1.0
 10
65.8451481059
 20
113.9366408872
 30
0.0
 10
65.7307873191
 20
113.9083798461
 30
0.0
 10
65.5958503328
 20
113.9060058164
 30
0.0
 10
65.4357911562
 20
113.9311221633
 30
0.0
 11
65.8451481059
 21
113.9366408872
 31
0.0
 11
65.4357911562
 21
113.9311221633
 31
0.0
  0
SPLINE
  5
745
100
AcDbEntity
  8
0
100
AcDbSpline
 62
7
  6
CONTINUOUS
 70
0
 71
3
 72
8
 73
4
 74
2
 42
0.0000001
 43
0.0000001
 44
0.0000000001
 12
-0.4801775296
 22
0.0753490407
 32
0.0
 13
-0.3005960178
 23
0.1857757893
 33
0.0
 40
0.0
 40
0.0
 40
0.0
 40
0.0
 40
1.0
 40
1.0
 40
1.0
 40
1.0
 10
65.4357911562
 20
113.9311221633
 30
0.0
 10
65.2757319797
 20
113.9562385102
 30
0.0
 10
65.1480078062
 20
113.9998291009
 30
0.0
 10
65.0478091336
 20
114.061754364
 30
0.0
 11
65.4357911562
 21
113.9311221633
 31
0.0
 11
65.0478091336
 21
114.061754364
 31
0.0
  0
SPLINE
  5
746
100
AcDbEntity
  8
0
100
AcDbSpline
 62
7
  6
CONTINUOUS
 70
0
 71
3
 72
8
 73
4
 74
2
 42
0.0000001
 43
0.0000001
 44
0.0000000001
 12
-0.3779117864
 22
0.2335588505
 32
0.0
 13
0.0540969676
 23
0.344744247
 33
0.0
 40
0.0
 40
0.0
 40
0.0
 40
0.0
 40
1.0
 40
1.0
 40
1.0
 40
1.0
 10
65.0478091336
 20
114.061754364
 30
0.0
 10
64.9218385381
 20
114.1396073141
 30
0.0
 10
64.8659795267
 20
114.2392030716
 30
0.0
 10
64.8840118492
 20
114.3541178206
 30
0.0
 11
65.0478091336
 21
114.061754364
 31
0.0
 11
64.8840118492
 21
114.3541178206
 31
0.0
  0
SPLINE
  5
747
100
AcDbEntity
  8
0
100
AcDbSpline
 62
7
  6
CONTINUOUS
 70
0
 71
3
 72
8
 73
4
 74
2
 42
0.0000001
 43
0.0000001
 44
0.0000000001
 12
0.0525510987
 22
0.3348928738
 32
0.0
 13
0.4343853801
 23
0.0993544726
 33
0.0
 40
0.0
 40
0.0
 40
0.0
 40
0.0
 40
1.0
 40
1.0
 40
1.0
 40
1.0
 10
64.8840118492
 20
114.3541178206
 30
0.0
 10
64.9015288821
 20
114.4657487785
 30
0.0
 10
64.9846937738
 20
114.5401654573
 30
0.0
 10
65.1294889005
 20
114.5732836148
 30
0.0
 11
64.8840118492
 21
114.3541178206
 31
0.0
 11
65.1294889005
 21
114.5732836148
 31
0.0
  0
SPLINE
  5
748
100
AcDbEntity
  8
0
100
AcDbSpline
 62
7
  6
CONTINUOUS
 70
0
 71
3
 72
8
 73
4
 74
2
 42
0.0000001
 43
0.0000001
 44
0.0000000001
 12
0.3507177641
 22
0.0802176594
 32
0.0
 13
0.4555530535
 23
-0.0714849893
 33
0.0
 40
0.0
 40
0.0
 40
0.0
 40
0.0
 40
1.0
 40
1.0
 40
1.0
 40
1.0
 10
65.1294889005
 20
114.5732836148
 30
0.0
 10
65.2463948219
 20
114.6000228346
 30
0.0
 10
65.3813318913
 20
114.6023979325
 30
0.0
 10
65.5331829092
 20
114.5785696027
 30
0.0
 11
65.1294889005
 21
114.5732836148
 31
0.0
 11
65.5331829092
 21
114.5785696027
 31
0.0
  0
SPLINE
  5
749
100
AcDbEntity
  8
0
100
AcDbSpline
 62
7
  6
CONTINUOUS
 70
0
 71
3
 72
8
 73
4
 74
2
 42
0.0000001
 43
0.0000001
 44
0.0000000001
 12
0.4678652916
 22
-0.073417015
 32
0.0
 13
0.3000245122
 23
-0.1782795111
 33
0.0
 40
0.0
 40
0.0
 40
0.0
 40
0.0
 40
1.0
 40
1.0
 40
1.0
 40
1.0
 10
65.5331829092
 20
114.5785696027
 30
0.0
 10
65.6891380064
 20
114.5540972644
 30
0.0
 10
65.8168620968
 20
114.5105056056
 30
0.0
 10
65.9168702675
 20
114.4510791019
 30
0.0
 11
65.5331829092
 21
114.5785696027
 31
0.0
 11
65.9168702675
 21
114.4510791019
 31
0.0
  0
SPLINE
  5
74A
100
AcDbEntity
  8
0
100
AcDbSpline
 62
7
  6
CONTINUOUS
 70
0
 71
3
 72
8
 73
4
 74
2
 42
0.0000001
 43
0.0000001
 44
0.0000000001
 12
-0.6471249704
 22
-0.3652305014
 32
0.0
 13
-0.1143759207
 23
-0.72888449
 33
0.0
 40
0.0
 40
0.0
 40
0.0
 40
0.0
 40
1.0
 40
1.0
 40
1.0
 40
1.0
 10
64.818898144
 20
114.9909029689
 30
0.0
 10
64.6031898205
 20
114.8691594684
 30
0.0
 10
64.4778835848
 20
114.6869758573
 30
0.0
 10
64.4397582779
 20
114.4440143606
 30
0.0
 11
64.818898144
 21
114.9909029689
 31
0.0
 11
64.4397582779
 21
114.4440143606
 31
0.0
  0
SPLINE
  5
74B
100
AcDbEntity
  8
0
100
AcDbSpline
 62
7
  6
CONTINUOUS
 70
0
 71
3
 72
8
 73
4
 74
2
 42
0.0000001
 43
0.0000001
 44
0.0000000001
 12
-0.1221042719
 22
-0.7781350248
 32
0.0
 13
0.5079394781
 23
-0.5616337931
 33
0.0
 40
0.0
 40
0.0
 40
0.0
 40
0.0
 40
1.0
 40
1.0
 40
1.0
 40
1.0
 10
64.4397582779
 20
114.4440143606
 30
0.0
 10
64.3990568539
 20
114.184636019
 30
0.0
 10
64.4604774402
 20
113.9596949601
 30
0.0
 10
64.6297905996
 20
113.7724836957
 30
0.0
 11
64.4397582779
 21
114.4440143606
 31
0.0
 11
64.6297905996
 21
113.7724836957
 31
0.0
  0
SPLINE
  5
74C
100
AcDbEntity
  8
0
100
AcDbSpline
 62
7
  6
CONTINUOUS
 70
0
 71
3
 72
8
 73
4
 74
2
 42
0.0000001
 43
0.0000001
 44
0.0000000001
 12
0.5025776852
 22
-0.5557052048
 32
0.0
 13
0.9726672971
 23
-0.152630107
 33
0.0
 40
0.0
 40
0.0
 40
0.0
 40
0.0
 40
1.0
 40
1.0
 40
1.0
 40
1.0
 10
64.6297905996
 20
113.7724836957
 30
0.0
 10
64.7973164946
 20
113.5872486274
 30
0.0
 10
65.0435086932
 20
113.4678777389
 30
0.0
 10
65.3677311256
 20
113.4170010366
 30
0.0
 11
64.6297905996
 21
113.7724836957
 31
0.0
 11
65.3677311256
 21
113.4170010366
 31
0.0
  0
SPLINE
  5
74D
100
AcDbEntity
  8
0
100
AcDbSpline
 62
7
  6
CONTINUOUS
 70
0
 71
3
 72
8
 73
4
 74
2
 42
0.0000001
 43
0.0000001
 44
0.0000000001
 12
0.9234183451
 22
-0.1449020042
 32
0.0
 13
0.648586763
 23
0.3750805981
 33
0.0
 40
0.0
 40
0.0
 40
0.0
 40
0.0
 40
1.0
 40
1.0
 40
1.0
 40
1.0
 10
65.3677311256
 20
113.4170010366
 30
0.0
 10
65.6755372407
 20
113.3687003685
 30
0.0
 10
65.9377358785
 20
113.4049303589
 30
0.0
 10
66.1539314662
 20
113.529957225
 30
0.0
 11
65.3677311256
 21
113.4170010366
 31
0.0
 11
66.1539314662
 21
113.529957225
 31
0.0
  0
SPLINE
  5
74E
100
AcDbEntity
  8
0
100
AcDbSpline
 62
7
  6
CONTINUOUS
 70
0
 71
3
 72
8
 73
4
 74
2
 42
0.0000001
 43
0.0000001
 44
0.0000000001
 12
0.6417402443
 22
0.371121226
 32
0.0
 13
0.1159212929
 23
0.7387326976
 33
0.0
 40
0.0
 40
0.0
 40
0.0
 40
0.0
 40
1.0
 40
1.0
 40
1.0
 40
1.0
 10
66.1539314662
 20
113.529957225
 30
0.0
 10
66.367844881
 20
113.6536643003
 30
0.0
 10
66.4936664527
 20
113.8391316952
 30
0.0
 10
66.5323068837
 20
114.0853759278
 30
0.0
 11
66.1539314662
 21
113.529957225
 31
0.0
 11
66.5323068837
 21
114.0853759278
 31
0.0
  0
SPLINE
  5
74F
100
AcDbEntity
  8
0
100
AcDbSpline
 62
7
  6
CONTINUOUS
 70
0
 71
3
 72
8
 73
4
 74
2
 42
0.0000001
 43
0.0000001
 44
0.0000000001
 12
0.1205588997
 22
0.7682868172
 32
0.0
 13
-0.5094552543
 23
0.5517524207
 33
0.0
 40
0.0
 40
0.0
 40
0.0
 40
0.0
 40
1.0
 40
1.0
 40
1.0
 40
1.0
 10
66.5323068837
 20
114.0853759278
 30
0.0
 10
66.5724931836
 20
114.3414715335
 30
0.0
 10
66.5059380579
 20
114.5604900813
 30
0.0
 10
66.3361196398
 20
114.7444075549
 30
0.0
 11
66.5323068837
 21
114.0853759278
 31
0.0
 11
66.3361196398
 21
114.7444075549
 31
0.0
  0
SPLINE
  5
750
100
AcDbEntity
  8
0
100
AcDbSpline
 62
7
  6
CONTINUOUS
 70
0
 71
3
 72
8
 73
4
 74
2
 42
0.0000001
 43
0.0000001
 44
0.0000000001
 12
-0.5149195655
 22
0.5576704026
 32
0.0
 13
-0.9603550591
 23
0.1506980813
 33
0.0
 40
0.0
 40
0.0
 40
0.0
 40
0.0
 40
1.0
 40
1.0
 40
1.0
 40
1.0
 10
66.3361196398
 20
114.7444075549
 30
0.0
 10
66.1644797846
 20
114.9302976891
 30
0.0
 10
65.9182876272
 20
115.0496685712
 30
0.0
 10
65.5981692742
 20
115.099901265
 30
0.0
 11
66.3361196398
 21
114.7444075549
 31
0.0
 11
65.5981692742
 21
115.099901265
 31
0.0
  0
SPLINE
  5
751
100
AcDbEntity
  8
0
100
AcDbSpline
 62
7
  6
CONTINUOUS
 70
0
 71
3
 72
8
 73
4
 74
2
 42
0.0000001
 43
0.0000001
 44
0.0000000001
 12
-0.9234183451
 22
0.1449020042
 32
0.0
 13
-0.6401107495
 23
-0.3612717492
 33
0.0
 40
0.0
 40
0.0
 40
0.0
 40
0.0
 40
1.0
 40
1.0
 40
1.0
 40
1.0
 10
65.5981692742
 20
115.099901265
 30
0.0
 10
65.2903631592
 20
115.1482019331
 30
0.0
 10
65.0322683938
 20
115.1113268853
 30
0.0
 10
64.818898144
 20
114.9909029689
 30
0.0
 11
65.5981692742
 21
115.099901265
 31
0.0
 11
64.818898144
 21
114.9909029689
 31
0.0
  0
SPLINE
  5
752
100
AcDbEntity
  8
0
100
AcDbSpline
 62
7
  6
CONTINUOUS
 70
0
 71
3
 72
8
 73
4
 74
2
 42
0.0000001
 43
0.0000001
 44
0.0000000001
 12
-0.0661643282
 22
-0.6045815458
 32
0.0
 13
0.7205583588
 23
-0.2894818592
 33
0.0
 40
0.0
 40
0.0
 40
0.0
 40
0.0
 40
1.0
 40
1.0
 40
1.0
 40
1.0
 10
64.2659809745
 20
113.2127456194
 30
0.0
 10
64.2439261984
 20
113.0112184374
 30
0.0
 10
64.3992937952
 20
112.8270511202
 30
0.0
 10
64.6394799148
 20
112.7305571671
 30
0.0
 11
64.2659809745
 21
113.2127456194
 31
0.0
 11
64.6394799148
 21
112.7305571671
 31
0.0
  0
SPLINE
  5
753
100
AcDbEntity
  8
0
100
AcDbSpline
 62
7
  6
CONTINUOUS
 70
0
 71
3
 72
8
 73
4
 74
2
 42
0.0000001
 43
0.0000001
 44
0.0000000001
 12
0.3490599513
 22
-0.0181408001
 32
0.0
 13
0.9787262416
 23
-0.1071100577
 33
0.0
 40
0.0
 40
0.0
 40
0.0
 40
0.0
 40
1.0
 40
1.0
 40
1.0
 40
1.0
 10
64.2130647149
 20
112.3091636282
 30
0.0
 10
64.329418032
 20
112.3031166949
 30
0.0
 10
64.552780329
 20
112.2820150687
 30
0.0
 10
64.8790224096
 20
112.2463117161
 30
0.0
 11
64.2130647149
 21
112.3091636282
 31
0.0
 11
64.8790224096
 21
112.2463117161
 31
0.0
  0
SPLINE
  5
754
100
AcDbEntity
  8
0
100
AcDbSpline
 62
7
  6
CONTINUOUS
 70
0
 71
3
 72
8
 73
4
 74
2
 42
0.0000001
 43
0.0000001
 44
0.0000000001
 12
-0.9167815743
 22
0.1003309436
 32
0.0
 13
0.0770109108
 23
0.7036930136
 33
0.0
 40
0.0
 40
0.0
 40
0.0
 40
0.0
 40
1.0
 40
1.0
 40
1.0
 40
1.0
 10
65.2684797976
 20
112.7118692515
 30
0.0
 10
64.9628859395
 20
112.7453128994
 30
0.0
 10
64.8231049926
 20
112.8809684755
 30
0.0
 10
64.8487752962
 20
113.1155328134
 30
0.0
 11
65.2684797976
 21
112.7118692515
 31
0.0
 11
64.8487752962
 21
113.1155328134
 31
0.0
  0
SPLINE
  5
755
100
AcDbEntity
  8
0
100
AcDbSpline
 62
7
  6
CONTINUOUS
 70
0
 71
3
 72
8
 73
4
 74
2
 42
0.0000001
 43
0.0000001
 44
0.0000000001
 12
0.0119310666
 22
0.1090210218
 32
0.0
 13
0.0556061651
 23
0.1644236193
 33
0.0
 40
0.0
 40
0.0
 40
0.0
 40
0.0
 40
1.0
 40
1.0
 40
1.0
 40
1.0
 10
64.8487752962
 20
113.1155328134
 30
0.0
 10
64.8527523184
 20
113.151873154
 30
0.0
 10
64.8619437014
 20
113.1976732313
 30
0.0
 10
64.8804790898
 20
113.2524811044
 30
0.0
 11
64.8487752962
 21
113.1155328134
 31
0.0
 11
64.8804790898
 21
113.2524811044
 31
0.0
  0
SPLINE
  5
756
100
AcDbEntity
  8
0
100
AcDbSpline
 62
7
  6
CONTINUOUS
 70
0
 71
3
 72
8
 73
4
 74
2
 42
0.0000001
 43
0.0000001
 44
0.0000000001
 12
-0.0367092821
 22
-0.1063125615
 32
0.0
 13
-0.0119310666
 23
-0.1090210218
 33
0.0
 40
0.0
 40
0.0
 40
0.0
 40
0.0
 40
1.0
 40
1.0
 40
1.0
 40
1.0
 10
64.2899395961
 20
113.3171086955
 30
0.0
 10
64.2777031687
 20
113.281671175
 30
0.0
 10
64.2699579967
 20
113.24908596
 30
0.0
 10
64.2659809745
 20
113.2127456194
 30
0.0
 11
64.2899395961
 21
113.3171086955
 31
0.0
 11
64.2659809745
 21
113.2127456194
 31
0.0
  0
SPLINE
  5
757
100
AcDbEntity
  8
0
100
AcDbSpline
 62
7
  6
CONTINUOUS
 70
0
 71
3
 72
8
 73
4
 74
2
 42
0.0000001
 43
0.0000001
 44
0.0000000001
 12
0.35411776
 22
-0.205475469
 32
0.0
 13
-0.0212227018
 23
-0.3583036083
 33
0.0
 40
0.0
 40
0.0
 40
0.0
 40
0.0
 40
1.0
 40
1.0
 40
1.0
 40
1.0
 10
65.5406643502
 20
111.2318578962
 30
0.0
 10
65.6587036035
 20
111.1633660733
 30
0.0
 10
65.7156034889
 20
111.070106205
 30
0.0
 10
65.7085292549
 20
110.9506716689
 30
0.0
 11
65.5406643502
 21
111.2318578962
 31
0.0
 11
65.7085292549
 21
110.9506716689
 31
0.0
  0
SPLINE
  5
758
100
AcDbEntity
  8
0
100
AcDbSpline
 62
7
  6
CONTINUOUS
 70
0
 71
3
 72
8
 73
4
 74
2
 42
0.0000001
 43
0.0000001
 44
0.0000000001
 12
-0.0123800041
 22
-0.2090120376
 32
0.0
 13
-0.1843740532
 23
-0.158748292
 33
0.0
 40
0.0
 40
0.0
 40
0.0
 40
0.0
 40
1.0
 40
1.0
 40
1.0
 40
1.0
 10
65.7085292549
 20
110.9506716689
 30
0.0
 10
65.7044025869
 20
110.8810009897
 30
0.0
 10
65.6716397043
 20
110.8196849943
 30
0.0
 10
65.6101816866
 20
110.766768897
 30
0.0
 11
65.7085292549
 21
110.9506716689
 31
0.0
 11
65.6101816866
 21
110.766768897
 31
0.0
  0
SPLINE
  5
759
100
AcDbEntity
  8
0
100
AcDbSpline
 62
7
  6
CONTINUOUS
 70
0
 71
3
 72
8
 73
4
 74
2
 42
0.0000001
 43
0.0000001
 44
0.0000000001
 12
-0.2497631944
 22
-0.2150491344
 32
0.0
 13
-0.4603208578
 23
0.0272652915
 33
0.0
 40
0.0
 40
0.0
 40
0.0
 40
0.0
 40
1.0
 40
1.0
 40
1.0
 40
1.0
 10
65.6101816866
 20
110.766768897
 30
0.0
 10
65.5269272884
 20
110.6950858522
 30
0.0
 10
65.4125992912
 20
110.661906437
 30
0.0
 10
65.2591590053
 20
110.6709948674
 30
0.0
 11
65.6101816866
 21
110.766768897
 31
0.0
 11
65.2591590053
 21
110.6709948674
 31
0.0
  0
SPLINE
  5
75A
100
AcDbEntity
  8
0
100
AcDbSpline
 62
7
  6
CONTINUOUS
 70
0
 71
3
 72
8
 73
4
 74
2
 42
0.0000001
 43
0.0000001
 44
0.0000000001
 12
-0.6967017106
 22
0.0412663795
 32
0.0
 13
0.032423667
 23
0.5474098899
 33
0.0
 40
0.0
 40
0.0
 40
0.0
 40
0.0
 40
1.0
 40
1.0
 40
1.0
 40
1.0
 10
64.9813076609
 20
110.6874522966
 30
0.0
 10
64.7490737574
 20
110.7012077564
 30
0.0
 10
64.5576798156
 20
110.8423861034
 30
0.0
 10
64.5684877046
 20
111.0248560667
 30
0.0
 11
64.9813076609
 21
110.6874522966
 31
0.0
 11
64.5684877046
 21
111.0248560667
 31
0.0
  0
SPLINE
  5
75B
100
AcDbEntity
  8
0
100
AcDbSpline
 62
7
  6
CONTINUOUS
 70
0
 71
3
 72
8
 73
4
 74
2
 42
0.0000001
 43
0.0000001
 44
0.0000000001
 12
0.0206330876
 22
0.348349131
 32
0.0
 13
0.3728115527
 23
0.1556725967
 33
0.0
 40
0.0
 40
0.0
 40
0.0
 40
0.0
 40
1.0
 40
1.0
 40
1.0
 40
1.0
 10
64.5684877046
 20
111.0248560667
 30
0.0
 10
64.5753654004
 20
111.1409724437
 30
0.0
 10
64.6428767616
 20
111.2268643722
 30
0.0
 10
64.7671472792
 20
111.2787552378
 30
0.0
 11
64.5684877046
 21
111.0248560667
 31
0.0
 11
64.7671472792
 21
111.2787552378
 31
0.0
  0
SPLINE
  5
75C
100
AcDbEntity
  8
0
100
AcDbSpline
 62
7
  6
CONTINUOUS
 70
0
 71
3
 72
8
 73
4
 74
2
 42
0.0000001
 43
0.0000001
 44
0.0000000001
 12
0.3184620115
 22
0.1329781975
 32
0.0
 13
0.4603208578
 23
-0.0272652915
 33
0.0
 40
0.0
 40
0.0
 40
0.0
 40
0.0
 40
1.0
 40
1.0
 40
1.0
 40
1.0
 10
64.7671472792
 20
111.2787552378
 30
0.0
 10
64.873301283
 20
111.3230813036
 30
0.0
 10
65.0034313426
 20
111.3420076848
 30
0.0
 10
65.1568716286
 20
111.3329192543
 30
0.0
 11
64.7671472792
 21
111.2787552378
 31
0.0
 11
65.1568716286
 21
111.3329192543
 31
0.0
  0
SPLINE
  5
75D
100
AcDbEntity
  8
0
100
AcDbSpline
 62
7
  6
CONTINUOUS
 70
0
 71
3
 72
8
 73
4
 74
2
 42
0.0000001
 43
0.0000001
 44
0.0000000001
 12
0.4727619554
 22
-0.0280021908
 32
0.0
 13
0.2976580927
 23
-0.1727149641
 33
0.0
 40
0.0
 40
0.0
 40
0.0
 40
0.0
 40
1.0
 40
1.0
 40
1.0
 40
1.0
 10
65.1568716286
 20
111.3329192543
 30
0.0
 10
65.314458947
 20
111.3235851907
 30
0.0
 10
65.441444986
 20
111.2894295509
 30
0.0
 10
65.5406643502
 20
111.2318578962
 30
0.0
 11
65.1568716286
 21
111.3329192543
 31
0.0
 11
65.5406643502
 21
111.2318578962
 31
0.0
  0
SPLINE
  5
75E
100
AcDbEntity
  8
0
100
AcDbSpline
 62
7
  6
CONTINUOUS
 70
0
 71
3
 72
8
 73
4
 74
2
 42
0.0000001
 43
0.0000001
 44
0.0000000001
 12
-0.6777599045
 22
-0.3336003385
 32
0.0
 13
-0.0377292477
 23
-0.6369841926
 33
0.0
 40
0.0
 40
0.0
 40
0.0
 40
0.0
 40
1.0
 40
1.0
 40
1.0
 40
1.0
 10
64.4419430499
 20
111.7195783313
 30
0.0
 10
64.2160230818
 20
111.6083782184
 30
0.0
 10
64.0981784368
 20
111.4455662866
 30
0.0
 10
64.0856020209
 20
111.2332382224
 30
0.0
 11
64.4419430499
 21
111.7195783313
 31
0.0
 11
64.0856020209
 21
111.2332382224
 31
0.0
  0
SPLINE
  5
75F
100
AcDbEntity
  8
0
100
AcDbSpline
 62
7
  6
CONTINUOUS
 70
0
 71
3
 72
8
 73
4
 74
2
 42
0.0000001
 43
0.0000001
 44
0.0000000001
 12
-0.0418559789
 22
-0.7066559381
 32
0.0
 13
0.6375665413
 23
-0.4073105832
 33
0.0
 40
0.0
 40
0.0
 40
0.0
 40
0.0
 40
1.0
 40
1.0
 40
1.0
 40
1.0
 10
64.0856020209
 20
111.2332382224
 30
0.0
 10
64.0716500279
 20
110.997686243
 30
0.0
 10
64.1686649841
 20
110.8088298185
 30
0.0
 10
64.3811871645
 20
110.6730596242
 30
0.0
 11
64.0856020209
 21
111.2332382224
 31
0.0
 11
64.3811871645
 21
110.6730596242
 31
0.0
  0
SPLINE
  5
760
100
AcDbEntity
  8
0
100
AcDbSpline
 62
7
  6
CONTINUOUS
 70
0
 71
3
 72
8
 73
4
 74
2
 42
0.0000001
 43
0.0000001
 44
0.0000000001
 12
0.7340251281
 22
-0.043477085
 32
0.0
 13
0.034781745
 23
0.5872214019
 33
0.0
 40
0.0
 40
0.0
 40
0.0
 40
0.0
 40
1.0
 40
1.0
 40
1.0
 40
1.0
 10
66.4858414493
 20
110.0922888441
 30
0.0
 10
66.730516492
 20
110.0777964825
 30
0.0
 10
66.9303194111
 20
110.2191081476
 30
0.0
 10
66.941913326
 20
110.4148486149
 30
0.0
 11
66.4858414493
 21
110.0922888441
 31
0.0
 11
66.941913326
 21
110.4148486149
 31
0.0
  0
SPLINE
  5
761
100
AcDbEntity
  8
0
100
AcDbSpline
 62
7
  6
CONTINUOUS
 70
0
 71
3
 72
8
 73
4
 74
2
 42
0.0000001
 43
0.0000001
 44
0.0000000001
 12
0.4768273569
 22
0.2514152956
 32
0.0
 13
0.034781745
 23
0.5872214019
 33
0.0
 40
0.0
 40
0.0
 40
0.0
 40
0.0
 40
1.0
 40
1.0
 40
1.0
 40
1.0
 10
65.9434197016
 20
110.6304653824
 30
0.0
 10
66.1023621539
 20
110.7142704809
 30
0.0
 10
66.1894090809
 20
110.8489437416
 30
0.0
 10
66.2010029958
 20
111.0446842089
 30
0.0
 11
65.9434197016
 21
110.6304653824
 31
0.0
 11
66.2010029958
 21
111.0446842089
 31
0.0
  0
SPLINE
  5
762
100
AcDbEntity
  8
0
100
AcDbSpline
 62
7
  6
CONTINUOUS
 70
0
 71
3
 72
8
 73
4
 74
2
 42
0.0000001
 43
0.0000001
 44
0.0000000001
 12
0.0412663647
 22
0.6967014607
 32
0.0
 13
-0.6381965569
 23
0.4443273882
 33
0.0
 40
0.0
 40
0.0
 40
0.0
 40
0.0
 40
1.0
 40
1.0
 40
1.0
 40
1.0
 10
66.2010029958
 20
111.0446842089
 30
0.0
 10
66.2147584507
 20
111.2769180291
 30
0.0
 10
66.1135964101
 20
111.4660200898
 30
0.0
 10
65.9008642244
 20
111.6141292192
 30
0.0
 11
66.2010029958
 21
111.0446842089
 31
0.0
 11
65.9008642244
 21
111.6141292192
 31
0.0
  0
SPLINE
  5
763
100
AcDbEntity
  8
0
100
AcDbSpline
 62
7
  6
CONTINUOUS
 70
0
 71
3
 72
8
 73
4
 74
2
 42
0.0000001
 43
0.0000001
 44
0.0000000001
 12
-0.5848135247
 22
0.407160871
 32
0.0
 13
-0.9082006182
 23
0.0537936835
 33
0.0
 40
0.0
 40
0.0
 40
0.0
 40
0.0
 40
1.0
 40
1.0
 40
1.0
 40
1.0
 10
65.9008642244
 20
111.6141292192
 30
0.0
 10
65.7059263829
 20
111.7498495096
 30
0.0
 10
65.4608379412
 20
111.8276218628
 30
0.0
 10
65.1581044018
 20
111.8455530907
 30
0.0
 11
65.9008642244
 21
111.6141292192
 31
0.0
 11
65.1581044018
 21
111.8455530907
 31
0.0
  0
SPLINE
  5
764
100
AcDbEntity
  8
0
100
AcDbSpline
 62
7
  6
CONTINUOUS
 70
0
 71
3
 72
8
 73
4
 74
2
 42
0.0000001
 43
0.0000001
 44
0.0000000001
 12
-0.8335540331
 22
0.0493722873
 32
0.0
 13
-0.6082068252
 23
-0.2993656034
 33
0.0
 40
0.0
 40
0.0
 40
0.0
 40
0.0
 40
1.0
 40
1.0
 40
1.0
 40
1.0
 10
65.1581044018
 20
111.8455530907
 30
0.0
 10
64.8802530574
 20
111.8620105198
 30
0.0
 10
64.6446786583
 20
111.8193668657
 30
0.0
 10
64.4419430499
 20
111.7195783313
 30
0.0
 11
65.1581044018
 21
111.8455530907
 31
0.0
 11
64.4419430499
 21
111.7195783313
 31
0.0
  0
SPLINE
  5
765
100
AcDbEntity
  8
0
100
AcDbSpline
 62
7
  6
CONTINUOUS
 70
0
 71
3
 72
8
 73
4
 74
2
 42
0.0000001
 43
0.0000001
 44
0.0000000001
 12
0.007713417
 22
-0.3289285846
 32
0.0
 13
-0.3459910074
 23
-0.1859837916
 33
0.0
 40
0.0
 40
0.0
 40
0.0
 40
0.0
 40
1.0
 40
1.0
 40
1.0
 40
1.0
 10
65.6211278537
 20
108.24241487
 30
0.0
 10
65.6236989927
 20
108.1327720085
 30
0.0
 10
65.5675026225
 20
108.0483448068
 30
0.0
 10
65.4521722867
 20
107.9863502096
 30
0.0
 11
65.6211278537
 21
108.24241487
 31
0.0
 11
65.4521722867
 21
107.9863502096
 31
0.0
  0
SPLINE
  5
766
100
AcDbEntity
  8
0
100
AcDbSpline
 62
7
  6
CONTINUOUS
 70
0
 71
3
 72
8
 73
4
 74
2
 42
0.0000001
 43
0.0000001
 44
0.0000000001
 12
-0.2941886171
 22
-0.1581379669
 32
0.0
 13
-0.4360819367
 23
-0.0102261767
 33
0.0
 40
0.0
 40
0.0
 40
0.0
 40
0.0
 40
1.0
 40
1.0
 40
1.0
 40
1.0
 10
65.4521722867
 20
107.9863502096
 30
0.0
 10
65.3541094143
 20
107.933637554
 30
0.0
 10
65.2342910317
 20
107.9042329639
 30
0.0
 10
65.0889303862
 20
107.9008242384
 30
0.0
 11
65.4521722867
 21
107.9863502096
 31
0.0
 11
65.0889303862
 21
107.9008242384
 31
0.0
  0
SPLINE
  5
767
100
AcDbEntity
  8
0
100
AcDbSpline
 62
7
  6
CONTINUOUS
 70
0
 71
3
 72
8
 73
4
 74
2
 42
0.0000001
 43
0.0000001
 44
0.0000000001
 12
-0.4485414134
 22
-0.010518353
 32
0.0
 13
-0.3271777768
 23
0.1423175606
 33
0.0
 40
0.0
 40
0.0
 40
0.0
 40
0.0
 40
1.0
 40
1.0
 40
1.0
 40
1.0
 10
65.0889303862
 20
107.9008242384
 30
0.0
 10
64.9394165817
 20
107.8973181207
 30
0.0
 10
64.810123272
 20
107.9175561215
 30
0.0
 10
64.701064013
 20
107.9649953084
 30
0.0
 11
65.0889303862
 21
107.9008242384
 31
0.0
 11
64.701064013
 21
107.9649953084
 31
0.0
  0
SPLINE
  5
768
100
AcDbEntity
  8
0
100
AcDbSpline
 62
7
  6
CONTINUOUS
 70
0
 71
3
 72
8
 73
4
 74
2
 42
0.0000001
 43
0.0000001
 44
0.0000000001
 12
-0.3907261406
 22
0.1699601719
 32
0.0
 13
-0.0079471956
 23
0.3388977677
 33
0.0
 40
0.0
 40
0.0
 40
0.0
 40
0.0
 40
1.0
 40
1.0
 40
1.0
 40
1.0
 10
64.701064013
 20
107.9649953084
 30
0.0
 10
64.5708219662
 20
108.0216486991
 30
0.0
 10
64.5064986598
 20
108.1065735191
 30
0.0
 10
64.5038495946
 20
108.2195394417
 30
0.0
 11
64.701064013
 21
107.9649953084
 31
0.0
 11
64.5038495946
 21
108.2195394417
 31
0.0
  0
SPLINE
  5
769
100
AcDbEntity
  8
0
100
AcDbSpline
 62
7
  6
CONTINUOUS
 70
0
 71
3
 72
8
 73
4
 74
2
 42
0.0000001
 43
0.0000001
 44
0.0000000001
 12
-0.0121545345
 22
0.518314233
 32
0.0
 13
0.6603525182
 23
0.0154853502
 33
0.0
 40
0.0
 40
0.0
 40
0.0
 40
0.0
 40
1.0
 40
1.0
 40
1.0
 40
1.0
 10
64.5038495946
 20
108.2195394417
 30
0.0
 10
64.4997980831
 20
108.3923108527
 30
0.0
 10
64.6716597855
 20
108.5060441864
 30
0.0
 10
64.8917772916
 20
108.5112059698
 30
0.0
 11
64.5038495946
 21
108.2195394417
 31
0.0
 11
64.8917772916
 21
108.5112059698
 31
0.0
  0
SPLINE
  5
76A
100
AcDbEntity
  8
0
100
AcDbSpline
 62
7
  6
CONTINUOUS
 70
0
 71
3
 72
8
 73
4
 74
2
 42
0.0000001
 43
0.0000001
 44
0.0000000001
 12
0.8472447947
 22
0.0198679978
 32
0.0
 13
0.0133232773
 23
-0.5681537417
 33
0.0
 40
0.0
 40
0.0
 40
0.0
 40
0.0
 40
1.0
 40
1.0
 40
1.0
 40
1.0
 10
65.1908049006
 20
108.5182182052
 30
0.0
 10
65.4732198321
 20
108.5248408711
 30
0.0
 10
65.6166867613
 20
108.4317994506
 30
0.0
 10
65.6211278537
 20
108.24241487
 30
0.0
 11
65.1908049006
 21
108.5182182052
 31
0.0
 11
65.6211278537
 21
108.24241487
 31
0.0
  0
SPLINE
  5
76B
100
AcDbEntity
  8
0
100
AcDbSpline
 62
7
  6
CONTINUOUS
 70
0
 71
3
 72
8
 73
4
 74
2
 42
0.0000001
 43
0.0000001
 44
0.0000000001
 12
-0.5658904212
 22
-0.3224367472
 32
0.0
 13
0.0142581663
 23
-0.6080208639
 33
0.0
 40
0.0
 40
0.0
 40
0.0
 40
0.0
 40
1.0
 40
1.0
 40
1.0
 40
1.0
 10
64.3047012614
 20
108.5606022269
 30
0.0
 10
64.116071121
 20
108.4531233112
 30
0.0
 10
64.0239766679
 20
108.3046920989
 30
0.0
 10
64.02872939
 20
108.1020184776
 30
0.0
 11
64.3047012614
 21
108.5606022269
 31
0.0
 11
64.02872939
 21
108.1020184776
 31
0.0
  0
SPLINE
  5
76C
100
AcDbEntity
  8
0
100
AcDbSpline
 62
7
  6
CONTINUOUS
 70
0
 71
3
 72
8
 73
4
 74
2
 42
0.0000001
 43
0.0000001
 44
0.0000000001
 12
0.0158943912
 22
-0.6777955354
 32
0.0
 13
0.6727081657
 23
-0.4004242147
 33
0.0
 40
0.0
 40
0.0
 40
0.0
 40
0.0
 40
1.0
 40
1.0
 40
1.0
 40
1.0
 10
64.02872939
 20
108.1020184776
 30
0.0
 10
64.0340275204
 20
107.8760866325
 30
0.0
 10
64.1504480763
 20
107.6959766929
 30
0.0
 10
64.3746841315
 20
107.5625019547
 30
0.0
 11
64.02872939
 21
108.1020184776
 31
0.0
 11
64.3746841315
 21
107.5625019547
 31
0.0
  0
SPLINE
  5
76D
100
AcDbEntity
  8
0
100
AcDbSpline
 62
7
  6
CONTINUOUS
 70
0
 71
3
 72
8
 73
4
 74
2
 42
0.0000001
 43
0.0000001
 44
0.0000000001
 12
0.6168587481
 22
-0.3671802906
 32
0.0
 13
0.8721636231
 23
0.0204523475
 33
0.0
 40
0.0
 40
0.0
 40
0.0
 40
0.0
 40
1.0
 40
1.0
 40
1.0
 40
1.0
 10
64.3746841315
 20
107.5625019547
 30
0.0
 10
64.5803037142
 20
107.4401085245
 30
0.0
 10
64.8268205463
 20
107.3827261111
 30
0.0
 10
65.117541754
 20
107.3895435603
 30
0.0
 11
64.3746841315
 21
107.5625019547
 31
0.0
 11
65.117541754
 21
107.3895435603
 31
0.0
  0
SPLINE
  5
76E
100
AcDbEntity
  8
0
100
AcDbSpline
 62
7
  6
CONTINUOUS
 70
0
 71
3
 72
8
 73
4
 74
2
 42
0.0000001
 43
0.0000001
 44
0.0000000001
 12
0.8223259663
 22
0.0192836481
 32
0.0
 13
0.5504924803
 23
0.3639547901
 33
0.0
 40
0.0
 40
0.0
 40
0.0
 40
0.0
 40
1.0
 40
1.0
 40
1.0
 40
1.0
 10
65.117541754
 20
107.3895435603
 30
0.0
 10
65.3916504094
 20
107.395971443
 30
0.0
 10
65.618671787
 20
107.461133499
 30
0.0
 10
65.8021692804
 20
107.5824517624
 30
0.0
 11
65.117541754
 21
107.3895435603
 31
0.0
 11
65.8021692804
 21
107.5824517624
 31
0.0
  0
SPLINE
  5
76F
100
AcDbEntity
  8
0
100
AcDbSpline
 62
7
  6
CONTINUOUS
 70
0
 71
3
 72
8
 73
4
 74
2
 42
0.0000001
 43
0.0000001
 44
0.0000000001
 12
0.5911763183
 22
0.3908526648
 32
0.0
 13
-0.0151931305
 23
0.6478911895
 33
0.0
 40
0.0
 40
0.0
 40
0.0
 40
0.0
 40
1.0
 40
1.0
 40
1.0
 40
1.0
 10
65.8021692804
 20
107.5824517624
 30
0.0
 10
65.9992280532
 20
107.712735984
 30
0.0
 10
66.0949303012
 20
107.8845228132
 30
0.0
 10
66.0898659244
 20
108.1004865431
 30
0.0
 11
65.8021692804
 21
107.5824517624
 31
0.0
 11
66.0898659244
 21
108.1004865431
 31
0.0
  0
SPLINE
  5
770
100
AcDbEntity
  8
0
100
AcDbSpline
 62
7
  6
CONTINUOUS
 70
0
 71
3
 72
8
 73
4
 74
2
 42
0.0000001
 43
0.0000001
 44
0.0000000001
 12
-0.0133232773
 22
0.5681537417
 32
0.0
 13
-0.5305441776
 23
0.2967220117
 33
0.0
 40
0.0
 40
0.0
 40
0.0
 40
0.0
 40
1.0
 40
1.0
 40
1.0
 40
1.0
 10
66.0898659244
 20
108.1004865431
 30
0.0
 10
66.085424832
 20
108.2898711236
 30
0.0
 10
65.9947802484
 20
108.4340170824
 30
0.0
 10
65.8179321892
 20
108.5329244196
 30
0.0
 11
66.0898659244
 21
108.1004865431
 31
0.0
 11
65.8179321892
 21
108.5329244196
 31
0.0
  0
SPLINE
  5
771
100
AcDbEntity
  8
0
100
AcDbSpline
 62
7
  6
CONTINUOUS
 70
0
 71
3
 72
8
 73
4
 74
2
 42
0.0000001
 43
0.0000001
 44
0.0000000001
 12
1.0715155327
 22
0.025127175
 32
0.0
 13
0.0198679515
 23
-0.8472428176
 33
0.0
 40
0.0
 40
0.0
 40
0.0
 40
0.0
 40
1.0
 40
1.0
 40
1.0
 40
1.0
 10
65.9465243404
 20
108.5425886303
 30
0.0
 10
66.3036961846
 20
108.5509643553
 30
0.0
 10
66.4855544553
 20
108.4156060775
 30
0.0
 10
66.4921771058
 20
108.133191805
 30
0.0
 11
65.9465243404
 21
108.5425886303
 31
0.0
 11
66.4921771058
 21
108.133191805
 31
0.0
  0
SPLINE
  5
772
100
AcDbEntity
  8
0
100
AcDbSpline
 62
7
  6
CONTINUOUS
 70
0
 71
3
 72
8
 73
4
 74
2
 42
0.0000001
 43
0.0000001
 44
0.0000000001
 12
0.0121545345
 22
-0.518314233
 32
0.0
 13
-0.3014362791
 23
-0.4359088107
 33
0.0
 40
0.0
 40
0.0
 40
0.0
 40
0.0
 40
1.0
 40
1.0
 40
1.0
 40
1.0
 10
66.4921771058
 20
108.133191805
 30
0.0
 10
66.4962286173
 20
107.960420394
 30
0.0
 10
66.4500526659
 20
107.8030923795
 30
0.0
 10
66.3495739062
 20
107.6577894426
 30
0.0
 11
66.4921771058
 21
108.133191805
 31
0.0
 11
66.3495739062
 21
107.6577894426
 31
0.0
  0
SPLINE
  5
773
100
AcDbEntity
  8
0
100
AcDbSpline
 62
7
  6
CONTINUOUS
 70
0
 71
3
 72
8
 73
4
 74
2
 42
0.0000001
 43
0.0000001
 44
0.0000000001
 12
0.3009687844
 22
0.4558471785
 32
0.0
 13
-0.0168293554
 23
0.717665861
 33
0.0
 40
0.0
 40
0.0
 40
0.0
 40
0.0
 40
1.0
 40
1.0
 40
1.0
 40
1.0
 10
66.8336780056
 20
107.5694100501
 30
0.0
 10
66.9340009338
 20
107.7213591096
 30
0.0
 10
66.979241921
 20
107.9185574497
 30
0.0
 10
66.9736321359
 20
108.1577794034
 30
0.0
 11
66.8336780056
 21
107.5694100501
 31
0.0
 11
66.9736321359
 21
108.1577794034
 31
0.0
  0
SPLINE
  5
774
100
AcDbEntity
  8
0
100
AcDbSpline
 62
7
  6
CONTINUOUS
 70
0
 71
3
 72
8
 73
4
 74
2
 42
0.0000001
 43
0.0000001
 44
0.0000000001
 12
-0.0439433169
 22
1.8739053038
 32
0.0
 13
-2.3548422953
 23
-0.0552213503
 33
0.0
 40
0.0
 40
0.0
 40
0.0
 40
0.0
 40
1.0
 40
1.0
 40
1.0
 40
1.0
 10
66.9736321359
 20
108.1577794034
 30
0.0
 10
66.9589843636
 20
108.7824145046
 30
0.0
 10
66.5744240597
 20
109.0559671597
 30
0.0
 10
65.7894766279
 20
109.0375600429
 30
0.0
 11
66.9736321359
 21
108.1577794034
 31
0.0
 11
65.7894766279
 21
109.0375600429
 31
0.0
  0
SPLINE
  5
775
100
AcDbEntity
  8
0
100
AcDbSpline
 62
7
  6
CONTINUOUS
 70
0
 71
3
 72
8
 73
4
 74
2
 42
0.0000001
 43
0.0000001
 44
0.0000000001
 12
-0.685271722
 22
-0.0160697087
 32
0.0
 13
-0.5364592617
 23
0.0173407529
 33
0.0
 40
0.0
 40
0.0
 40
0.0
 40
0.0
 40
1.0
 40
1.0
 40
1.0
 40
1.0
 10
64.6598168808
 20
109.0110693787
 30
0.0
 10
64.4313929734
 20
109.0057128091
 30
0.0
 10
64.2319634442
 20
109.0043599814
 30
0.0
 10
64.0531436903
 20
109.0101402324
 30
0.0
 11
64.6598168808
 21
109.0110693787
 31
0.0
 11
64.0531436903
 21
109.0101402324
 31
0.0
  0
SPLINE
  5
776
100
AcDbEntity
  8
0
100
AcDbSpline
 62
7
  6
CONTINUOUS
 70
0
 71
3
 72
8
 73
4
 74
2
 42
0.0000001
 43
0.0000001
 44
0.0000000001
 12
-0.4970580973
 22
-0.350462449
 32
0.0
 13
0.048805465
 23
-0.5862192434
 33
0.0
 40
0.0
 40
0.0
 40
0.0
 40
0.0
 40
1.0
 40
1.0
 40
1.0
 40
1.0
 10
64.3438489934
 20
106.8174137337
 30
0.0
 10
64.1781629609
 20
106.7005929173
 30
0.0
 10
64.1036316768
 20
106.5443150702
 30
0.0
 10
64.1199001651
 20
106.3489086557
 30
0.0
 11
64.3438489934
 21
106.8174137337
 31
0.0
 11
64.1199001651
 21
106.3489086557
 31
0.0
  0
SPLINE
  5
777
100
AcDbEntity
  8
0
100
AcDbSpline
 62
7
  6
CONTINUOUS
 70
0
 71
3
 72
8
 73
4
 74
2
 42
0.0000001
 43
0.0000001
 44
0.0000000001
 12
0.0562506526
 22
-0.6756459547
 32
0.0
 13
0.685554997
 23
-0.2730832951
 33
0.0
 40
0.0
 40
0.0
 40
0.0
 40
0.0
 40
1.0
 40
1.0
 40
1.0
 40
1.0
 10
64.1199001651
 20
106.3489086557
 30
0.0
 10
64.1386503826
 20
106.1236933375
 30
0.0
 10
64.2600766945
 20
105.9670557099
 30
0.0
 10
64.4885950268
 20
105.8760279449
 30
0.0
 11
64.1199001651
 21
106.3489086557
 31
0.0
 11
64.4885950268
 21
105.8760279449
 31
0.0
  0
SPLINE
  5
778
100
AcDbEntity
  8
0
100
AcDbSpline
 62
7
  6
CONTINUOUS
 70
0
 71
3
 72
8
 73
4
 74
2
 42
0.0000001
 43
0.0000001
 44
0.0000000001
 12
-0.6458367682
 22
-0.0537688998
 32
0.0
 13
-0.0430151033
 23
0.516669215
 33
0.0
 40
0.0
 40
0.0
 40
0.0
 40
0.0
 40
1.0
 40
1.0
 40
1.0
 40
1.0
 10
65.0601918446
 20
105.9703051657
 30
0.0
 10
64.8449129219
 20
105.9523821991
 30
0.0
 10
64.6583460084
 20
106.0402327367
 30
0.0
 10
64.6440076406
 20
106.2124558083
 30
0.0
 11
65.0601918446
 21
105.9703051657
 31
0.0
 11
64.6440076406
 21
106.2124558083
 31
0.0
  0
SPLINE
  5
779
100
AcDbEntity
  8
0
100
AcDbSpline
 62
7
  6
CONTINUOUS
 70
0
 71
3
 72
8
 73
4
 74
2
 42
0.0000001
 43
0.0000001
 44
0.0000000001
 12
-0.0421878897
 22
0.5067332685
 32
0.0
 13
0.8818157457
 23
0.0734152418
 33
0.0
 40
0.0
 40
0.0
 40
0.0
 40
0.0
 40
1.0
 40
1.0
 40
1.0
 40
1.0
 10
64.6440076406
 20
106.2124558083
 30
0.0
 10
64.6299450107
 20
106.3813668978
 30
0.0
 10
64.7676750458
 20
106.4795419642
 30
0.0
 10
65.0616136277
 20
106.5040137115
 30
0.0
 11
64.6440076406
 21
106.2124558083
 31
0.0
 11
65.0616136277
 21
106.5040137115
 31
0.0
  0
SPLINE
  5
77A
100
AcDbEntity
  8
0
100
AcDbSpline
 62
7
  6
CONTINUOUS
 70
0
 71
3
 72
8
 73
4
 74
2
 42
0.0000001
 43
0.0000001
 44
0.0000000001
 12
0.7079364958
 22
0.0589389896
 32
0.0
 13
-0.0471513038
 23
0.5663505438
 33
0.0
 40
0.0
 40
0.0
 40
0.0
 40
0.0
 40
1.0
 40
1.0
 40
1.0
 40
1.0
 10
65.7488502143
 20
106.5612293378
 30
0.0
 10
65.9848290462
 20
106.5808756677
 30
0.0
 10
66.1703126626
 20
106.7563950899
 30
0.0
 10
66.1545955613
 20
106.9451786045
 30
0.0
 11
65.7488502143
 21
106.5612293378
 31
0.0
 11
66.1545955613
 21
106.9451786045
 31
0.0
  0
SPLINE
  5
77B
100
AcDbEntity
  8
0
100
AcDbSpline
 62
7
  6
CONTINUOUS
 70
0
 71
3
 72
8
 73
4
 74
2
 42
0.0000001
 43
0.0000001
 44
0.0000000001
 12
-0.7700360987
 22
-0.0641090689
 32
0.0
 13
-0.4361387284
 23
-0.3075098217
 33
0.0
 40
0.0
 40
0.0
 40
0.0
 40
0.0
 40
1.0
 40
1.0
 40
1.0
 40
1.0
 10
64.9451817943
 20
107.0012308895
 30
0.0
 10
64.6885030947
 20
106.9798611999
 30
0.0
 10
64.4892285695
 20
106.9199170076
 30
0.0
 10
64.3438489934
 20
106.8174137337
 30
0.0
 11
64.9451817943
 21
107.0012308895
 31
0.0
 11
64.3438489934
 21
106.8174137337
 31
0.0
  0
SPLINE
  5
77C
100
AcDbEntity
  8
0
100
AcDbSpline
 62
7
  6
CONTINUOUS
 70
0
 71
3
 72
8
 73
4
 74
2
 42
0.0000001
 43
0.0000001
 44
0.0000000001
 12
0.0742757544
 22
-0.5835408915
 32
0.0
 13
0.729426611
 23
0.0928447562
 33
0.0
 40
0.0
 40
0.0
 40
0.0
 40
0.0
 40
1.0
 40
1.0
 40
1.0
 40
1.0
 10
63.4168750041
 20
104.634505569
 30
0.0
 10
63.4416335889
 20
104.4399919385
 30
0.0
 10
63.6505053285
 20
104.312465843
 30
0.0
 10
63.8936475321
 20
104.3434140951
 30
0.0
 11
63.4168750041
 21
104.634505569
 31
0.0
 11
63.8936475321
 21
104.3434140951
 31
0.0
  0
SPLINE
  5
77D
100
AcDbEntity
  8
0
100
AcDbSpline
 62
7
  6
CONTINUOUS
 70
0
 71
3
 72
8
 73
4
 74
2
 42
0.0000001
 43
0.0000001
 44
0.0000000001
 12
0.7265554964
 22
0.1131382175
 32
0.0
 13
-0.0905105278
 23
0.5812441003
 33
0.0
 40
0.0
 40
0.0
 40
0.0
 40
0.0
 40
1.0
 40
1.0
 40
1.0
 40
1.0
 10
66.0904029309
 20
103.6930199276
 30
0.0
 10
66.3325880964
 20
103.7307326668
 30
0.0
 10
66.4978879047
 20
103.911193606
 30
0.0
 10
66.4677177288
 20
104.1049416394
 30
0.0
 11
66.0904029309
 21
103.6930199276
 31
0.0
 11
66.4677177288
 21
104.1049416394
 31
0.0
  0
SPLINE
  5
77E
100
AcDbEntity
  8
0
100
AcDbSpline
 62
7
  6
CONTINUOUS
 70
0
 71
3
 72
8
 73
4
 74
2
 42
0.0000001
 43
0.0000001
 44
0.0000000001
 12
0.0644375177
 22
-0.3226506244
 32
0.0
 13
-0.3086471625
 23
-0.2429744065
 33
0.0
 40
0.0
 40
0.0
 40
0.0
 40
0.0
 40
1.0
 40
1.0
 40
1.0
 40
1.0
 10
66.2645600364
 20
102.488969797
 30
0.0
 10
66.2860392089
 20
102.3814195889
 30
0.0
 10
66.2452773066
 20
102.2885521404
 30
0.0
 10
66.1423949191
 20
102.2075606716
 30
0.0
 11
66.2645600364
 21
102.488969797
 31
0.0
 11
66.1423949191
 21
102.2075606716
 31
0.0
  0
SPLINE
  5
77F
100
AcDbEntity
  8
0
100
AcDbSpline
 62
7
  6
CONTINUOUS
 70
0
 71
3
 72
8
 73
4
 74
2
 42
0.0000001
 43
0.0000001
 44
0.0000000001
 12
-0.2624367416
 22
-0.2065964612
 32
0.0
 13
-0.4277546722
 23
-0.0854281603
 33
0.0
 40
0.0
 40
0.0
 40
0.0
 40
0.0
 40
1.0
 40
1.0
 40
1.0
 40
1.0
 10
66.1423949191
 20
102.2075606716
 30
0.0
 10
66.0549160052
 20
102.1386951845
 30
0.0
 10
65.9419812713
 20
102.0890280866
 30
0.0
 10
65.7993963806
 20
102.0605520332
 30
0.0
 11
66.1423949191
 21
102.2075606716
 31
0.0
 11
65.7993963806
 21
102.0605520332
 31
0.0
  0
SPLINE
  5
780
100
AcDbEntity
  8
0
100
AcDbSpline
 62
7
  6
CONTINUOUS
 70
0
 71
3
 72
8
 73
4
 74
2
 42
0.0000001
 43
0.0000001
 44
0.0000000001
 12
-0.4399762273
 22
-0.0878689635
 32
0.0
 13
-0.3468480125
 23
0.0836388143
 33
0.0
 40
0.0
 40
0.0
 40
0.0
 40
0.0
 40
1.0
 40
1.0
 40
1.0
 40
1.0
 10
65.7993963806
 20
102.0605520332
 30
0.0
 10
65.6527376382
 20
102.0312623787
 30
0.0
 10
65.5218920701
 20
102.0288543153
 30
0.0
 10
65.4062760659
 20
102.05673392
 30
0.0
 11
65.7993963806
 21
102.0605520332
 31
0.0
 11
65.4062760659
 21
102.05673392
 31
0.0
  0
SPLINE
  5
781
100
AcDbEntity
  8
0
100
AcDbSpline
 62
7
  6
CONTINUOUS
 70
0
 71
3
 72
8
 73
4
 74
2
 42
0.0000001
 43
0.0000001
 44
0.0000000001
 12
-0.4142180748
 22
0.0998844087
 32
0.0
 13
-0.0663901603
 23
0.3324278685
 33
0.0
 40
0.0
 40
0.0
 40
0.0
 40
0.0
 40
1.0
 40
1.0
 40
1.0
 40
1.0
 10
65.4062760659
 20
102.05673392
 30
0.0
 10
65.2682033743
 20
102.0900287229
 30
0.0
 10
65.1901725334
 20
102.1625607894
 30
0.0
 10
65.16804248
 20
102.2733700789
 30
0.0
 11
65.4062760659
 21
102.05673392
 31
0.0
 11
65.16804248
 21
102.2733700789
 31
0.0
  0
SPLINE
  5
782
100
AcDbEntity
  8
0
100
AcDbSpline
 62
7
  6
CONTINUOUS
 70
0
 71
3
 72
8
 73
4
 74
2
 42
0.0000001
 43
0.0000001
 44
0.0000000001
 12
-0.1015374123
 22
0.50841669
 32
0.0
 13
0.6477426631
 23
0.1293626176
 33
0.0
 40
0.0
 40
0.0
 40
0.0
 40
0.0
 40
1.0
 40
1.0
 40
1.0
 40
1.0
 10
65.16804248
 20
102.2733700789
 30
0.0
 10
65.1341966759
 20
102.4428423089
 30
0.0
 10
65.2838195422
 20
102.5845632705
 30
0.0
 10
65.4997337633
 20
102.627684143
 30
0.0
 11
65.16804248
 21
102.2733700789
 31
0.0
 11
65.4997337633
 21
102.627684143
 31
0.0
  0
SPLINE
  5
783
100
AcDbEntity
  8
0
100
AcDbSpline
 62
7
  6
CONTINUOUS
 70
0
 71
3
 72
8
 73
4
 74
2
 42
0.0000001
 43
0.0000001
 44
0.0000000001
 12
0.8310661116
 22
0.1659746898
 32
0.0
 13
0.111300625
 23
-0.5573029102
 33
0.0
 40
0.0
 40
0.0
 40
0.0
 40
0.0
 40
1.0
 40
1.0
 40
1.0
 40
1.0
 10
65.7930512481
 20
102.686263452
 30
0.0
 10
66.0700732853
 20
102.7415883486
 30
0.0
 10
66.227459828
 20
102.6747374338
 30
0.0
 10
66.2645600364
 20
102.488969797
 30
0.0
 11
65.7930512481
 21
102.686263452
 31
0.0
 11
66.2645600364
 21
102.488969797
 31
0.0
  0
SPLINE
  5
784
100
AcDbEntity
  8
0
100
AcDbSpline
 62
7
  6
CONTINUOUS
 70
0
 71
3
 72
8
 73
4
 74
2
 42
0.0000001
 43
0.0000001
 44
0.0000000001
 12
-0.5016601044
 22
-0.4153716095
 32
0.0
 13
0.1191115089
 23
-0.5964134575
 33
0.0
 40
0.0
 40
0.0
 40
0.0
 40
0.0
 40
1.0
 40
1.0
 40
1.0
 40
1.0
 10
64.9129536943
 20
102.5748888901
 30
0.0
 10
64.7457336595
 20
102.436431687
 30
0.0
 10
64.6806738281
 20
102.2743192833
 30
0.0
 10
64.7203776645
 20
102.0755147975
 30
0.0
 11
64.9129536943
 21
102.5748888901
 31
0.0
 11
64.7203776645
 21
102.0755147975
 31
0.0
  0
SPLINE
  5
785
100
AcDbEntity
  8
0
100
AcDbSpline
 62
7
  6
CONTINUOUS
 70
0
 71
3
 72
8
 73
4
 74
2
 42
0.0000001
 43
0.0000001
 44
0.0000000001
 12
0.132779693
 22
-0.6648525947
 32
0.0
 13
0.731782434
 23
-0.2781551675
 33
0.0
 40
0.0
 40
0.0
 40
0.0
 40
0.0
 40
1.0
 40
1.0
 40
1.0
 40
1.0
 10
64.7203776645
 20
102.0755147975
 30
0.0
 10
64.7646375621
 20
101.8538972659
 30
0.0
 10
64.9104300042
 20
101.6966150205
 30
0.0
 10
65.1543574822
 20
101.6038966313
 30
0.0
 11
64.7203776645
 21
102.0755147975
 31
0.0
 11
65.1543574822
 21
101.6038966313
 31
0.0
  0
SPLINE
  5
786
100
AcDbEntity
  8
0
100
AcDbSpline
 62
7
  6
CONTINUOUS
 70
0
 71
3
 72
8
 73
4
 74
2
 42
0.0000001
 43
0.0000001
 44
0.0000000001
 12
0.6710285665
 22
-0.2550622352
 32
0.0
 13
0.8555090989
 23
0.1708562716
 33
0.0
 40
0.0
 40
0.0
 40
0.0
 40
0.0
 40
1.0
 40
1.0
 40
1.0
 40
1.0
 10
65.1543574822
 20
101.6038966313
 30
0.0
 10
65.378033671
 20
101.5188758863
 30
0.0
 10
65.6307577383
 20
101.5049558195
 30
0.0
 10
65.9159274379
 20
101.5619079101
 30
0.0
 11
65.1543574822
 21
101.6038966313
 31
0.0
 11
65.9159274379
 21
101.5619079101
 31
0.0
  0
SPLINE
  5
787
100
AcDbEntity
  8
0
100
AcDbSpline
 62
7
  6
CONTINUOUS
 70
0
 71
3
 72
8
 73
4
 74
2
 42
0.0000001
 43
0.0000001
 44
0.0000000001
 12
0.8066231242
 22
0.1610931079
 32
0.0
 13
0.4793188067
 23
0.4536046895
 33
0.0
 40
0.0
 40
0.0
 40
0.0
 40
0.0
 40
1.0
 40
1.0
 40
1.0
 40
1.0
 10
65.9159274379
 20
101.5619079101
 30
0.0
 10
66.1848018127
 20
101.6156056127
 30
0.0
 10
66.3971478818
 20
101.7190171516
 30
0.0
 10
66.5569208174
 20
101.8702187148
 30
0.0
 11
65.9159274379
 21
101.5619079101
 31
0.0
 11
66.5569208174
 21
101.8702187148
 31
0.0
  0
SPLINE
  5
788
100
AcDbEntity
  8
0
100
AcDbSpline
 62
7
  6
CONTINUOUS
 70
0
 71
3
 72
8
 73
4
 74
2
 42
0.0000001
 43
0.0000001
 44
0.0000000001
 12
0.5147434902
 22
0.4871289375
 32
0.0
 13
-0.1269217653
 23
0.6355208626
 33
0.0
 40
0.0
 40
0.0
 40
0.0
 40
0.0
 40
1.0
 40
1.0
 40
1.0
 40
1.0
 10
66.5569208174
 20
101.8702187148
 30
0.0
 10
66.7285019808
 20
102.0325950273
 30
0.0
 10
66.7930795414
 20
102.2183346101
 30
0.0
 10
66.7507722863
 20
102.4301748976
 30
0.0
 11
66.5569208174
 21
101.8702187148
 31
0.0
 11
66.7507722863
 21
102.4301748976
 31
0.0
  0
SPLINE
  5
789
100
AcDbEntity
  8
0
100
AcDbSpline
 62
7
  6
CONTINUOUS
 70
0
 71
3
 72
8
 73
4
 74
2
 42
0.0000001
 43
0.0000001
 44
0.0000000001
 12
-0.1113009388
 22
0.5573044814
 32
0.0
 13
-0.5738374457
 23
0.2005807888
 33
0.0
 40
0.0
 40
0.0
 40
0.0
 40
0.0
 40
1.0
 40
1.0
 40
1.0
 40
1.0
 10
66.7507722863
 20
102.4301748976
 30
0.0
 10
66.7136719734
 20
102.615943058
 30
0.0
 10
66.5994822872
 20
102.7422570064
 30
0.0
 10
66.4082031387
 20
102.8091172693
 30
0.0
 11
66.7507722863
 21
102.4301748976
 31
0.0
 11
66.4082031387
 21
102.8091172693
 31
0.0
  0
SPLINE
  5
78A
100
AcDbEntity
  8
0
100
AcDbSpline
 62
7
  6
CONTINUOUS
 70
0
 71
3
 72
8
 73
4
 74
2
 42
0.0000001
 43
0.0000001
 44
0.0000000001
 12
1.0510542559
 22
0.2099091776
 32
0.0
 13
0.16597493
 23
-0.8310673145
 33
0.0
 40
0.0
 40
0.0
 40
0.0
 40
0.0
 40
1.0
 40
1.0
 40
1.0
 40
1.0
 10
66.5331908303
 20
102.840857075
 30
0.0
 10
66.8835422489
 20
102.9108268009
 30
0.0
 10
67.0860549283
 20
102.8089302422
 30
0.0
 10
67.1413799049
 20
102.531907804
 30
0.0
 11
66.5331908303
 21
102.840857075
 31
0.0
 11
67.1413799049
 21
102.531907804
 31
0.0
  0
SPLINE
  5
78B
100
AcDbEntity
  8
0
100
AcDbSpline
 62
7
  6
CONTINUOUS
 70
0
 71
3
 72
8
 73
4
 74
2
 42
0.0000001
 43
0.0000001
 44
0.0000000001
 12
0.1015374123
 22
-0.50841669
 32
0.0
 13
-0.221575431
 23
-0.48144161
 33
0.0
 40
0.0
 40
0.0
 40
0.0
 40
0.0
 40
1.0
 40
1.0
 40
1.0
 40
1.0
 10
67.1413799049
 20
102.531907804
 30
0.0
 10
67.175225709
 20
102.362435574
 30
0.0
 10
67.1569308887
 20
102.199495538
 30
0.0
 10
67.0830724117
 20
102.0390150014
 30
0.0
 11
67.1413799049
 21
102.531907804
 31
0.0
 11
67.0830724117
 21
102.0390150014
 31
0.0
  0
SPLINE
  5
78C
100
AcDbEntity
  8
0
100
AcDbSpline
 62
7
  6
CONTINUOUS
 70
0
 71
3
 72
8
 73
4
 74
2
 42
0.0000001
 43
0.0000001
 44
0.0000000001
 12
0.2176702073
 22
0.5009961103
 32
0.0
 13
-0.1405902632
 23
0.7039615708
 33
0.0
 40
0.0
 40
0.0
 40
0.0
 40
0.0
 40
1.0
 40
1.0
 40
1.0
 40
1.0
 10
67.5751658574
 20
102.0356203289
 30
0.0
 10
67.6477225932
 20
102.2026190323
 30
0.0
 10
67.6582068433
 20
102.4046680445
 30
0.0
 10
67.6113434223
 20
102.6393219014
 30
0.0
 11
67.5751658574
 21
102.0356203289
 31
0.0
 11
67.6113434223
 21
102.6393219014
 31
0.0
  0
SPLINE
  5
78D
100
AcDbEntity
  8
0
100
AcDbSpline
 62
7
  6
CONTINUOUS
 70
0
 71
3
 72
8
 73
4
 74
2
 42
0.0000001
 43
0.0000001
 44
0.0000000001
 12
-0.367097112
 22
1.8381234506
 32
0.0
 13
-2.3098750704
 23
-0.4613120338
 33
0.0
 40
0.0
 40
0.0
 40
0.0
 40
0.0
 40
1.0
 40
1.0
 40
1.0
 40
1.0
 10
67.6113434223
 20
102.6393219014
 30
0.0
 10
67.4889777183
 20
103.2520297182
 30
0.0
 10
67.0629321794
 20
103.4550139036
 30
0.0
 10
66.2929738226
 20
103.3012432256
 30
0.0
 11
67.6113434223
 21
102.6393219014
 31
0.0
 11
66.2929738226
 21
103.3012432256
 31
0.0
  0
SPLINE
  5
78E
100
AcDbEntity
  8
0
100
AcDbSpline
 62
7
  6
CONTINUOUS
 70
0
 71
3
 72
8
 73
4
 74
2
 42
0.0000001
 43
0.0000001
 44
0.0000000001
 12
-0.6721860187
 22
-0.1342442729
 32
0.0
 13
-0.5313852857
 23
-0.0756229027
 33
0.0
 40
0.0
 40
0.0
 40
0.0
 40
0.0
 40
1.0
 40
1.0
 40
1.0
 40
1.0
 10
65.1848856533
 20
103.0799436352
 30
0.0
 10
64.9608236471
 20
103.0351955442
 30
0.0
 10
64.7646278855
 20
102.9994017747
 30
0.0
 10
64.5874994569
 20
102.9741941404
 30
0.0
 11
65.1848856533
 21
103.0799436352
 31
0.0
 11
64.5874994569
 21
102.9741941404
 31
0.0
  0
SPLINE
  5
78F
100
AcDbEntity
  8
0
100
AcDbSpline
 62
7
  6
CONTINUOUS
 70
0
 71
3
 72
8
 73
4
 74
2
 42
0.0000001
 43
0.0000001
 44
0.0000000001
 12
-0.1379075791
 22
0.5307434636
 32
0.0
 13
0.6754919233
 23
0.1755188
 33
0.0
 40
0.0
 40
0.0
 40
0.0
 40
0.0
 40
1.0
 40
1.0
 40
1.0
 40
1.0
 10
65.5298077432
 20
100.423206287
 30
0.0
 10
65.4838385501
 20
100.6001207749
 30
0.0
 10
65.6316583104
 20
100.7415440671
 30
0.0
 10
65.8568222848
 20
100.8000503337
 30
0.0
 11
65.5298077432
 21
100.423206287
 31
0.0
 11
65.8568222848
 21
100.8000503337
 31
0.0
  0
SPLINE
  5
790
100
AcDbEntity
  8
0
100
AcDbSpline
 62
7
  6
CONTINUOUS
 70
0
 71
3
 72
8
 73
4
 74
2
 42
0.0000001
 43
0.0000001
 44
0.0000000001
 12
-0.693043797
 22
-0.1079696319
 32
0.0
 13
-0.1379075791
 23
0.5307434636
 33
0.0
 40
0.0
 40
0.0
 40
0.0
 40
0.0
 40
1.0
 40
1.0
 40
1.0
 40
1.0
 10
66.0072669838
 20
100.2210572059
 30
0.0
 10
65.7762523848
 20
100.1850673286
 30
0.0
 10
65.5757769362
 20
100.2462917991
 30
0.0
 10
65.5298077432
 20
100.423206287
 30
0.0
 11
66.0072669838
 21
100.2210572059
 31
0.0
 11
65.5298077432
 21
100.423206287
 31
0.0
  0
SPLINE
  5
791
100
AcDbEntity
  8
0
100
AcDbSpline
 62
7
  6
CONTINUOUS
 70
0
 71
3
 72
8
 73
4
 74
2
 42
0.0000001
 43
0.0000001
 44
0.0000000001
 12
-0.4672709276
 22
-0.5247056337
 32
0.0
 13
0.175518737
 23
-0.675491681
 33
0.0
 40
0.0
 40
0.0
 40
0.0
 40
0.0
 40
1.0
 40
1.0
 40
1.0
 40
1.0
 10
65.2656380732
 20
100.9422570645
 30
0.0
 10
65.1098810974
 20
100.7673551866
 30
0.0
 10
65.0585157425
 20
100.568582962
 30
0.0
 10
65.1170219882
 20
100.3434190683
 30
0.0
 11
65.2656380732
 21
100.9422570645
 31
0.0
 11
65.1170219882
 21
100.3434190683
 31
0.0
  0
SPLINE
  5
792
100
AcDbEntity
  8
0
100
AcDbSpline
 62
7
  6
CONTINUOUS
 70
0
 71
3
 72
8
 73
4
 74
2
 42
0.0000001
 43
0.0000001
 44
0.0000000001
 12
0.1855485806
 22
-0.714091981
 32
0.0
 13
0.7138374883
 23
-0.2806384837
 33
0.0
 40
0.0
 40
0.0
 40
0.0
 40
0.0
 40
1.0
 40
1.0
 40
1.0
 40
1.0
 10
65.1170219882
 20
100.3434190683
 30
0.0
 10
65.1788715151
 20
100.105388408
 30
0.0
 10
65.329539321
 20
99.9385096446
 30
0.0
 10
65.5674851504
 20
99.8449634833
 30
0.0
 11
65.1170219882
 21
100.3434190683
 31
0.0
 11
65.5674851504
 21
99.8449634833
 31
0.0
  0
SPLINE
  5
793
100
AcDbEntity
  8
0
100
AcDbSpline
 62
7
  6
CONTINUOUS
 70
0
 71
3
 72
8
 73
4
 74
2
 42
0.0000001
 43
0.0000001
 44
0.0000000001
 12
0.7060032217
 22
-0.2775585156
 32
0.0
 13
0.9046766008
 23
0.2350698001
 33
0.0
 40
0.0
 40
0.0
 40
0.0
 40
0.0
 40
1.0
 40
1.0
 40
1.0
 40
1.0
 10
65.5674851504
 20
99.8449634833
 30
0.0
 10
65.8028195577
 20
99.7524439781
 30
0.0
 10
66.0713317829
 20
99.7432360905
 30
0.0
 10
66.3728906498
 20
99.8215926905
 30
0.0
 11
65.5674851504
 21
99.8449634833
 31
0.0
 11
66.3728906498
 21
99.8215926905
 31
0.0
  0
SPLINE
  5
794
100
AcDbEntity
  8
0
100
AcDbSpline
 62
7
  6
CONTINUOUS
 70
0
 71
3
 72
8
 73
4
 74
2
 42
0.0000001
 43
0.0000001
 44
0.0000000001
 12
1.9299772006
 22
0.5014823577
 32
0.0
 13
-0.4036932967
 23
1.5536316416
 33
0.0
 40
0.0
 40
0.0
 40
0.0
 40
0.0
 40
1.0
 40
1.0
 40
1.0
 40
1.0
 10
66.3728906498
 20
99.8215926905
 30
0.0
 10
67.0162163834
 20
99.9887534764
 30
0.0
 10
67.2945066903
 20
100.4044443821
 30
0.0
 10
67.1599422581
 20
100.922321596
 30
0.0
 11
66.3728906498
 21
99.8215926905
 31
0.0
 11
67.1599422581
 21
100.922321596
 31
0.0
  0
SPLINE
  5
795
100
AcDbEntity
  8
0
100
AcDbSpline
 62
7
  6
CONTINUOUS
 70
0
 71
3
 72
8
 73
4
 74
2
 42
0.0000001
 43
0.0000001
 44
0.0000000001
 12
-0.1730113265
 22
0.6658417998
 32
0.0
 13
-0.3761726175
 23
0.4070246188
 33
0.0
 40
0.0
 40
0.0
 40
0.0
 40
0.0
 40
1.0
 40
1.0
 40
1.0
 40
1.0
 10
67.1599422581
 20
100.922321596
 30
0.0
 10
67.102271816
 20
101.1442688626
 30
0.0
 10
67.0127514834
 20
101.323602568
 30
0.0
 10
66.8873606109
 20
101.459277441
 30
0.0
 11
67.1599422581
 21
100.922321596
 31
0.0
 11
66.8873606109
 21
101.459277441
 31
0.0
  0
SPLINE
  5
796
100
AcDbEntity
  8
0
100
AcDbSpline
 62
7
  6
CONTINUOUS
 70
0
 71
3
 72
8
 73
4
 74
2
 42
0.0000001
 43
0.0000001
 44
0.0000000001
 12
0.2716768731
 22
-0.3517654117
 32
0.0
 13
0.1228631159
 23
-0.4728441767
 33
0.0
 40
0.0
 40
0.0
 40
0.0
 40
0.0
 40
1.0
 40
1.0
 40
1.0
 40
1.0
 10
66.4899357462
 20
101.2873351456
 30
0.0
 10
66.5804947039
 20
101.1700800084
 30
0.0
 10
66.6462514157
 20
101.0326448133
 30
0.0
 10
66.6872057877
 20
100.8750300877
 30
0.0
 11
66.4899357462
 21
101.2873351456
 31
0.0
 11
66.6872057877
 21
100.8750300877
 31
0.0
  0
SPLINE
  5
797
100
AcDbEntity
  8
0
100
AcDbSpline
 62
7
  6
CONTINUOUS
 70
0
 71
3
 72
8
 73
4
 74
2
 42
0.0000001
 43
0.0000001
 44
0.0000000001
 12
0.0877593685
 22
-0.3377458405
 32
0.0
 13
-0.1032317706
 23
-0.2803905562
 33
0.0
 40
0.0
 40
0.0
 40
0.0
 40
0.0
 40
1.0
 40
1.0
 40
1.0
 40
1.0
 10
66.6872057877
 20
100.8750300877
 30
0.0
 10
66.7164589105
 20
100.7624481409
 30
0.0
 10
66.7133875291
 20
100.6586360486
 30
0.0
 10
66.6789769389
 20
100.5651725298
 30
0.0
 11
66.6872057877
 21
100.8750300877
 31
0.0
 11
66.6789769389
 21
100.5651725298
 31
0.0
  0
SPLINE
  5
798
100
AcDbEntity
  8
0
100
AcDbSpline
 62
7
  6
CONTINUOUS
 70
0
 71
3
 72
8
 73
4
 74
2
 42
0.0000001
 43
0.0000001
 44
0.0000000001
 12
-0.123238645
 22
-0.3347317594
 32
0.0
 13
-0.3905356084
 23
-0.1323803908
 33
0.0
 40
0.0
 40
0.0
 40
0.0
 40
0.0
 40
1.0
 40
1.0
 40
1.0
 40
1.0
 10
66.6789769389
 20
100.5651725298
 30
0.0
 10
66.6378973905
 20
100.4535952767
 30
0.0
 10
66.5547713947
 20
100.3770551281
 30
0.0
 10
66.4245928586
 20
100.3329283312
 30
0.0
 11
66.6789769389
 21
100.5651725298
 31
0.0
 11
66.4245928586
 21
100.3329283312
 31
0.0
  0
SPLINE
  5
799
100
AcDbEntity
  8
0
100
AcDbSpline
 62
7
  6
CONTINUOUS
 70
0
 71
3
 72
8
 73
4
 74
2
 42
0.0000001
 43
0.0000001
 44
0.0000000001
 12
-0.2487692605
 22
-0.0337356198
 32
0.0
 13
-0.2412470289
 23
-0.0626852632
 33
0.0
 40
0.0
 40
0.0
 40
0.0
 40
0.0
 40
1.0
 40
1.0
 40
1.0
 40
1.0
 10
66.1613146187
 20
101.3461663696
 30
0.0
 10
66.0783915319
 20
101.334921163
 30
0.0
 10
65.9963041678
 20
101.3204593083
 30
0.0
 10
65.9158884915
 20
101.2995642206
 30
0.0
 11
66.1613146187
 21
101.3461663696
 31
0.0
 11
65.9158884915
 21
101.2995642206
 31
0.0
  0
SPLINE
  5
79A
100
AcDbEntity
  8
0
100
AcDbSpline
 62
7
  6
CONTINUOUS
 70
0
 71
3
 72
8
 73
4
 74
2
 42
0.0000001
 43
0.0000001
 44
0.0000000001
 12
-0.8564274373
 22
-0.2225328104
 32
0.0
 13
-0.4398403384
 23
-0.4939034078
 33
0.0
 40
0.0
 40
0.0
 40
0.0
 40
0.0
 40
1.0
 40
1.0
 40
1.0
 40
1.0
 10
65.9158884915
 20
101.2995642206
 30
0.0
 10
65.630412679
 20
101.2253866171
 30
0.0
 10
65.4122515194
 20
101.1068915338
 30
0.0
 10
65.2656380732
 20
100.9422570645
 30
0.0
 11
65.9158884915
 21
101.2995642206
 31
0.0
 11
65.2656380732
 21
100.9422570645
 31
0.0
  0
SPLINE
  5
79B
100
AcDbEntity
  8
0
100
AcDbSpline
 62
7
  6
CONTINUOUS
 70
0
 71
3
 72
8
 73
4
 74
2
 42
0.0000001
 43
0.0000001
 44
0.0000000001
 12
0.1713530571
 22
-0.5627392476
 32
0.0
 13
0.7034240595
 23
0.2141913214
 33
0.0
 40
0.0
 40
0.0
 40
0.0
 40
0.0
 40
1.0
 40
1.0
 40
1.0
 40
1.0
 10
64.6605364067
 20
98.7530550989
 30
0.0
 10
64.7176540924
 20
98.5654753497
 30
0.0
 10
64.944997143
 20
98.4748923345
 30
0.0
 10
65.1794718295
 20
98.5462894416
 30
0.0
 11
64.6605364067
 21
98.7530550989
 31
0.0
 11
65.1794718295
 21
98.5462894416
 31
0.0
  0
SPLINE
  5
79C
100
AcDbEntity
  8
0
100
AcDbSpline
 62
7
  6
CONTINUOUS
 70
0
 71
3
 72
8
 73
4
 74
2
 42
0.0000001
 43
0.0000001
 44
0.0000000001
 12
-0.0805995226
 22
-0.1861014953
 32
0.0
 13
-0.0849058286
 23
-0.5888556653
 33
0.0
 40
0.0
 40
0.0
 40
0.0
 40
0.0
 40
1.0
 40
1.0
 40
1.0
 40
1.0
 10
66.7189618915
 20
98.4606953287
 30
0.0
 10
66.6920953839
 20
98.398661497
 30
0.0
 10
66.6649394367
 20
98.2733260746
 30
0.0
 10
66.6366374939
 20
98.0770408529
 30
0.0
 11
66.7189618915
 21
98.4606953287
 31
0.0
 11
66.6366374939
 21
98.0770408529
 31
0.0
  0
SPLINE
  5
79D
100
AcDbEntity
  8
0
100
AcDbSpline
 62
7
  6
CONTINUOUS
 70
0
 71
3
 72
8
 73
4
 74
2
 42
0.0000001
 43
0.0000001
 44
0.0000000001
 12
-0.0590734137
 22
-0.409697602
 32
0.0
 13
-0.2003344289
 23
-0.0689545633
 33
0.0
 40
0.0
 40
0.0
 40
0.0
 40
0.0
 40
1.0
 40
1.0
 40
1.0
 40
1.0
 10
66.6366374939
 20
98.0770408529
 30
0.0
 10
66.616946356
 20
97.9404749856
 30
0.0
 10
66.5735658628
 20
97.8622771662
 30
0.0
 10
66.5067877199
 20
97.8392923117
 30
0.0
 11
66.6366374939
 21
98.0770408529
 31
0.0
 11
66.5067877199
 21
97.8392923117
 31
0.0
  0
SPLINE
  5
79E
100
AcDbEntity
  8
0
100
AcDbSpline
 62
7
  6
CONTINUOUS
 70
0
 71
3
 72
8
 73
4
 74
2
 42
0.0000001
 43
0.0000001
 44
0.0000000001
 12
-0.3063943058
 22
-0.1054600833
 32
0.0
 13
-0.1265519696
 23
0.3676727882
 33
0.0
 40
0.0
 40
0.0
 40
0.0
 40
0.0
 40
1.0
 40
1.0
 40
1.0
 40
1.0
 10
66.5067877199
 20
97.8392923117
 30
0.0
 10
66.4046562846
 20
97.8041389507
 30
0.0
 10
66.3330394819
 20
97.8462698133
 30
0.0
 10
66.290855492
 20
97.9688274094
 30
0.0
 11
66.5067877199
 21
97.8392923117
 31
0.0
 11
66.290855492
 21
97.9688274094
 31
0.0
  0
SPLINE
  5
79F
100
AcDbEntity
  8
0
100
AcDbSpline
 62
7
  6
CONTINUOUS
 70
0
 71
3
 72
8
 73
4
 74
2
 42
0.0000001
 43
0.0000001
 44
0.0000000001
 12
-0.1135722871
 22
0.3299627781
 32
0.0
 13
0.0953021379
 23
0.4124009683
 33
0.0
 40
0.0
 40
0.0
 40
0.0
 40
0.0
 40
1.0
 40
1.0
 40
1.0
 40
1.0
 10
66.290855492
 20
97.9688274094
 30
0.0
 10
66.252998063
 20
98.0788150021
 30
0.0
 10
66.2504937685
 20
98.2009710471
 30
0.0
 10
66.2822611478
 20
98.3384380366
 30
0.0
 11
66.290855492
 21
97.9688274094
 31
0.0
 11
66.2822611478
 21
98.3384380366
 31
0.0
  0
SPLINE
  5
7A0
100
AcDbEntity
  8
0
100
AcDbSpline
 62
7
  6
CONTINUOUS
 70
0
 71
3
 72
8
 73
4
 74
2
 42
0.0000001
 43
0.0000001
 44
0.0000000001
 12
-0.0973511505
 22
-0.4447398424
 32
0.0
 13
0.1719808583
 23
-0.4996578237
 33
0.0
 40
0.0
 40
0.0
 40
0.0
 40
0.0
 40
1.0
 40
1.0
 40
1.0
 40
1.0
 10
65.8456130335
 20
98.2795298491
 30
0.0
 10
65.81316265
 20
98.1312832349
 30
0.0
 10
65.8225552205
 20
97.9763501312
 30
0.0
 10
65.8798821733
 20
97.8097975232
 30
0.0
 11
65.8456130335
 21
98.2795298491
 31
0.0
 11
65.8798821733
 21
97.8097975232
 31
0.0
  0
SPLINE
  5
7A1
100
AcDbEntity
  8
0
100
AcDbSpline
 62
7
  6
CONTINUOUS
 70
0
 71
3
 72
8
 73
4
 74
2
 42
0.0000001
 43
0.0000001
 44
0.0000000001
 12
0.1719808583
 22
-0.4996578237
 32
0.0
 13
0.4278913918
 23
-0.2417275226
 33
0.0
 40
0.0
 40
0.0
 40
0.0
 40
0.0
 40
1.0
 40
1.0
 40
1.0
 40
1.0
 10
65.8798821733
 20
97.8097975232
 30
0.0
 10
65.9372091261
 20
97.6432449153
 30
0.0
 10
66.038030247
 20
97.5162664352
 30
0.0
 10
66.1806607109
 20
97.4356905943
 30
0.0
 11
65.8798821733
 21
97.8097975232
 31
0.0
 11
66.1806607109
 21
97.4356905943
 31
0.0
  0
SPLINE
  5
7A2
100
AcDbEntity
  8
0
100
AcDbSpline
 62
7
  6
CONTINUOUS
 70
0
 71
3
 72
8
 73
4
 74
2
 42
0.0000001
 43
0.0000001
 44
0.0000000001
 12
0.4883831188
 22
-0.2759009497
 32
0.0
 13
0.60100376
 23
0.2068638528
 33
0.0
 40
0.0
 40
0.0
 40
0.0
 40
0.0
 40
1.0
 40
1.0
 40
1.0
 40
1.0
 10
66.1806607109
 20
97.4356905943
 30
0.0
 10
66.3434550839
 20
97.3437236111
 30
0.0
 10
66.5272227074
 20
97.3331651225
 30
0.0
 10
66.7275572941
 20
97.4021197401
 30
0.0
 11
66.1806607109
 21
97.4356905943
 31
0.0
 11
66.7275572941
 21
97.4021197401
 31
0.0
  0
SPLINE
  5
7A3
100
AcDbEntity
  8
0
100
AcDbSpline
 62
7
  6
CONTINUOUS
 70
0
 71
3
 72
8
 73
4
 74
2
 42
0.0000001
 43
0.0000001
 44
0.0000000001
 12
0.5185128761
 22
0.1784707159
 32
0.0
 13
0.1786920606
 23
0.4494529111
 33
0.0
 40
0.0
 40
0.0
 40
0.0
 40
0.0
 40
1.0
 40
1.0
 40
1.0
 40
1.0
 10
66.7275572941
 20
97.4021197401
 30
0.0
 10
66.9003949195
 20
97.4616099787
 30
0.0
 10
67.0184098757
 20
97.5654968117
 30
0.0
 10
67.0779738959
 20
97.7153144488
 30
0.0
 11
66.7275572941
 21
97.4021197401
 31
0.0
 11
67.0779738959
 21
97.7153144488
 31
0.0
  0
SPLINE
  5
7A4
100
AcDbEntity
  8
0
100
AcDbSpline
 62
7
  6
CONTINUOUS
 70
0
 71
3
 72
8
 73
4
 74
2
 42
0.0000001
 43
0.0000001
 44
0.0000000001
 12
0.0544364004
 22
0.1369204573
 32
0.0
 13
0.0953352228
 23
0.6252139356
 33
0.0
 40
0.0
 40
0.0
 40
0.0
 40
0.0
 40
1.0
 40
1.0
 40
1.0
 40
1.0
 10
67.0779738959
 20
97.7153144488
 30
0.0
 10
67.0961193627
 20
97.7609546012
 30
0.0
 10
67.1221935908
 20
97.8894324972
 30
0.0
 10
67.1539719984
 20
98.0978371424
 30
0.0
 11
67.0779738959
 21
97.7153144488
 31
0.0
 11
67.1539719984
 21
98.0978371424
 31
0.0
  0
SPLINE
  5
7A5
100
AcDbEntity
  8
0
100
AcDbSpline
 62
7
  6
CONTINUOUS
 70
0
 71
3
 72
8
 73
4
 74
2
 42
0.0000001
 43
0.0000001
 44
0.0000000001
 12
0.0624779814
 22
0.4097342355
 32
0.0
 13
0.2239033036
 23
0.0770669056
 33
0.0
 40
0.0
 40
0.0
 40
0.0
 40
0.0
 40
1.0
 40
1.0
 40
1.0
 40
1.0
 10
67.1539719984
 20
98.0978371424
 30
0.0
 10
67.1747979922
 20
98.2344152209
 30
0.0
 10
67.2221066509
 20
98.3139651041
 30
0.0
 10
67.2967410854
 20
98.3396540726
 30
0.0
 11
67.1539719984
 21
98.0978371424
 31
0.0
 11
67.2967410854
 21
98.3396540726
 31
0.0
  0
SPLINE
  5
7A6
100
AcDbEntity
  8
0
100
AcDbSpline
 62
7
  6
CONTINUOUS
 70
0
 71
3
 72
8
 73
4
 74
2
 42
0.0000001
 43
0.0000001
 44
0.0000000001
 12
0.3181783289
 22
0.1095161118
 32
0.0
 13
0.1395316521
 23
-0.4053827984
 33
0.0
 40
0.0
 40
0.0
 40
0.0
 40
0.0
 40
1.0
 40
1.0
 40
1.0
 40
1.0
 10
67.2967410854
 20
98.3396540726
 30
0.0
 10
67.4028005284
 20
98.3761594433
 30
0.0
 10
67.4776622517
 20
98.3246010781
 30
0.0
 10
67.5241728024
 20
98.1894734786
 30
0.0
 11
67.2967410854
 21
98.3396540726
 31
0.0
 11
67.5241728024
 21
98.1894734786
 31
0.0
  0
SPLINE
  5
7A7
100
AcDbEntity
  8
0
100
AcDbSpline
 62
7
  6
CONTINUOUS
 70
0
 71
3
 72
8
 73
4
 74
2
 42
0.0000001
 43
0.0000001
 44
0.0000000001
 12
0.1557562878
 22
-0.4525204057
 32
0.0
 13
-0.1562732248
 23
-0.4650204477
 33
0.0
 40
0.0
 40
0.0
 40
0.0
 40
0.0
 40
1.0
 40
1.0
 40
1.0
 40
1.0
 10
67.5241728024
 20
98.1894734786
 30
0.0
 10
67.576091565
 20
98.0386333434
 30
0.0
 10
67.5765462432
 20
97.8841386399
 30
0.0
 10
67.5244551682
 20
97.729131824
 30
0.0
 11
67.5241728024
 21
98.1894734786
 31
0.0
 11
67.5244551682
 21
97.729131824
 31
0.0
  0
SPLINE
  5
7A8
100
AcDbEntity
  8
0
100
AcDbSpline
 62
7
  6
CONTINUOUS
 70
0
 71
3
 72
8
 73
4
 74
2
 42
0.0000001
 43
0.0000001
 44
0.0000000001
 12
0.1315091882
 22
0.4986743154
 32
0.0
 13
-0.2011852091
 23
0.5845055359
 33
0.0
 40
0.0
 40
0.0
 40
0.0
 40
0.0
 40
1.0
 40
1.0
 40
1.0
 40
1.0
 10
67.9778972716
 20
97.7903057465
 30
0.0
 10
68.0217336677
 20
97.9565305183
 30
0.0
 10
68.0115442437
 20
98.1393077525
 30
0.0
 10
67.9444825074
 20
98.3341429312
 30
0.0
 11
67.9778972716
 21
97.7903057465
 31
0.0
 11
67.9444825074
 21
98.3341429312
 31
0.0
  0
SPLINE
  5
7A9
100
AcDbEntity
  8
0
100
AcDbSpline
 62
7
  6
CONTINUOUS
 70
0
 71
3
 72
8
 73
4
 74
2
 42
0.0000001
 43
0.0000001
 44
0.0000000001
 12
-0.1914503821
 22
0.5562228389
 32
0.0
 13
-0.3879528222
 23
0.2586561764
 33
0.0
 40
0.0
 40
0.0
 40
0.0
 40
0.0
 40
1.0
 40
1.0
 40
1.0
 40
1.0
 10
67.9444825074
 20
98.3341429312
 30
0.0
 10
67.8806657134
 20
98.5195505441
 30
0.0
 10
67.7816094274
 20
98.6541660373
 30
0.0
 10
67.65229182
 20
98.7403847627
 30
0.0
 11
67.9444825074
 21
98.3341429312
 31
0.0
 11
67.65229182
 21
98.7403847627
 31
0.0
  0
SPLINE
  5
7AA
100
AcDbEntity
  8
0
100
AcDbSpline
 62
7
  6
CONTINUOUS
 70
0
 71
3
 72
8
 73
4
 74
2
 42
0.0000001
 43
0.0000001
 44
0.0000000001
 12
-0.4673500634
 22
0.3115919605
 32
0.0
 13
-0.6481411543
 23
-0.2230884152
 33
0.0
 40
0.0
 40
0.0
 40
0.0
 40
0.0
 40
1.0
 40
1.0
 40
1.0
 40
1.0
 10
67.65229182
 20
98.7403847627
 30
0.0
 10
67.4965084655
 20
98.8442487496
 30
0.0
 10
67.3077310274
 20
98.8565976369
 30
0.0
 10
67.0916839759
 20
98.7822348318
 30
0.0
 11
67.65229182
 21
98.7403847627
 31
0.0
 11
67.0916839759
 21
98.7822348318
 31
0.0
  0
SPLINE
  5
7AB
100
AcDbEntity
  8
0
100
AcDbSpline
 62
7
  6
CONTINUOUS
 70
0
 71
3
 72
8
 73
4
 74
2
 42
0.0000001
 43
0.0000001
 44
0.0000000001
 12
-0.5420817508
 22
-0.1865830582
 32
0.0
 13
-0.1984710816
 23
-0.4582628265
 33
0.0
 40
0.0
 40
0.0
 40
0.0
 40
0.0
 40
1.0
 40
1.0
 40
1.0
 40
1.0
 10
67.0916839759
 20
98.7822348318
 30
0.0
 10
66.910990059
 20
98.7200404791
 30
0.0
 10
66.7851189187
 20
98.6134496042
 30
0.0
 10
66.7189618915
 20
98.4606953287
 30
0.0
 11
67.0916839759
 21
98.7822348318
 31
0.0
 11
66.7189618915
 21
98.4606953287
 31
0.0
  0
ENDSEC
  0
SECTION
  2
OBJECTS
  0
DICTIONARY
  5
C
100
AcDbDictionary
280
0
281
1
  3
ACAD_GROUP
350
D
  3
ACAD_MLINESTYLE
350
17
  3
ACAD_LAYOUT
350
1A
  3
ACAD_PLOTSETTINGS
350
19
  3
ACAD_PLOTSTYLENAME
350
E
  0
DICTIONARY
  5
D
102
{ACAD_REACTORS
330
C
102
}
100
AcDbDictionary
280
0
281
1
  0
ACDBDICTIONARYWDFLT
  5
E
102
{ACAD_REACTORS
330
C
102
}
100
AcDbDictionary
281
1
  3
Normal
350
F
100
AcDbDictionaryWithDefault
340
F
  0
DICTIONARY
  5
17
102
{ACAD_REACTORS
330
C
102
}
100
AcDbDictionary
280
0
281
1
  3
Standard
350
18
  0
DICTIONARY
  5
19
102
{ACAD_REACTORS
330
C
102
}
100
AcDbDictionary
281
1
  0
DICTIONARY
  5
1A
102
{ACAD_REACTORS
330
C
102
}
100
AcDbDictionary
281
1
  3
Model
350
7AC
  3
Layout1
350
7AD
  0
ACDBPLACEHOLDER
  5
F
102
{ACAD_REACTORS
330
E
102
}
  0
MLINESTYLE
  5
18
102
{ACAD_REACTORS
330
17
102
}
100
AcDbMlineStyle
  2
STANDARD
 70
0
  3

 62
256
 51
90.0
 52
90.0
 71
2
 49
0.5
 62
256
  6
BYLAYER
 49
-0.5
 62
256
  6
BYLAYER
  0
LAYOUT
  5
7AC
102
{ACAD_REACTORS
330
1A
102
}
100
AcDbPlotSettings
  1

  2
none_device
  4
ISO_A4_(297.00_x_210.00_MM)
  6

 40
0.0
 41
0.0
 42
0.0
 43
0.0
 44
297.0
 45
210.0
 46
0.0
 47
0.0
 48
0.0
 49
0.0
140
0.0
141
0.0
142
1.0
143
1.0
 70
1024
 72
1
 73
0
 74
0
  7

 75
0
147
1.0
148
0.0
149
0.0
100
AcDbLayout
  1
Model
 70
0
 71
0
 10
0.0
 20
0.0
 11
297.0
 21
210.0
 12
0.0
 22
0.0
 32
0.0
 14
0.0
 24
0.0
 34
0.0
 15
0.0
 25
0.0
 35
0.0
146
0.0
 13
0.0
 23
0.0
 33
0.0
 16
1.0
 26
0.0
 36
0.0
 17
0.0
 27
1.0
 37
0.0
 76
0
330
218
345
0
346
0
  0
LAYOUT
  5
7AD
102
{ACAD_REACTORS
330
1A
102
}
100
AcDbPlotSettings
  1

  2
none_device
  4
ISO_A4_(297.00_x_210.00_MM)
  6

 40
0.0
 41
0.0
 42
0.0
 43
0.0
 44
297.0
 45
210.0
 46
0.0
 47
0.0
 48
0.0
 49
0.0
140
0.0
141
0.0
142
1.0
143
1.0
 70
0
 72
1
 73
0
 74
0
  7

 75
0
147
1.0
148
0.0
149
0.0
100
AcDbLayout
  1
Layout1
 70
0
 71
1
 10
0.0
 20
0.0
 11
297.0
 21
210.0
 12
0.0
 22
0.0
 32
0.0
 14
0.0
 24
0.0
 34
0.0
 15
0.0
 25
0.0
 35
0.0
146
0.0
 13
0.0
 23
0.0
 33
0.0
 16
1.0
 26
0.0
 36
0.0
 17
0.0
 27
1.0
 37
0.0
 76
0
330
219
345
0
346
0
  0
ENDSEC
  0
EOF
