999
DXF file: s10-z10-SQ1.dxf
999
Pro/ENGINEER 2012230 by Parametric Technology Corporation
  0
SECTION
  2
HEADER
  9
$ACADVER
  1
AC1021
  9
$DWGCODEPAGE
  3
ANSI_1252
  9
$EXTMAX
 10
297.0
 20
210.0
 30
0.0
  9
$EXTMIN
 10
0.0
 20
0.0
 30
0.0
  9
$LIMMIN
 10
0.0
 20
0.0
  9
$LIMMAX
 10
297.0
 20
210.0
  9
$VIEWCTR
 10
148.5
 20
105.0
  9
$VIEWSIZE
 40
210.0
  9
$CLAYER
  8
0
  9
$LTSCALE
 40
16.335
  9
$CELTYPE
  6
BYLAYER
  9
$DIMSCALE
 40
1.0
  9
$DIMASZ
 40
3.5
  9
$DIMEXO
 40
0.0
  9
$DIMDLI
 40
11.286
  9
$DIMEXE
 40
1.5
  9
$DIMCEN
 40
2.673
  9
$DIMLFAC
 40
1.0
  9
$DIMBLK
  1
_FILLED
  9
$DIMTXT
 40
3.5
  9
$DIMTOL
 70
1
  9
$DIMLIM
 70
0
  9
$DIMTFAC
 40
1.0
  9
$DIMTP
 40
0.005
  9
$DIMTM
 40
0.005
  9
$DIMGAP
 40
0.625
  9
$DIMDSEP
 70
46
  9
$PDMODE
 70
3
  9
$PDSIZE
 40
0.3125
  9
$HANDSEED
  5
78F
  9
$TILEMODE
 70
1
  9
$MEASUREMENT
 70
1
  9
$INSUNITS
 70
4
  0
ENDSEC
  0
SECTION
  2
CLASSES
  0
CLASS
  1
ACDBDICTIONARYWDFLT
  2
AcDbDictionaryWithDefault
  3
AutoCAD 2000
 90
0
 91
1
280
0
281
0
  0
CLASS
  1
ACDBPLACEHOLDER
  2
AcDbPlaceHolder
  3
AutoCAD 2000
 90
0
 91
1
280
0
281
0
  0
CLASS
  1
LAYOUT
  2
AcDbLayout
  3
AutoCAD 2000
 90
0
 91
0
280
0
281
0
  0
ENDSEC
  0
SECTION
  2
TABLES
  0
TABLE
  2
VPORT
  5
8
100
AcDbSymbolTable
 70
2
  0
VPORT
  5
1F4
100
AcDbSymbolTableRecord
100
AcDbViewportTableRecord
  2
*ACTIVE
 70
0
 10
0.0
 20
0.0
 11
1.0
 21
1.0
 12
148.5
 22
105.0
 13
0.0
 23
0.0
 14
1.0
 24
1.0
 15
0.0
 25
0.0
 16
0.0
 26
0.0
 36
1.0
 17
0.0
 27
0.0
 37
0.0
 40
210.0
 41
1.4142857143
 42
50.0
 43
0.0
 44
0.0
 50
0.0
 51
0.0
 71
0
 72
100
 73
1
 74
1
 75
0
 76
0
 77
0
 78
0
  0
ENDTAB
  0
TABLE
  2
LTYPE
  5
5
100
AcDbSymbolTable
 70
6
  0
LTYPE
  5
14
100
AcDbSymbolTableRecord
100
AcDbLinetypeTableRecord
  2
BYBLOCK
 70
0
  3

 72
65
 73
0
 40
0.0
  0
LTYPE
  5
15
100
AcDbSymbolTableRecord
100
AcDbLinetypeTableRecord
  2
BYLAYER
 70
0
  3

 72
65
 73
0
 40
0.0
  0
LTYPE
  5
16
100
AcDbSymbolTableRecord
100
AcDbLinetypeTableRecord
  2
CONTINUOUS
 70
64
  3
Solid line
 72
65
 73
0
 40
0.0
  0
LTYPE
  5
1F5
100
AcDbSymbolTableRecord
100
AcDbLinetypeTableRecord
  2
CENTER
 70
64
  3
____ _ ____ _ ____ _ ____ _ ____ _ ____ _ ____
 72
65
 73
4
 40
0.6
 49
0.375
 74
0
 49
-0.075
 74
0
 49
0.075
 74
0
 49
-0.075
 74
0
  0
LTYPE
  5
1F6
100
AcDbSymbolTableRecord
100
AcDbLinetypeTableRecord
  2
HIDDEN
 70
64
  3
- - - - - - - - - - - - - - - - - - - -
 72
65
 73
2
 40
0.2
 49
0.1
 74
0
 49
-0.1
 74
0
  0
LTYPE
  5
1F7
100
AcDbSymbolTableRecord
100
AcDbLinetypeTableRecord
  2
PHANTOM
 70
64
  3
_____ _ _ _____ _ _ _____ _ _ _____
 72
65
 73
6
 40
0.8
 49
0.45
 74
0
 49
-0.05
 74
0
 49
0.1
 74
0
 49
-0.05
 74
0
 49
0.1
 74
0
 49
-0.05
 74
0
  0
LTYPE
  5
1F8
100
AcDbSymbolTableRecord
100
AcDbLinetypeTableRecord
  2
DOT
 70
64
  3
. . . . . . . . . . . . . . . . . . . .
 72
65
 73
2
 40
0.2
 49
0.1
 74
0
 49
-0.1
 74
0
  0
LTYPE
  5
1F9
100
AcDbSymbolTableRecord
100
AcDbLinetypeTableRecord
  2
DASHED
 70
64
  3
- - - - - - - - - - - - - - - - - - - -
 72
65
 73
2
 40
0.2
 49
0.1
 74
0
 49
-0.1
 74
0
  0
ENDTAB
  0
TABLE
  2
LAYER
  5
2
100
AcDbSymbolTable
 70
36
  0
LAYER
  5
10
100
AcDbSymbolTableRecord
100
AcDbLayerTableRecord
  2
0
 70
0
 62
7
  6
CONTINUOUS
370
-3
390
F
  0
LAYER
  5
1FA
100
AcDbSymbolTableRecord
100
AcDbLayerTableRecord
  2
DEFAULT_1
 70
0
 62
7
  6
CENTER
370
-3
390
F
  0
LAYER
  5
1FB
100
AcDbSymbolTableRecord
100
AcDbLayerTableRecord
  2
DEFAULT_2
 70
0
 62
8
  6
HIDDEN
370
-3
390
F
  0
LAYER
  5
1FC
100
AcDbSymbolTableRecord
100
AcDbLayerTableRecord
  2
DEFAULT_3
 70
0
 62
7
  6
PHANTOM
370
-3
390
F
  0
LAYER
  5
1FD
100
AcDbSymbolTableRecord
100
AcDbLayerTableRecord
  2
ALLE
 70
0
 62
7
  6
CONTINUOUS
370
-3
390
F
  0
LAYER
  5
1FE
100
AcDbSymbolTableRecord
100
AcDbLayerTableRecord
  2
AUSFORMSCHRAEGEN
 70
0
 62
7
  6
CONTINUOUS
370
-3
390
F
  0
LAYER
  5
1FF
100
AcDbSymbolTableRecord
100
AcDbLayerTableRecord
  2
BEZUGSACHSEN
 70
0
 62
7
  6
CONTINUOUS
370
-3
390
F
  0
LAYER
  5
200
100
AcDbSymbolTableRecord
100
AcDbLayerTableRecord
  2
BEZUGSEBENE
 70
0
 62
7
  6
CONTINUOUS
370
-3
390
F
  0
LAYER
  5
201
100
AcDbSymbolTableRecord
100
AcDbLayerTableRecord
  2
BEZUGSEBENEN
 70
0
 62
7
  6
CONTINUOUS
370
-3
390
F
  0
LAYER
  5
202
100
AcDbSymbolTableRecord
100
AcDbLayerTableRecord
  2
BEZUGSEBENEN-KES
 70
0
 62
7
  6
CONTINUOUS
370
-3
390
F
  0
LAYER
  5
203
100
AcDbSymbolTableRecord
100
AcDbLayerTableRecord
  2
BEZUGSPUNKT-KES
 70
0
 62
7
  6
CONTINUOUS
370
-3
390
F
  0
LAYER
  5
204
100
AcDbSymbolTableRecord
100
AcDbLayerTableRecord
  2
BEZUGSPUNKTE
 70
0
 62
7
  6
CONTINUOUS
370
-3
390
F
  0
LAYER
  5
205
100
AcDbSymbolTableRecord
100
AcDbLayerTableRecord
  2
BOHRUNGEN
 70
0
 62
7
  6
CONTINUOUS
370
-3
390
F
  0
LAYER
  5
206
100
AcDbSymbolTableRecord
100
AcDbLayerTableRecord
  2
FASEN
 70
0
 62
7
  6
CONTINUOUS
370
-3
390
F
  0
LAYER
  5
207
100
AcDbSymbolTableRecord
100
AcDbLayerTableRecord
  2
FLAECHEN
 70
0
 62
7
  6
CONTINUOUS
370
-3
390
F
  0
LAYER
  5
208
100
AcDbSymbolTableRecord
100
AcDbLayerTableRecord
  2
GESTEUERTE
 70
0
 62
7
  6
CONTINUOUS
370
-3
390
F
  0
LAYER
  5
209
100
AcDbSymbolTableRecord
100
AcDbLayerTableRecord
  2
GEWINDE
 70
0
 62
7
  6
CONTINUOUS
370
-3
390
F
  0
LAYER
  5
20A
100
AcDbSymbolTableRecord
100
AcDbLayerTableRecord
  2
KURVEN
 70
0
 62
7
  6
CONTINUOUS
370
-3
390
F
  0
LAYER
  5
20B
100
AcDbSymbolTableRecord
100
AcDbLayerTableRecord
  2
PARAMETER-BEMAßUNGEN
 70
0
 62
7
  6
CONTINUOUS
370
-3
390
F
  0
LAYER
  5
20C
100
AcDbSymbolTableRecord
100
AcDbLayerTableRecord
  2
RUNDUNGEN
 70
0
 62
7
  6
CONTINUOUS
370
-3
390
F
  0
LAYER
  5
20D
100
AcDbSymbolTableRecord
100
AcDbLayerTableRecord
  2
SAMMELFLÄCHEN
 70
0
 62
7
  6
CONTINUOUS
370
-3
390
F
  0
LAYER
  5
20E
100
AcDbSymbolTableRecord
100
AcDbLayerTableRecord
  2
ZEICHNUNGSBEMASSUNGEN
 70
0
 62
7
  6
CONTINUOUS
370
-3
390
F
  0
LAYER
  5
20F
100
AcDbSymbolTableRecord
100
AcDbLayerTableRecord
  2
ZEICHNUNGSNOTIZEN
 70
0
 62
7
  6
CONTINUOUS
370
-3
390
F
  0
ENDTAB
  0
TABLE
  2
STYLE
  5
3
100
AcDbSymbolTable
 70
1
  0
STYLE
  5
11
100
AcDbSymbolTableRecord
100
AcDbTextStyleTableRecord
  2
STANDARD
 70
0
 40
0.0
 41
0.7
 50
0.0
 71
0
 42
0.2
  3
txt
  4

  0
STYLE
  5
210
100
AcDbSymbolTableRecord
100
AcDbTextStyleTableRecord
  2
TEXTSTYLE_1
 70
0
 40
0.0
 41
0.8
 50
0.0
 71
0
 42
0.2
  3
gdt
  4

  0
ENDTAB
  0
TABLE
  2
VIEW
  5
6
100
AcDbSymbolTable
 70
0
  0
ENDTAB
  0
TABLE
  2
UCS
  5
7
100
AcDbSymbolTable
 70
0
  0
ENDTAB
  0
TABLE
  2
APPID
  5
9
100
AcDbSymbolTable
 70
1
  0
APPID
  5
211
100
AcDbSymbolTableRecord
100
AcDbRegAppTableRecord
  2
ACAD
 70
0
  0
ENDTAB
  0
TABLE
  2
BLOCK_RECORD
  5
1
100
AcDbSymbolTable
 70
0
  0
BLOCK_RECORD
  5
212
100
AcDbSymbolTableRecord
100
AcDbBlockTableRecord
  2
*Model_Space
  0
BLOCK_RECORD
  5
213
100
AcDbSymbolTableRecord
100
AcDbBlockTableRecord
  2
*Paper_Space
  0
ENDTAB
  0
TABLE
  2
DIMSTYLE
  5
A
100
AcDbSymbolTable
 70
1
100
AcDbDimStyleTable
 71
0
  0
DIMSTYLE
105
214
100
AcDbSymbolTableRecord
100
AcDbDimStyleTableRecord
  2
STANDARD
 70
0
  3

  4

 40
1.0
 41
3.5
 42
0.0
 43
0.38
 44
1.5
 45
0.0
 46
0.0
 47
0.005
 48
0.005
140
3.5
141
0.09
142
0.0
143
25.4
144
1.0
145
0.0
146
1.0
147
0.625
 71
1.0
 72
0.0
 73
0
 74
0
 75
0
 76
0
 77
1
 78
8
170
0
171
2
172
0
173
0
174
0
175
0
176
0
177
0
178
5
270
2
271
3
272
3
273
2
274
2
275
0
280
0
281
0
282
0
283
1
284
8
285
0
286
0
287
3
288
0
340
11
278
46
  0
ENDTAB
  0
ENDSEC
  0
SECTION
  2
BLOCKS
  0
BLOCK
  5
20
100
AcDbEntity
  8
0
100
AcDbBlockBegin
  2
*Model_Space
 70
0
 10
0.0
 20
0.0
 30
0.0
  3
*Model_Space
  1

  0
ENDBLK
  5
21
100
AcDbEntity
  8
0
100
AcDbBlockEnd
  0
BLOCK
  5
1C
100
AcDbEntity
  8
0
100
AcDbBlockBegin
  2
*Paper_Space
 70
0
 10
0.0
 20
0.0
 30
0.0
  3
*Paper_Space
  1

  0
ENDBLK
  5
1D
100
AcDbEntity
  8
0
100
AcDbBlockEnd
  0
ENDSEC
  0
SECTION
  2
ENTITIES
  0
HATCH
  5
215
100
AcDbEntity
  8
0
100
AcDbHatch
 62
2
  6
CONTINUOUS
 10
0.0
 20
0.0
 30
0.0
210
0.0
220
0.0
230
1.0
  2
A
 70
0
 71
0
 91
1
 92
1
 93
26
 72
1
 10
233.8750110332
 20
119.7126834032
 11
234.1250110332
 21
119.7126834032
 72
1
 10
234.1250110332
 20
119.7126834032
 11
234.1250110332
 21
119.4672936548
 72
1
 10
234.1250110332
 20
119.4672936548
 11
233.8750110332
 21
119.4672936548
 72
1
 10
233.8750110332
 20
119.4672936548
 11
233.8750110332
 21
117.7864427104
 72
1
 10
233.8750110332
 20
117.7864427104
 11
205.8750110332
 21
117.7864427104
 72
1
 10
205.8750110332
 20
117.7864427104
 11
205.8750110332
 21
121.7292869504
 72
4
 94
3
 73
0
 74
0
 95
12
 96
8
 40
0.0
 40
0.0
 40
0.0
 40
0.0
 40
0.2
 40
0.4
 40
0.6
 40
0.8
 40
1.0
 40
1.0
 40
1.0
 40
1.0
 10
205.8750110332
 20
121.7292869504
 10
205.876058007
 20
121.8856493507
 10
205.9209508552
 20
122.182683262
 10
206.1244882391
 20
122.5992233896
 10
206.4408195054
 20
122.932566991
 10
206.8461364557
 20
123.15762546
 10
207.1404137821
 20
123.2180023378
 10
207.2965070989
 20
123.2272312525
 72
1
 10
207.2965070989
 20
123.2272312525
 11
213.9273469895
 21
123.574738846
 72
4
 94
3
 73
0
 74
0
 95
12
 96
8
 40
0.0
 40
0.0
 40
0.0
 40
0.0
 40
0.2
 40
0.4
 40
0.6
 40
0.8
 40
1.0
 40
1.0
 40
1.0
 40
1.0
 10
213.9273469895
 20
123.574738846
 10
214.031409284
 20
123.5808914501
 10
214.2275943288
 20
123.621142754
 10
214.4978059729
 20
123.7711821156
 10
214.7086935647
 20
123.9934115251
 10
214.8443849832
 20
124.2711060732
 10
214.8743132469
 20
124.4691275896
 10
214.8750110332
 20
124.5733683807
 72
1
 10
214.8750110332
 20
124.5733683807
 11
214.8750110332
 21
125.5200205814
 72
2
 10
211.6750114946
 20
125.5200205737
 40
3.1999995387
 50
0.0000001371
 51
29.5936404199
 73
1
 72
4
 94
3
 73
0
 74
0
 95
12
 96
8
 40
0.0
 40
0.0
 40
0.0
 40
0.0
 40
0.2
 40
0.4
 40
0.6
 40
0.8
 40
1.0
 40
1.0
 40
1.0
 40
1.0
 10
214.4575703358
 20
127.1003255018
 10
214.4098050315
 20
127.1865840921
 10
214.3471501552
 20
127.3624485768
 10
214.3517429588
 20
127.6536438481
 10
214.4550671185
 20
127.9201677666
 10
214.650225519
 20
128.1389733986
 10
214.813637668
 20
128.2255152132
 10
214.9059967362
 20
128.2562470034
 72
1
 10
214.9059968085
 20
128.2562467812
 11
218.6389431152
 21
129.4691545612
 72
4
 94
3
 73
0
 74
0
 95
10
 96
6
 40
0.0
 40
0.0
 40
0.0
 40
0.0
 40
0.3333333333
 40
0.6666666667
 40
1.0
 40
1.0
 40
1.0
 40
1.0
 10
218.6389431225
 20
129.4691545385
 10
218.9077208688
 20
129.5560405128
 10
219.4495308123
 20
129.6718878537
 10
220.3008026707
 20
129.6718344203
 10
220.8424346917
 20
129.5560170782
 10
221.1110789961
 20
129.4691545403
 72
1
 10
221.111078998
 20
129.469154546
 11
224.8440252999
 21
128.2562467675
 72
4
 94
3
 73
0
 74
0
 95
12
 96
8
 40
0.0
 40
0.0
 40
0.0
 40
0.0
 40
0.2
 40
0.4
 40
0.6
 40
0.8
 40
1.0
 40
1.0
 40
1.0
 40
1.0
 10
224.8440255729
 20
128.2562476075
 10
224.9363846763
 20
128.2255158093
 10
225.0997969026
 20
128.1389739481
 10
225.294955482
 20
127.9201681788
 10
225.3982797569
 20
127.6536439819
 10
225.4028725303
 20
127.36244873
 10
225.3402176336
 20
127.1865843087
 10
225.2924523109
 20
127.100325775
 72
2
 10
228.0750104175
 20
125.5200196113
 40
3.1999993843
 50
150.4063338464
 51
179.9999998848
 73
1
 72
1
 10
224.8750110332
 20
125.5200196177
 11
224.8750110332
 21
124.5733683807
 72
4
 94
3
 73
0
 74
0
 95
12
 96
8
 40
0.0
 40
0.0
 40
0.0
 40
0.0
 40
0.2
 40
0.4
 40
0.6
 40
0.8
 40
1.0
 40
1.0
 40
1.0
 40
1.0
 10
224.8750110332
 20
124.5733683807
 10
224.8757088163
 20
124.4691276028
 10
224.9056370751
 20
124.2711061042
 10
225.0413284912
 20
123.9934115371
 10
225.2522160848
 20
123.7711821218
 10
225.522427736
 20
123.621142754
 10
225.7186127821
 20
123.5808914497
 10
225.822675077
 20
123.574738846
 72
1
 10
225.822675077
 20
123.574738846
 11
232.4535149676
 21
123.2272312525
 72
4
 94
3
 73
0
 74
0
 95
12
 96
8
 40
0.0
 40
0.0
 40
0.0
 40
0.0
 40
0.2
 40
0.4
 40
0.6
 40
0.8
 40
1.0
 40
1.0
 40
1.0
 40
1.0
 10
232.4535149676
 20
123.2272312525
 10
232.6096082843
 20
123.2180023378
 10
232.9038856108
 20
123.15762546
 10
233.309202561
 20
122.932566991
 10
233.6255338273
 20
122.5992233896
 10
233.8290712113
 20
122.182683262
 10
233.8739640595
 20
121.8856493507
 10
233.8750110332
 20
121.7292869504
 72
1
 10
233.8750110332
 20
121.7292869504
 11
233.8750110332
 21
121.3055917731
 72
1
 10
233.8750110332
 20
121.3055917731
 11
234.1250110332
 21
121.3055917731
 72
1
 10
234.1250110332
 20
121.3055917731
 11
234.1250110332
 21
121.0602020474
 72
1
 10
234.1250110332
 20
121.0602020474
 11
233.8750110332
 21
121.0602020474
 72
1
 10
233.8750110332
 20
121.0602020474
 11
233.8750110332
 21
119.7126834032
 97
0
 75
0
 76
0
 52
45.0
 41
4.2308889296
 77
0
 78
1
 53
45.0
 43
0.0
 44
0.0
 45
-2.9916902525
 46
2.9916902525
 79
0
 98
1
 10
0.0
 20
0.0
  0
LINE
  5
216
100
AcDbEntity
  8
0
100
AcDbLine
 62
7
  6
CONTINUOUS
 10
0.0
 20
0.0
 11
0.0
 21
210.0
  0
LINE
  5
217
100
AcDbEntity
  8
0
100
AcDbLine
 62
7
  6
CONTINUOUS
 10
0.0
 20
0.0
 11
297.0
 21
0.0
  0
LINE
  5
218
100
AcDbEntity
  8
0
100
AcDbLine
 62
7
  6
CONTINUOUS
 10
0.0
 20
210.0
 11
297.0
 21
210.0
  0
LINE
  5
219
100
AcDbEntity
  8
0
100
AcDbLine
 62
7
  6
CONTINUOUS
 10
297.0
 20
0.0
 11
297.0
 21
210.0
  0
LINE
  5
21A
100
AcDbEntity
  8
RUNDUNGEN
100
AcDbLine
 62
7
  6
CONTINUOUS
 10
105.4424902581
 20
57.0000141018
 11
106.2284447915
 21
57.0000141018
  0
LINE
  5
21B
100
AcDbEntity
  8
RUNDUNGEN
100
AcDbLine
 62
7
  6
CONTINUOUS
 10
113.7715552085
 20
57.0000141018
 11
114.5575097419
 21
57.0000141018
  0
LINE
  5
21C
100
AcDbEntity
  8
RUNDUNGEN
100
AcDbLine
 62
7
  6
CONTINUOUS
 10
114.5575097419
 20
57.1151173674
 11
113.7715552085
 21
57.1151173674
  0
LINE
  5
21D
100
AcDbEntity
  8
RUNDUNGEN
100
AcDbLine
 62
7
  6
CONTINUOUS
 10
106.2284447915
 20
57.1151173674
 11
105.4424902581
 21
57.1151173674
  0
LINE
  5
21E
100
AcDbEntity
  8
RUNDUNGEN
100
AcDbLine
 62
7
  6
CONTINUOUS
 10
82.5743500379
 20
67.3919726374
 11
83.2102006122
 21
66.9300001537
  0
LINE
  5
21F
100
AcDbEntity
  8
RUNDUNGEN
100
AcDbLine
 62
7
  6
CONTINUOUS
 10
89.31270513
 20
62.4962710942
 11
89.9485557043
 21
62.0342986105
  0
LINE
  5
220
100
AcDbEntity
  8
RUNDUNGEN
100
AcDbLine
 62
7
  6
CONTINUOUS
 10
90.0162117063
 20
62.1274191084
 11
89.380361132
 21
62.5893915921
  0
LINE
  5
221
100
AcDbEntity
  8
RUNDUNGEN
100
AcDbLine
 62
7
  6
CONTINUOUS
 10
83.2778566142
 20
67.0231206517
 11
82.6420060399
 21
67.4850931354
  0
LINE
  5
222
100
AcDbEntity
  8
AUSFORMSCHRAEGEN
100
AcDbLine
 62
7
  6
CONTINUOUS
 10
83.5566845762
 20
71.5646632039
 11
84.1425077904
 21
71.1390377249
  0
LINE
  5
223
100
AcDbEntity
  8
RUNDUNGEN
100
AcDbLine
 62
7
  6
CONTINUOUS
 10
91.7343972792
 20
62.2985219247
 11
91.9539410908
 21
62.360652996
  0
LINE
  5
224
100
AcDbEntity
  8
RUNDUNGEN
100
AcDbLine
 62
7
  6
CONTINUOUS
 10
94.851385307
 20
63.0203634306
 11
91.9448757043
 21
62.3590387187
  0
LINE
  5
225
100
AcDbEntity
  8
RUNDUNGEN
100
AcDbLine
 62
7
  6
CONTINUOUS
 10
136.4433154238
 20
71.5646632039
 11
135.8414446369
 21
71.5449980735
  0
LINE
  5
226
100
AcDbEntity
  8
RUNDUNGEN
100
AcDbLine
 62
7
  6
CONTINUOUS
 10
84.1585553631
 20
71.5449980735
 11
83.5566845762
 21
71.5646632039
  0
LINE
  5
227
100
AcDbEntity
  8
RUNDUNGEN
100
AcDbLine
 62
7
  6
CONTINUOUS
 10
128.0551242957
 20
62.3590387187
 11
125.148614693
 21
63.0203634306
  0
LINE
  5
228
100
AcDbEntity
  8
RUNDUNGEN
100
AcDbLine
 62
7
  6
CONTINUOUS
 10
128.0458984779
 20
62.3606923007
 11
128.2476072981
 21
62.3042555007
  0
LINE
  5
229
100
AcDbEntity
  8
RUNDUNGEN
100
AcDbLine
 62
7
  6
CONTINUOUS
 10
74.5986546149
 20
79.735970401
 11
74.8127890169
 21
79.6571908789
  0
LINE
  5
22A
100
AcDbEntity
  8
RUNDUNGEN
100
AcDbLine
 62
7
  6
CONTINUOUS
 10
77.5446386923
 20
78.4878328522
 11
74.8045061168
 21
79.6612134016
  0
LINE
  5
22B
100
AcDbEntity
  8
RUNDUNGEN
100
AcDbLine
 62
7
  6
CONTINUOUS
 10
70.1818759396
 20
89.2407992664
 11
70.4247492473
 21
88.4933120859
  0
LINE
  5
22C
100
AcDbEntity
  8
RUNDUNGEN
100
AcDbLine
 62
7
  6
CONTINUOUS
 10
72.7556985566
 20
81.3193877706
 11
72.9985718642
 21
80.5719005901
  0
LINE
  5
22D
100
AcDbEntity
  8
RUNDUNGEN
100
AcDbLine
 62
7
  6
CONTINUOUS
 10
73.1080415749
 20
80.6074694553
 11
72.8651682673
 21
81.3549566358
  0
LINE
  5
22E
100
AcDbEntity
  8
RUNDUNGEN
100
AcDbLine
 62
7
  6
CONTINUOUS
 10
70.534218958
 20
88.5288809511
 11
70.2913456504
 21
89.2763681315
  0
LINE
  5
22F
100
AcDbEntity
  8
RUNDUNGEN
100
AcDbLine
 62
7
  6
CONTINUOUS
 10
145.6181417185
 20
79.7987073117
 11
145.8572542705
 21
79.8492647977
  0
LINE
  5
230
100
AcDbEntity
  8
RUNDUNGEN
100
AcDbLine
 62
7
  6
CONTINUOUS
 10
88.5517196424
 20
70.8880895256
 11
90.8814110493
 21
70.8880895256
  0
LINE
  5
231
100
AcDbEntity
  8
RUNDUNGEN
100
AcDbLine
 62
7
  6
CONTINUOUS
 10
129.1180575579
 20
70.8880895256
 11
131.4482810929
 21
70.8880895256
  0
LINE
  5
232
100
AcDbEntity
  8
RUNDUNGEN
100
AcDbLine
 62
7
  6
CONTINUOUS
 10
74.124067794
 20
79.8524188993
 11
74.3634975776
 21
79.8032690487
  0
LINE
  5
233
100
AcDbEntity
  8
RUNDUNGEN
100
AcDbLine
 62
7
  6
CONTINUOUS
 10
74.3634975776
 20
79.8032690487
 11
74.5986546149
 21
79.735970401
  0
LINE
  5
234
100
AcDbEntity
  8
RUNDUNGEN
100
AcDbLine
 62
7
  6
CONTINUOUS
 10
128.2476072981
 20
62.3042555007
 11
128.4778704698
 21
62.2218474641
  0
LINE
  5
235
100
AcDbEntity
  8
RUNDUNGEN
100
AcDbLine
 62
7
  6
CONTINUOUS
 10
128.4778704698
 20
62.2218474641
 11
128.7010335325
 21
62.1222024977
  0
LINE
  5
236
100
AcDbEntity
  8
RUNDUNGEN
100
AcDbLine
 62
7
  6
CONTINUOUS
 10
104.0183108984
 20
58.436141823
 11
102.0556121481
 21
60.6795682338
  0
LINE
  5
237
100
AcDbEntity
  8
RUNDUNGEN
100
AcDbLine
 62
7
  6
CONTINUOUS
 10
104.011819006
 20
58.4429023986
 11
104.1418321508
 21
58.2786825985
  0
LINE
  5
238
100
AcDbEntity
  8
RUNDUNGEN
100
AcDbLine
 62
7
  6
CONTINUOUS
 10
70.9850226403
 20
103.915299382
 11
71.1119555702
 21
103.7257003649
  0
LINE
  5
239
100
AcDbEntity
  8
RUNDUNGEN
100
AcDbLine
 62
7
  6
CONTINUOUS
 10
72.6347369801
 20
101.1739288995
 11
71.1076189419
 21
103.7338232221
  0
LINE
  5
23A
100
AcDbEntity
  8
RUNDUNGEN
100
AcDbLine
 62
7
  6
CONTINUOUS
 10
72.9985718642
 20
114.2009848307
 11
72.7556985566
 21
113.4534976502
  0
LINE
  5
23B
100
AcDbEntity
  8
RUNDUNGEN
100
AcDbLine
 62
7
  6
CONTINUOUS
 10
70.4247492473
 20
106.2795733349
 11
70.1818759396
 21
105.5320861545
  0
LINE
  5
23C
100
AcDbEntity
  8
RUNDUNGEN
100
AcDbLine
 62
7
  6
CONTINUOUS
 10
70.2913456504
 20
105.4965172893
 11
70.534218958
 21
106.2440044698
  0
LINE
  5
23D
100
AcDbEntity
  8
RUNDUNGEN
100
AcDbLine
 62
7
  6
CONTINUOUS
 10
72.8651682673
 20
113.4179287851
 11
73.1080415749
 21
114.1654159655
  0
LINE
  5
23E
100
AcDbEntity
  8
RUNDUNGEN
100
AcDbLine
 62
7
  6
CONTINUOUS
 10
145.8572542705
 20
79.8492647977
 11
146.0993154343
 21
79.8814296838
  0
LINE
  5
23F
100
AcDbEntity
  8
RUNDUNGEN
100
AcDbLine
 62
7
  6
CONTINUOUS
 10
146.0993154343
 20
79.8814296838
 11
146.1336611701
 21
79.8844817148
  0
LINE
  5
240
100
AcDbEntity
  8
RUNDUNGEN
100
AcDbLine
 62
7
  6
CONTINUOUS
 10
146.0740768298
 20
79.9964398526
 11
145.4338699286
 21
79.9793853788
  0
LINE
  5
241
100
AcDbEntity
  8
0
100
AcDbLine
 62
7
  6
CONTINUOUS
 10
100.4
 20
76.9864427104
 11
119.6
 21
76.9864427104
  0
LINE
  5
242
100
AcDbEntity
  8
0
100
AcDbLine
 62
7
  6
CONTINUOUS
 10
92.1660254038
 20
78.1864427104
 11
99.2
 21
78.1864427104
  0
LINE
  5
243
100
AcDbEntity
  8
0
100
AcDbLine
 62
7
  6
CONTINUOUS
 10
120.8
 20
78.1864427104
 11
127.8339745962
 21
78.1864427104
  0
LINE
  5
244
100
AcDbEntity
  8
RUNDUNGEN
100
AcDbLine
 62
7
  6
CONTINUOUS
 10
74.5661300714
 20
79.9793853788
 11
73.9259231702
 21
79.9964398526
  0
LINE
  5
245
100
AcDbEntity
  8
RUNDUNGEN
100
AcDbLine
 62
7
  6
CONTINUOUS
 10
73.8663388238
 20
79.8844817167
 11
74.124067794
 21
79.8524188993
  0
LWPOLYLINE
  5
246
100
AcDbEntity
  8
RUNDUNGEN
100
AcDbPolyline
 62
7
  6
CONTINUOUS
 90
3
 70
0
 10
77.301983106
 20
84.3142188423
 10
77.0765540226
 20
84.3657155492
 10
76.8468413233
 20
84.395861229
  0
LINE
  5
247
100
AcDbEntity
  8
RUNDUNGEN
100
AcDbLine
 62
7
  6
CONTINUOUS
 10
128.7010335325
 20
62.1222024977
 11
128.9157711734
 21
62.005944455
  0
LINE
  5
248
100
AcDbEntity
  8
RUNDUNGEN
100
AcDbLine
 62
7
  6
CONTINUOUS
 10
128.9157711734
 20
62.005944455
 11
128.9453513962
 21
61.9882256829
  0
LINE
  5
249
100
AcDbEntity
  8
RUNDUNGEN
100
AcDbLine
 62
7
  6
CONTINUOUS
 10
70.4798594811
 20
104.4658919823
 11
70.6695205468
 21
104.2884633303
  0
LINE
  5
24A
100
AcDbEntity
  8
RUNDUNGEN
100
AcDbLine
 62
7
  6
CONTINUOUS
 10
70.6695205468
 20
104.2884633303
 11
70.8343337534
 21
104.1079669701
  0
LINE
  5
24B
100
AcDbEntity
  8
RUNDUNGEN
100
AcDbLine
 62
7
  6
CONTINUOUS
 10
70.8343337534
 20
104.1079669701
 11
70.9850226403
 21
103.915299382
  0
LINE
  5
24C
100
AcDbEntity
  8
RUNDUNGEN
100
AcDbLine
 62
7
  6
CONTINUOUS
 10
104.1418321508
 20
58.2786825985
 11
104.2796807413
 21
58.0766677999
  0
LINE
  5
24D
100
AcDbEntity
  8
RUNDUNGEN
100
AcDbLine
 62
7
  6
CONTINUOUS
 10
82.2662994277
 20
69.3909359942
 11
81.9970957428
 21
72.3595514663
  0
LINE
  5
24E
100
AcDbEntity
  8
RUNDUNGEN
100
AcDbLine
 62
7
  6
CONTINUOUS
 10
82.2650195465
 20
69.4002428232
 11
82.2736779922
 21
69.1909468936
  0
LINE
  5
24F
100
AcDbEntity
  8
RUNDUNGEN
100
AcDbLine
 62
7
  6
CONTINUOUS
 10
82.2737859406
 20
125.6008226151
 11
82.2650229683
 21
125.372688792
  0
LINE
  5
250
100
AcDbEntity
  8
RUNDUNGEN
100
AcDbLine
 62
7
  6
CONTINUOUS
 10
81.9970957428
 20
122.4133339545
 11
82.2662994277
 21
125.3819494266
  0
LINE
  5
251
100
AcDbEntity
  8
RUNDUNGEN
100
AcDbLine
 62
7
  6
CONTINUOUS
 10
89.9485557043
 20
132.7385868103
 11
89.31270513
 21
132.2766143267
  0
LINE
  5
252
100
AcDbEntity
  8
RUNDUNGEN
100
AcDbLine
 62
7
  6
CONTINUOUS
 10
83.2102006122
 20
127.8428852671
 11
82.5743500379
 21
127.3809127834
  0
LINE
  5
253
100
AcDbEntity
  8
RUNDUNGEN
100
AcDbLine
 62
7
  6
CONTINUOUS
 10
82.6420060399
 20
127.2877922855
 11
83.2778566142
 21
127.7497647691
  0
LINE
  5
254
100
AcDbEntity
  8
RUNDUNGEN
100
AcDbLine
 62
7
  6
CONTINUOUS
 10
89.380361132
 20
132.1834938287
 11
90.0162117063
 21
132.6454663124
  0
LINE
  5
255
100
AcDbEntity
  8
RUNDUNGEN
100
AcDbLine
 62
7
  6
CONTINUOUS
 10
142.1394651926
 20
88.816589541
 11
142.4664329001
 21
88.8820178869
  0
LINE
  5
256
100
AcDbEntity
  8
RUNDUNGEN
100
AcDbLine
 62
7
  6
CONTINUOUS
 10
143.5091771195
 20
84.5041946104
 11
143.1694045592
 21
84.4758905437
  0
LWPOLYLINE
  5
257
100
AcDbEntity
  8
RUNDUNGEN
100
AcDbPolyline
 62
7
  6
CONTINUOUS
 90
22
 70
0
 10
143.1694047126
 20
84.4758887007
 10
142.8830558033
 20
84.4706476284
 10
142.5672216355
 20
84.5076160728
 10
142.2324089834
 20
84.5960506206
 10
141.9035575232
 20
84.734578434
 10
141.5924902002
 20
84.9186474424
 10
141.3172146036
 20
85.1351000144
 10
141.0819551425
 20
85.3765019455
 10
140.8914570126
 20
85.6337227103
 10
140.7458442839
 20
85.9023900023
 10
140.6444130304
 20
86.1828001444
 10
140.5911202456
 20
86.4619736783
 10
140.5828681015
 20
86.7646368298
 10
140.6169580399
 20
87.0835556705
 10
140.6894671526
 20
87.3829188614
 10
140.799373864
 20
87.6702058324
 10
140.950658561
 20
87.9499531337
 10
141.134025951
 20
88.2025825107
 10
141.3325315234
 20
88.4014399258
 10
141.5706048223
 20
88.5739486838
 10
141.8396384106
 20
88.7126859749
 10
142.1394651926
 20
88.816589541
  0
LWPOLYLINE
  5
258
100
AcDbEntity
  8
RUNDUNGEN
100
AcDbPolyline
 62
7
  6
CONTINUOUS
 90
3
 70
0
 10
77.1381208245
 20
84.4717131735
 10
76.8636582284
 20
84.4733865886
 10
76.8305950629
 20
84.4758859635
  0
LINE
  5
259
100
AcDbEntity
  8
RUNDUNGEN
100
AcDbLine
 62
7
  6
CONTINUOUS
 10
76.4908230307
 20
84.5041964081
 11
76.4396737725
 21
84.5058227361
  0
LINE
  5
25A
100
AcDbEntity
  8
RUNDUNGEN
100
AcDbLine
 62
7
  6
CONTINUOUS
 10
76.8305954459
 20
84.4758905433
 11
76.4908228807
 21
84.5041946104
  0
LINE
  5
25B
100
AcDbEntity
  8
0
100
AcDbLine
 62
7
  6
CONTINUOUS
 10
87.9287833795
 20
87.0704192414
 11
87.6083086133
 21
87.1505379423
  0
LINE
  5
25C
100
AcDbEntity
  8
0
100
AcDbLine
 62
7
  6
CONTINUOUS
 10
86.6023738384
 20
88.1030602499
 11
86.9109792709
 21
88.0259088322
  0
LWPOLYLINE
  5
25D
100
AcDbEntity
  8
RUNDUNGEN
100
AcDbPolyline
 62
7
  6
CONTINUOUS
 90
3
 70
0
 10
129.1866456212
 20
67.3894571709
 10
128.9760563466
 20
67.5033684712
 10
128.7508531425
 20
67.5979225623
  0
LINE
  5
25E
100
AcDbEntity
  8
RUNDUNGEN
100
AcDbLine
 62
7
  6
CONTINUOUS
 10
129.5374983077
 20
67.2682849444
 11
129.2459798182
 21
67.4450997741
  0
LINE
  5
25F
100
AcDbEntity
  8
RUNDUNGEN
100
AcDbLine
 62
7
  6
CONTINUOUS
 10
129.2459813984
 20
67.4451023794
 11
129.1967363579
 21
67.4758731571
  0
LINE
  5
260
100
AcDbEntity
  8
RUNDUNGEN
100
AcDbLine
 62
7
  6
CONTINUOUS
 10
128.9629539945
 20
62.1138245156
 11
128.4349913633
 21
62.4763313314
  0
LINE
  5
261
100
AcDbEntity
  8
RUNDUNGEN
100
AcDbLine
 62
7
  6
CONTINUOUS
 10
71.101785466
 20
104.1313436827
 11
70.5938715712
 21
104.5214452168
  0
LINE
  5
262
100
AcDbEntity
  8
0
100
AcDbLine
 62
7
  6
CONTINUOUS
 10
89.6
 20
87.7864427104
 11
90.8
 21
86.5864427104
  0
LINE
  5
263
100
AcDbEntity
  8
0
100
AcDbLine
 62
7
  6
CONTINUOUS
 10
99.2
 20
78.1864427104
 11
100.4
 21
76.9864427104
  0
LWPOLYLINE
  5
264
100
AcDbEntity
  8
RUNDUNGEN
100
AcDbPolyline
 62
7
  6
CONTINUOUS
 90
3
 70
0
 10
75.8630879251
 20
106.0302039324
 10
75.7109821475
 20
106.2043682686
 10
75.5428589544
 20
106.3637793066
  0
LINE
  5
265
100
AcDbEntity
  8
RUNDUNGEN
100
AcDbLine
 62
7
  6
CONTINUOUS
 10
104.2796807413
 20
58.0766677999
 11
104.4016536099
 21
57.8648813716
  0
LINE
  5
266
100
AcDbEntity
  8
RUNDUNGEN
100
AcDbLine
 62
7
  6
CONTINUOUS
 10
104.4016536099
 20
57.8648813716
 11
104.5070452477
 21
57.6446070209
  0
LINE
  5
267
100
AcDbEntity
  8
RUNDUNGEN
100
AcDbLine
 62
7
  6
CONTINUOUS
 10
91.8430756827
 20
70.1622956288
 11
91.8642104769
 21
70.081638952
  0
LINE
  5
268
100
AcDbEntity
  8
0
100
AcDbLine
 62
7
  6
CONTINUOUS
 10
85.8931751251
 20
88.7529118105
 11
85.8931751251
 21
88.8923777386
  0
LINE
  5
269
100
AcDbEntity
  8
0
100
AcDbLine
 62
7
  6
CONTINUOUS
 10
85.8931751251
 20
92.5570663258
 11
85.8931751251
 21
93.0081046864
  0
LINE
  5
26A
100
AcDbEntity
  8
0
100
AcDbLine
 62
7
  6
CONTINUOUS
 10
85.8931751251
 20
93.6816953465
 11
85.8931751251
 21
93.8211611554
  0
LINE
  5
26B
100
AcDbEntity
  8
0
100
AcDbLine
 62
7
  6
CONTINUOUS
 10
85.8931751251
 20
102.8656715199
 11
85.8931751251
 21
103.3167098805
  0
LINE
  5
26C
100
AcDbEntity
  8
0
100
AcDbLine
 62
7
  6
CONTINUOUS
 10
85.8931751251
 20
103.9903014943
 11
85.8931751251
 21
104.1297668263
  0
LINE
  5
26D
100
AcDbEntity
  8
0
100
AcDbLine
 62
7
  6
CONTINUOUS
 10
85.8931751251
 20
106.2306560322
 11
85.8931751251
 21
106.6816943928
  0
LINE
  5
26E
100
AcDbEntity
  8
0
100
AcDbLine
 62
7
  6
CONTINUOUS
 10
86.3442136049
 20
104.1297668263
 11
86.3442136049
 21
103.6787284657
  0
LINE
  5
26F
100
AcDbEntity
  8
0
100
AcDbLine
 62
7
  6
CONTINUOUS
 10
86.3442136049
 20
93.8211611554
 11
86.3442136049
 21
93.3701223179
  0
LINE
  5
270
100
AcDbEntity
  8
0
100
AcDbLine
 62
7
  6
CONTINUOUS
 10
86.3442136049
 20
88.8923777386
 11
86.3442136049
 21
88.4413391396
  0
LINE
  5
271
100
AcDbEntity
  8
0
100
AcDbLine
 62
7
  6
CONTINUOUS
 10
86.548961401
 20
88.4413391396
 11
86.548961401
 21
88.8923777386
  0
LINE
  5
272
100
AcDbEntity
  8
0
100
AcDbLine
 62
7
  6
CONTINUOUS
 10
86.548961401
 20
91.8152264401
 11
86.548961401
 21
92.206917648
  0
LINE
  5
273
100
AcDbEntity
  8
0
100
AcDbLine
 62
7
  6
CONTINUOUS
 10
86.548961401
 20
93.3701223179
 11
86.548961401
 21
93.8211611554
  0
LINE
  5
274
100
AcDbEntity
  8
0
100
AcDbLine
 62
7
  6
CONTINUOUS
 10
86.548961401
 20
94.1713093563
 11
86.548961401
 21
94.5630010411
  0
LINE
  5
275
100
AcDbEntity
  8
0
100
AcDbLine
 62
7
  6
CONTINUOUS
 10
86.548961401
 20
96.9161161229
 11
86.548961401
 21
97.3078082844
  0
LINE
  5
276
100
AcDbEntity
  8
0
100
AcDbLine
 62
7
  6
CONTINUOUS
 10
86.548961401
 20
98.239558582
 11
86.548961401
 21
98.6312497898
  0
LINE
  5
277
100
AcDbEntity
  8
0
100
AcDbLine
 62
7
  6
CONTINUOUS
 10
86.548961401
 20
100.0170072361
 11
86.548961401
 21
100.4027637288
  0
LINE
  5
278
100
AcDbEntity
  8
0
100
AcDbLine
 62
7
  6
CONTINUOUS
 10
86.548961401
 20
103.6787284657
 11
86.548961401
 21
104.1297668263
  0
LINE
  5
279
100
AcDbEntity
  8
0
100
AcDbLine
 62
7
  6
CONTINUOUS
 10
86.548961401
 20
104.4799140736
 11
86.548961401
 21
104.8716052815
  0
LINE
  5
27A
100
AcDbEntity
  8
0
100
AcDbLine
 62
7
  6
CONTINUOUS
 10
86.548961401
 20
107.0852569386
 11
86.548961401
 21
107.628282909
  0
LINE
  5
27B
100
AcDbEntity
  8
0
100
AcDbLine
 62
7
  6
CONTINUOUS
 10
87.1068249345
 20
89.6104785248
 11
87.1068249345
 21
90.1446031376
  0
LWPOLYLINE
  5
27C
100
AcDbEntity
  8
RUNDUNGEN
100
AcDbPolyline
 62
7
  6
CONTINUOUS
 90
3
 70
0
 10
82.2736779922
 20
69.1909468936
 10
82.2664586651
 20
68.9464877222
 10
82.2406518643
 20
68.7034543143
  0
LINE
  5
27D
100
AcDbEntity
  8
RUNDUNGEN
100
AcDbLine
 62
7
  6
CONTINUOUS
 10
71.1076189419
 20
91.0390621987
 11
72.6347369801
 21
93.5989565213
  0
LINE
  5
27E
100
AcDbEntity
  8
AUSFORMSCHRAEGEN
100
AcDbLine
 62
7
  6
CONTINUOUS
 10
84.1425074024
 20
123.633847414
 11
83.5566845762
 21
123.2082222169
  0
LWPOLYLINE
  5
27F
100
AcDbEntity
  8
RUNDUNGEN
100
AcDbPolyline
 62
7
  6
CONTINUOUS
 90
4
 70
0
 10
76.4396737725
 20
84.5058227361
 10
76.3461368556
 20
84.4951590905
 10
76.2564309345
 20
84.4672148658
 10
76.1954984566
 20
84.4367217258
  0
LINE
  5
280
100
AcDbEntity
  8
RUNDUNGEN
100
AcDbLine
 62
7
  6
CONTINUOUS
 10
142.4664329001
 20
88.8820178869
 11
142.8137721308
 21
88.9046269243
  0
LINE
  5
281
100
AcDbEntity
  8
0
100
AcDbLine
 62
7
  6
CONTINUOUS
 10
88.0
 20
88.4413391396
 11
86.548961401
 21
88.4413391396
  0
LINE
  5
282
100
AcDbEntity
  8
0
100
AcDbLine
 62
7
  6
CONTINUOUS
 10
86.3442136049
 20
88.4413391396
 11
86.2047477961
 21
88.4413391396
  0
LINE
  5
283
100
AcDbEntity
  8
0
100
AcDbLine
 62
7
  6
CONTINUOUS
 10
85.8931751251
 20
88.8923777386
 11
86.3442136049
 21
88.8923777386
  0
LINE
  5
284
100
AcDbEntity
  8
0
100
AcDbLine
 62
7
  6
CONTINUOUS
 10
86.548961401
 20
88.8923777386
 11
88.0
 21
88.8923777386
  0
LINE
  5
285
100
AcDbEntity
  8
0
100
AcDbLine
 62
7
  6
CONTINUOUS
 10
88.5103857517
 20
90.8627041623
 11
88.1661721021
 21
90.9517248913
  0
LWPOLYLINE
  5
286
100
AcDbEntity
  8
RUNDUNGEN
100
AcDbPolyline
 62
7
  6
CONTINUOUS
 90
3
 70
0
 10
75.8230929966
 20
106.2539351021
 10
75.602031226
 20
106.4166147853
 10
75.5767528463
 20
106.4380699313
  0
LINE
  5
287
100
AcDbEntity
  8
RUNDUNGEN
100
AcDbLine
 62
7
  6
CONTINUOUS
 10
129.1967363579
 20
67.4758731571
 11
128.9588990292
 21
67.6523056485
  0
LWPOLYLINE
  5
288
100
AcDbEntity
  8
RUNDUNGEN
100
AcDbPolyline
 62
7
  6
CONTINUOUS
 90
3
 70
0
 10
75.3185119714
 20
106.6606865651
 10
75.2780872839
 20
106.6920670717
 10
75.1961463949
 20
106.7384196215
  0
LINE
  5
289
100
AcDbEntity
  8
RUNDUNGEN
100
AcDbLine
 62
7
  6
CONTINUOUS
 10
75.5767558596
 20
106.4380734247
 11
75.3185107934
 21
106.6606851989
  0
LINE
  5
28A
100
AcDbEntity
  8
RUNDUNGEN
100
AcDbLine
 62
7
  6
CONTINUOUS
 10
107.8951273996
 20
61.8311013797
 11
107.7665748877
 21
62.0950836946
  0
LINE
  5
28B
100
AcDbEntity
  8
RUNDUNGEN
100
AcDbLine
 62
7
  6
CONTINUOUS
 10
104.5070452477
 20
57.6446070209
 11
104.5205613177
 21
57.6128854144
  0
LINE
  5
28C
100
AcDbEntity
  8
RUNDUNGEN
100
AcDbLine
 62
7
  6
CONTINUOUS
 10
104.6086272605
 20
57.7041504568
 11
104.3945726796
 21
58.3077532798
  0
LINE
  5
28D
100
AcDbEntity
  8
RUNDUNGEN
100
AcDbLine
 62
7
  6
CONTINUOUS
 10
82.1887305747
 20
126.3431932473
 11
82.237879998
 21
126.0881682267
  0
LWPOLYLINE
  5
28E
100
AcDbEntity
  8
RUNDUNGEN
100
AcDbPolyline
 62
7
  6
CONTINUOUS
 90
9
 70
0
 10
91.8642104769
 20
70.081638952
 10
91.9126204475
 20
69.7833184068
 10
91.9184378905
 20
69.4665940572
 10
91.8798505706
 20
69.1385621365
 10
91.7966571649
 20
68.8092278357
 10
91.6713524664
 20
68.490237345
 10
91.5071770588
 20
68.1911014082
 10
91.3061230622
 20
67.9180592127
 10
91.0777320748
 20
67.6841435893
  0
LWPOLYLINE
  5
28F
100
AcDbEntity
  8
RUNDUNGEN
100
AcDbPolyline
 62
7
  6
CONTINUOUS
 90
3
 70
0
 10
82.237879998
 20
126.0881682267
 10
82.2651235251
 20
125.8452673697
 10
82.2737859406
 20
125.6008226151
  0
LWPOLYLINE
  5
290
100
AcDbEntity
  8
RUNDUNGEN
100
AcDbPolyline
 62
7
  6
CONTINUOUS
 90
3
 70
0
 10
87.4640091668
 20
124.4265967365
 10
87.4397831003
 20
124.6937229081
 10
87.4007178827
 20
124.9003631505
  0
LINE
  5
291
100
AcDbEntity
  8
RUNDUNGEN
100
AcDbLine
 62
7
  6
CONTINUOUS
 10
87.4656579704
 20
124.3324151069
 11
87.4640073658
 21
124.4277088281
  0
LINE
  5
292
100
AcDbEntity
  8
0
100
AcDbLine
 62
7
  6
CONTINUOUS
 10
87.4154302478
 20
90.5481640145
 11
87.4154302478
 21
89.6134458825
  0
LINE
  5
293
100
AcDbEntity
  8
0
100
AcDbLine
 62
7
  6
CONTINUOUS
 10
88.0
 20
107.7024673268
 11
88.0
 21
107.5036529347
  0
LINE
  5
294
100
AcDbEntity
  8
0
100
AcDbLine
 62
7
  6
CONTINUOUS
 10
88.0
 20
106.6816943928
 11
88.0
 21
106.2306560322
  0
LINE
  5
295
100
AcDbEntity
  8
0
100
AcDbLine
 62
7
  6
CONTINUOUS
 10
88.0
 20
105.8686393544
 11
88.0
 21
105.729172115
  0
LINE
  5
296
100
AcDbEntity
  8
0
100
AcDbLine
 62
7
  6
CONTINUOUS
 10
88.0
 20
104.9428218647
 11
88.0
 21
104.4917835041
  0
LINE
  5
297
100
AcDbEntity
  8
0
100
AcDbLine
 62
7
  6
CONTINUOUS
 10
88.0
 20
104.1297668263
 11
88.0
 21
103.6787284657
  0
LINE
  5
298
100
AcDbEntity
  8
0
100
AcDbLine
 62
7
  6
CONTINUOUS
 10
88.0
 20
103.3167098805
 11
88.0
 21
103.1772445485
  0
LINE
  5
299
100
AcDbEntity
  8
0
100
AcDbLine
 62
7
  6
CONTINUOUS
 10
88.0
 20
100.4769471928
 11
88.0
 21
100.0259088322
  0
LINE
  5
29A
100
AcDbEntity
  8
0
100
AcDbLine
 62
7
  6
CONTINUOUS
 10
88.0
 20
95.5600332066
 11
88.0
 21
95.4205678746
  0
LINE
  5
29B
100
AcDbEntity
  8
0
100
AcDbLine
 62
7
  6
CONTINUOUS
 10
88.0
 20
94.6342176243
 11
88.0
 21
94.1831787869
  0
LINE
  5
29C
100
AcDbEntity
  8
0
100
AcDbLine
 62
7
  6
CONTINUOUS
 10
88.0
 20
93.8211611554
 11
88.0
 21
93.3701223179
  0
LINE
  5
29D
100
AcDbEntity
  8
0
100
AcDbLine
 62
7
  6
CONTINUOUS
 10
88.0
 20
93.0081046864
 11
88.0
 21
92.8686388775
  0
LINE
  5
29E
100
AcDbEntity
  8
0
100
AcDbLine
 62
7
  6
CONTINUOUS
 10
88.0
 20
88.8923777386
 11
88.0
 21
88.4413391396
  0
LINE
  5
29F
100
AcDbEntity
  8
0
100
AcDbLine
 62
7
  6
CONTINUOUS
 10
88.5875371099
 20
98.7024663731
 11
88.5875371099
 21
98.5630010411
  0
LINE
  5
2A0
100
AcDbEntity
  8
0
100
AcDbLine
 62
7
  6
CONTINUOUS
 10
89.6
 20
106.9864427104
 11
89.6
 21
87.7864427104
  0
LINE
  5
2A1
100
AcDbEntity
  8
0
100
AcDbLine
 62
7
  6
CONTINUOUS
 10
90.8
 20
115.2204173066
 11
90.8
 21
108.1864427104
  0
LINE
  5
2A2
100
AcDbEntity
  8
0
100
AcDbLine
 62
7
  6
CONTINUOUS
 10
90.8
 20
86.5864427104
 11
90.8
 21
79.5524681142
  0
LINE
  5
2A3
100
AcDbEntity
  8
RUNDUNGEN
100
AcDbLine
 62
7
  6
CONTINUOUS
 10
87.4649776316
 20
70.4393088699
 11
87.4630773476
 21
70.3330531464
  0
LINE
  5
2A4
100
AcDbEntity
  8
RUNDUNGEN
100
AcDbLine
 62
7
  6
CONTINUOUS
 10
87.4431950857
 20
70.103376156
 11
87.4630844366
 21
70.3341580541
  0
LINE
  5
2A5
100
AcDbEntity
  8
RUNDUNGEN
100
AcDbLine
 62
7
  6
CONTINUOUS
 10
82.2406518643
 20
68.7034543143
 11
82.1964414151
 21
68.4633003959
  0
LINE
  5
2A6
100
AcDbEntity
  8
RUNDUNGEN
100
AcDbLine
 62
7
  6
CONTINUOUS
 10
91.876105108
 20
124.7379887623
 11
91.8438376174
 21
124.6089700209
  0
LINE
  5
2A7
100
AcDbEntity
  8
RUNDUNGEN
100
AcDbLine
 62
7
  6
CONTINUOUS
 10
71.1120425262
 20
91.0473254879
 11
70.9960364865
 21
90.8729289304
  0
LINE
  5
2A8
100
AcDbEntity
  8
RUNDUNGEN
100
AcDbLine
 62
7
  6
CONTINUOUS
 10
104.2896929804
 20
136.7122700337
 11
104.1530206422
 21
136.5094188269
  0
LINE
  5
2A9
100
AcDbEntity
  8
RUNDUNGEN
100
AcDbLine
 62
7
  6
CONTINUOUS
 10
104.1530206422
 20
136.5094188269
 11
104.0119256956
 21
136.3301091203
  0
LINE
  5
2AA
100
AcDbEntity
  8
RUNDUNGEN
100
AcDbLine
 62
7
  6
CONTINUOUS
 10
102.0556121481
 20
134.093317187
 11
104.0183108984
 21
136.3367435978
  0
LWPOLYLINE
  5
2AB
100
AcDbEntity
  8
RUNDUNGEN
100
AcDbPolyline
 62
7
  6
CONTINUOUS
 90
3
 70
0
 10
75.0399287011
 20
87.9932000834
 10
75.0871984327
 20
88.0000489316
 10
75.177095328
 20
88.0264159033
  0
LINE
  5
2AC
100
AcDbEntity
  8
RUNDUNGEN
100
AcDbLine
 62
7
  6
CONTINUOUS
 10
71.6808725124
 20
87.669761586
 11
75.0399285272
 21
87.9932018925
  0
LINE
  5
2AD
100
AcDbEntity
  8
RUNDUNGEN
100
AcDbLine
 62
7
  6
CONTINUOUS
 10
72.1152927024
 20
87.8272271216
 11
71.6698403533
 21
87.7843349389
  0
LINE
  5
2AE
100
AcDbEntity
  8
0
100
AcDbLine
 62
7
  6
CONTINUOUS
 10
87.893175073
 20
91.7499445721
 11
87.801186949
 21
91.7440098568
  0
LINE
  5
2AF
100
AcDbEntity
  8
0
100
AcDbLine
 62
7
  6
CONTINUOUS
 10
87.3531157374
 20
91.7440098568
 11
87.1394658685
 21
91.7440098568
  0
LINE
  5
2B0
100
AcDbEntity
  8
0
100
AcDbLine
 62
7
  6
CONTINUOUS
 10
130.4
 20
91.9281092181
 11
130.15
 21
91.9281092181
  0
LINE
  5
2B1
100
AcDbEntity
  8
0
100
AcDbLine
 62
7
  6
CONTINUOUS
 10
86.9821958542
 20
92.1950482174
 11
87.7893175036
 21
92.1950482174
  0
LINE
  5
2B2
100
AcDbEntity
  8
0
100
AcDbLine
 62
7
  6
CONTINUOUS
 10
130.4
 20
92.4281092181
 11
130.15
 21
92.4281092181
  0
LINE
  5
2B3
100
AcDbEntity
  8
0
100
AcDbLine
 62
7
  6
CONTINUOUS
 10
87.6884272993
 20
92.5570663258
 11
85.8931751251
 21
92.5570663258
  0
LINE
  5
2B4
100
AcDbEntity
  8
0
100
AcDbLine
 62
7
  6
CONTINUOUS
 10
130.4
 20
92.9281092181
 11
130.15
 21
92.9281092181
  0
LINE
  5
2B5
100
AcDbEntity
  8
0
100
AcDbLine
 62
7
  6
CONTINUOUS
 10
85.8931751251
 20
93.0081046864
 11
88.0
 21
93.0081046864
  0
LINE
  5
2B6
100
AcDbEntity
  8
0
100
AcDbLine
 62
7
  6
CONTINUOUS
 10
88.0
 20
93.3701223179
 11
86.548961401
 21
93.3701223179
  0
LINE
  5
2B7
100
AcDbEntity
  8
0
100
AcDbLine
 62
7
  6
CONTINUOUS
 10
86.3442136049
 20
93.3701223179
 11
86.2047477961
 21
93.3701223179
  0
LINE
  5
2B8
100
AcDbEntity
  8
0
100
AcDbLine
 62
7
  6
CONTINUOUS
 10
130.4
 20
93.5947758451
 11
130.15
 21
93.5947758451
  0
LINE
  5
2B9
100
AcDbEntity
  8
0
100
AcDbLine
 62
7
  6
CONTINUOUS
 10
85.8931751251
 20
93.8211611554
 11
86.3442136049
 21
93.8211611554
  0
LINE
  5
2BA
100
AcDbEntity
  8
0
100
AcDbLine
 62
7
  6
CONTINUOUS
 10
86.548961401
 20
93.8211611554
 11
88.0
 21
93.8211611554
  0
LINE
  5
2BB
100
AcDbEntity
  8
0
100
AcDbLine
 62
7
  6
CONTINUOUS
 10
130.4
 20
94.011442472
 11
130.15
 21
94.011442472
  0
LWPOLYLINE
  5
2BC
100
AcDbEntity
  8
RUNDUNGEN
100
AcDbPolyline
 62
7
  6
CONTINUOUS
 90
7
 70
0
 10
142.8137721308
 20
88.9046269243
 10
143.1762955155
 20
88.8801904696
 10
143.5310385003
 20
88.8070643261
 10
143.8646602971
 20
88.6873231053
 10
144.1544231263
 20
88.5332689487
 10
144.3858398936
 20
88.3663562923
 10
144.4232521194
 20
88.3348212523
  0
LINE
  5
2BD
100
AcDbEntity
  8
0
100
AcDbLine
 62
7
  6
CONTINUOUS
 10
86.7210682631
 20
91.8003896519
 11
86.548961401
 21
91.8152264401
  0
LINE
  5
2BE
100
AcDbEntity
  8
RUNDUNGEN
100
AcDbLine
 62
7
  6
CONTINUOUS
 10
144.9600714726
 20
87.9932018925
 11
148.3191274876
 21
87.669761586
  0
LINE
  5
2BF
100
AcDbEntity
  8
RUNDUNGEN
100
AcDbLine
 62
7
  6
CONTINUOUS
 10
148.3301596467
 20
87.7843349389
 11
147.8847072976
 21
87.8272271216
  0
LWPOLYLINE
  5
2C0
100
AcDbEntity
  8
RUNDUNGEN
100
AcDbPolyline
 62
7
  6
CONTINUOUS
 90
3
 70
0
 10
143.6740073914
 20
84.490473657
 10
143.5809939527
 20
84.5049927531
 10
143.5091769261
 20
84.5041969324
  0
LINE
  5
2C1
100
AcDbEntity
  8
0
100
AcDbLine
 62
7
  6
CONTINUOUS
 10
88.5103857517
 20
95.963593845
 11
88.1661721021
 21
96.0526155278
  0
LINE
  5
2C2
100
AcDbEntity
  8
RUNDUNGEN
100
AcDbLine
 62
7
  6
CONTINUOUS
 10
73.2878527868
 20
112.0489005697
 11
76.1954996299
 21
110.3361656872
  0
LINE
  5
2C3
100
AcDbEntity
  8
RUNDUNGEN
100
AcDbLine
 62
7
  6
CONTINUOUS
 10
73.7318620227
 20
111.9209470831
 11
73.3462721097
 21
112.1480768998
  0
LINE
  5
2C4
100
AcDbEntity
  8
0
100
AcDbLine
 62
7
  6
CONTINUOUS
 10
86.548961401
 20
107.628282909
 11
87.1364985108
 21
107.1089957997
  0
LWPOLYLINE
  5
2C5
100
AcDbEntity
  8
RUNDUNGEN
100
AcDbPolyline
 62
7
  6
CONTINUOUS
 90
9
 70
0
 10
128.9588990292
 20
67.6523056485
 10
128.7315293274
 20
67.8747674417
 10
128.5275148041
 20
68.1380094027
 10
128.3577876555
 20
68.4296542892
 10
128.2249117208
 20
68.7441700504
 10
128.1330001182
 20
69.0718623789
 10
128.0852481069
 20
69.4006843335
 10
128.0821298265
 20
69.7207606401
 10
128.1221969572
 20
70.0233796957
  0
LINE
  5
2C6
100
AcDbEntity
  8
RUNDUNGEN
100
AcDbLine
 62
7
  6
CONTINUOUS
 10
111.7803354501
 20
64.1732933195
 11
111.9438948707
 21
63.8824172481
  0
LINE
  5
2C7
100
AcDbEntity
  8
RUNDUNGEN
100
AcDbLine
 62
7
  6
CONTINUOUS
 10
108.1031591974
 20
61.5364878665
 11
107.9712449345
 21
61.8508843376
  0
LINE
  5
2C8
100
AcDbEntity
  8
RUNDUNGEN
100
AcDbLine
 62
7
  6
CONTINUOUS
 10
107.971241908
 20
61.8508830678
 11
107.8778509945
 21
62.1212732992
  0
LINE
  5
2C9
100
AcDbEntity
  8
RUNDUNGEN
100
AcDbLine
 62
7
  6
CONTINUOUS
 10
82.4952367108
 20
125.706979066
 11
82.3136216669
 21
126.3211221334
  0
LWPOLYLINE
  5
2CA
100
AcDbEntity
  8
RUNDUNGEN
100
AcDbPolyline
 62
7
  6
CONTINUOUS
 90
3
 70
0
 10
87.3933505586
 20
125.2747307896
 10
87.3790913054
 20
125.3238791678
 10
87.3400450841
 20
125.4095428132
  0
LINE
  5
2CB
100
AcDbEntity
  8
RUNDUNGEN
100
AcDbLine
 62
7
  6
CONTINUOUS
 10
87.4910948811
 20
124.8655693353
 11
87.4714283489
 21
124.9428416911
  0
LINE
  5
2CC
100
AcDbEntity
  8
RUNDUNGEN
100
AcDbLine
 62
7
  6
CONTINUOUS
 10
87.4714255319
 20
124.9428410268
 11
87.3933488025
 21
125.2747303767
  0
LINE
  5
2CD
100
AcDbEntity
  8
RUNDUNGEN
100
AcDbLine
 62
7
  6
CONTINUOUS
 10
87.400229123
 20
69.8696176075
 11
87.4431950857
 21
70.103376156
  0
LINE
  5
2CE
100
AcDbEntity
  8
RUNDUNGEN
100
AcDbLine
 62
7
  6
CONTINUOUS
 10
82.1964414151
 20
68.4633003959
 11
82.1887305753
 21
68.4296921798
  0
LINE
  5
2CF
100
AcDbEntity
  8
RUNDUNGEN
100
AcDbLine
 62
7
  6
CONTINUOUS
 10
82.3136216669
 20
68.4517632874
 11
82.4952367108
 21
69.0659063548
  0
LINE
  5
2D0
100
AcDbEntity
  8
RUNDUNGEN
100
AcDbLine
 62
7
  6
CONTINUOUS
 10
104.3945726796
 20
136.4651321411
 11
104.6086272605
 21
137.068734964
  0
LINE
  5
2D1
100
AcDbEntity
  8
RUNDUNGEN
100
AcDbLine
 62
7
  6
CONTINUOUS
 10
104.5205613214
 20
137.1600000116
 11
104.4104251383
 21
136.9247931505
  0
LINE
  5
2D2
100
AcDbEntity
  8
RUNDUNGEN
100
AcDbLine
 62
7
  6
CONTINUOUS
 10
104.4104251383
 20
136.9247931505
 11
104.2896929804
 21
136.7122700337
  0
LINE
  5
2D3
100
AcDbEntity
  8
RUNDUNGEN
100
AcDbLine
 62
7
  6
CONTINUOUS
 10
70.9960364865
 20
90.8729289304
 11
70.8465065531
 21
90.6794011243
  0
LINE
  5
2D4
100
AcDbEntity
  8
RUNDUNGEN
100
AcDbLine
 62
7
  6
CONTINUOUS
 10
70.8465065531
 20
90.6794011243
 11
70.6827773796
 21
90.4979524273
  0
LINE
  5
2D5
100
AcDbEntity
  8
RUNDUNGEN
100
AcDbLine
 62
7
  6
CONTINUOUS
 10
74.8045061168
 20
115.1116720192
 11
77.5446386923
 21
116.2850525686
  0
LINE
  5
2D6
100
AcDbEntity
  8
RUNDUNGEN
100
AcDbLine
 62
7
  6
CONTINUOUS
 10
74.812941914
 20
115.1157570441
 11
74.6165833291
 21
115.0428539035
  0
LINE
  5
2D7
100
AcDbEntity
  8
0
100
AcDbLine
 62
7
  6
CONTINUOUS
 10
87.6320474744
 20
90.4235349938
 11
87.9376854599
 21
90.4828821465
  0
LINE
  5
2D8
100
AcDbEntity
  8
0
100
AcDbLine
 62
7
  6
CONTINUOUS
 10
86.548961401
 20
94.5630010411
 11
86.7507418394
 21
94.5926746174
  0
LINE
  5
2D9
100
AcDbEntity
  8
0
100
AcDbLine
 62
7
  6
CONTINUOUS
 10
87.893175073
 20
96.8508342549
 11
87.801186949
 21
96.8448995396
  0
LINE
  5
2DA
100
AcDbEntity
  8
0
100
AcDbLine
 62
7
  6
CONTINUOUS
 10
88.0
 20
94.1831787869
 11
87.0118694305
 21
94.1831787869
  0
LINE
  5
2DB
100
AcDbEntity
  8
0
100
AcDbLine
 62
7
  6
CONTINUOUS
 10
87.1632047296
 20
94.6342176243
 11
88.0
 21
94.6342176243
  0
LINE
  5
2DC
100
AcDbEntity
  8
0
100
AcDbLine
 62
7
  6
CONTINUOUS
 10
130.4
 20
94.6781092181
 11
130.15
 21
94.6781092181
  0
LINE
  5
2DD
100
AcDbEntity
  8
0
100
AcDbLine
 62
7
  6
CONTINUOUS
 10
130.4
 20
94.8447759643
 11
130.15
 21
94.8447759643
  0
LINE
  5
2DE
100
AcDbEntity
  8
0
100
AcDbLine
 62
7
  6
CONTINUOUS
 10
130.4
 20
95.0947759643
 11
130.15
 21
95.0947759643
  0
LINE
  5
2DF
100
AcDbEntity
  8
0
100
AcDbLine
 62
7
  6
CONTINUOUS
 10
87.6884272993
 20
95.108994846
 11
87.1958457232
 21
95.108994846
  0
LINE
  5
2E0
100
AcDbEntity
  8
0
100
AcDbLine
 62
7
  6
CONTINUOUS
 10
130.4
 20
95.511442472
 11
130.15
 21
95.511442472
  0
LINE
  5
2E1
100
AcDbEntity
  8
0
100
AcDbLine
 62
7
  6
CONTINUOUS
 10
87.1424332261
 20
95.5600332066
 11
88.0
 21
95.5600332066
  0
LINE
  5
2E2
100
AcDbEntity
  8
0
100
AcDbLine
 62
7
  6
CONTINUOUS
 10
130.4
 20
95.9281092181
 11
130.15
 21
95.9281092181
  0
LINE
  5
2E3
100
AcDbEntity
  8
0
100
AcDbLine
 62
7
  6
CONTINUOUS
 10
130.4
 20
96.4281092181
 11
130.15
 21
96.4281092181
  0
LINE
  5
2E4
100
AcDbEntity
  8
0
100
AcDbLine
 62
7
  6
CONTINUOUS
 10
130.4
 20
96.8447757259
 11
130.15
 21
96.8447757259
  0
LINE
  5
2E5
100
AcDbEntity
  8
0
100
AcDbLine
 62
7
  6
CONTINUOUS
 10
87.3531157374
 20
96.8448995396
 11
87.1394658685
 21
96.8448995396
  0
LINE
  5
2E6
100
AcDbEntity
  8
0
100
AcDbLine
 62
7
  6
CONTINUOUS
 10
130.4
 20
97.2614427104
 11
130.15
 21
97.2614427104
  0
LINE
  5
2E7
100
AcDbEntity
  8
0
100
AcDbLine
 62
7
  6
CONTINUOUS
 10
86.9821958542
 20
97.2959388539
 11
87.7893175036
 21
97.2959388539
  0
LINE
  5
2E8
100
AcDbEntity
  8
DEFAULT_1
100
AcDbLine
 62
7
  6
CENTER
 10
110.0
 20
97.3864427104
 11
69.5156565172
 21
97.3864427104
  0
LINE
  5
2E9
100
AcDbEntity
  8
DEFAULT_1
100
AcDbLine
 62
7
  6
CENTER
 10
110.0
 20
97.3864427104
 11
150.4843434828
 21
97.3864427104
  0
LINE
  5
2EA
100
AcDbEntity
  8
0
100
AcDbLine
 62
7
  6
CONTINUOUS
 10
130.4
 20
97.5114427104
 11
130.15
 21
97.5114427104
  0
LINE
  5
2EB
100
AcDbEntity
  8
0
100
AcDbLine
 62
7
  6
CONTINUOUS
 10
130.4
 20
97.6781092181
 11
130.15
 21
97.6781092181
  0
LINE
  5
2EC
100
AcDbEntity
  8
0
100
AcDbLine
 62
7
  6
CONTINUOUS
 10
88.2759643793
 20
98.2514280125
 11
87.0356082916
 21
98.2514280125
  0
LINE
  5
2ED
100
AcDbEntity
  8
0
100
AcDbLine
 62
7
  6
CONTINUOUS
 10
130.4
 20
98.3447757259
 11
130.15
 21
98.3447757259
  0
LINE
  5
2EE
100
AcDbEntity
  8
0
100
AcDbLine
 62
7
  6
CONTINUOUS
 10
86.7210682631
 20
96.9012798115
 11
86.548961401
 21
96.9161161229
  0
LWPOLYLINE
  5
2EF
100
AcDbEntity
  8
RUNDUNGEN
100
AcDbPolyline
 62
7
  6
CONTINUOUS
 90
3
 70
0
 10
75.1961463949
 20
106.7384196215
 10
75.1071475771
 20
106.7685400863
 10
75.039928749
 20
106.7796858298
  0
LWPOLYLINE
  5
2F0
100
AcDbEntity
  8
RUNDUNGEN
100
AcDbPolyline
 62
7
  6
CONTINUOUS
 90
3
 70
0
 10
76.1954987073
 20
110.3361641214
 10
76.2377663755
 20
110.313920505
 10
76.3259926086
 20
110.2824117638
  0
LINE
  5
2F1
100
AcDbEntity
  8
0
100
AcDbLine
 62
7
  6
CONTINUOUS
 10
86.9881305695
 20
106.7914871022
 11
86.548961401
 21
107.0852569386
  0
LINE
  5
2F2
100
AcDbEntity
  8
0
100
AcDbLine
 62
7
  6
CONTINUOUS
 10
87.4035608172
 20
106.7944549366
 11
87.5489614308
 21
106.6816943928
  0
LINE
  5
2F3
100
AcDbEntity
  8
RUNDUNGEN
100
AcDbLine
 62
7
  6
CONTINUOUS
 10
132.7620835219
 20
69.2381368258
 11
135.2895034809
 21
67.0020645339
  0
LINE
  5
2F4
100
AcDbEntity
  8
RUNDUNGEN
100
AcDbLine
 62
7
  6
CONTINUOUS
 10
135.3657732122
 20
67.0882717831
 11
135.0306060841
 21
67.3848026092
  0
LWPOLYLINE
  5
2F5
100
AcDbEntity
  8
RUNDUNGEN
100
AcDbPolyline
 62
7
  6
CONTINUOUS
 90
3
 70
0
 10
129.6627838248
 20
67.160299657
 10
129.5960684827
 20
67.2267177801
 10
129.537499516
 20
67.2682869367
  0
LINE
  5
2F6
100
AcDbEntity
  8
RUNDUNGEN
100
AcDbLine
 62
7
  6
CONTINUOUS
 10
87.6639874654
 20
124.4244374502
 11
87.5892844781
 21
124.5830409878
  0
LINE
  5
2F7
100
AcDbEntity
  8
RUNDUNGEN
100
AcDbLine
 62
7
  6
CONTINUOUS
 10
111.9438948707
 20
63.8824172481
 11
112.0729832115
 21
63.5588443108
  0
LINE
  5
2F8
100
AcDbEntity
  8
RUNDUNGEN
100
AcDbLine
 62
7
  6
CONTINUOUS
 10
87.5892844781
 20
124.5830409878
 11
87.4910948811
 21
124.8655693353
  0
LINE
  5
2F9
100
AcDbEntity
  8
RUNDUNGEN
100
AcDbLine
 62
7
  6
CONTINUOUS
 10
87.3933488025
 20
69.4981550439
 11
87.471425531
 21
69.83004439
  0
LINE
  5
2FA
100
AcDbEntity
  8
0
100
AcDbLine
 62
7
  6
CONTINUOUS
 10
101.4374996871
 20
121.0885704055
 11
101.3958330154
 21
120.9183576598
  0
LINE
  5
2FB
100
AcDbEntity
  8
RUNDUNGEN
100
AcDbLine
 62
7
  6
CONTINUOUS
 10
87.4714285168
 20
69.8300436876
 11
87.485401124
 21
69.8861034831
  0
LINE
  5
2FC
100
AcDbEntity
  8
RUNDUNGEN
100
AcDbLine
 62
7
  6
CONTINUOUS
 10
87.3719152434
 20
69.4296065007
 11
87.3933510701
 21
69.4981545104
  0
LINE
  5
2FD
100
AcDbEntity
  8
0
100
AcDbLine
 62
7
  6
CONTINUOUS
 10
101.6458330154
 20
120.8758043542
 11
101.6874996722
 21
121.0034640327
  0
LWPOLYLINE
  5
2FE
100
AcDbEntity
  8
RUNDUNGEN
100
AcDbPolyline
 62
7
  6
CONTINUOUS
 90
3
 70
0
 10
108.1031608607
 20
133.2363968559
 10
108.1205135805
 20
133.2845401283
 10
108.1392763478
 20
133.3767942702
  0
LINE
  5
2FF
100
AcDbEntity
  8
RUNDUNGEN
100
AcDbLine
 62
7
  6
CONTINUOUS
 10
107.9499128106
 20
132.8692929781
 11
107.9712367944
 21
132.9220044945
  0
LINE
  5
300
100
AcDbEntity
  8
RUNDUNGEN
100
AcDbLine
 62
7
  6
CONTINUOUS
 10
107.971244933
 20
132.9220010797
 11
108.1031591973
 21
133.2363975541
  0
LINE
  5
301
100
AcDbEntity
  8
0
100
AcDbLine
 62
7
  6
CONTINUOUS
 10
102.7291663885
 20
119.6843150451
 11
102.8124996424
 21
119.8545278206
  0
LINE
  5
302
100
AcDbEntity
  8
0
100
AcDbLine
 62
7
  6
CONTINUOUS
 10
104.1458330154
 20
121.0885704055
 11
104.0624997616
 21
120.9183576598
  0
LINE
  5
303
100
AcDbEntity
  8
RUNDUNGEN
100
AcDbLine
 62
7
  6
CONTINUOUS
 10
107.7636517989
 20
132.6747818747
 11
107.8953205825
 21
132.9422066453
  0
LINE
  5
304
100
AcDbEntity
  8
0
100
AcDbLine
 62
7
  6
CONTINUOUS
 10
102.5624996424
 20
119.897081007
 11
102.4791663885
 21
119.7694214478
  0
LINE
  5
305
100
AcDbEntity
  8
0
100
AcDbLine
 62
7
  6
CONTINUOUS
 10
104.2291662693
 20
120.7906979814
 11
104.3958330154
 21
121.0460172191
  0
LINE
  5
306
100
AcDbEntity
  8
0
100
AcDbLine
 62
7
  6
CONTINUOUS
 10
103.3958330154
 20
121.3864427104
 11
103.1458330154
 21
121.0885704055
  0
LINE
  5
307
100
AcDbEntity
  8
0
100
AcDbLine
 62
7
  6
CONTINUOUS
 10
103.1458330154
 20
120.748144795
 11
103.3958330154
 21
121.0460172191
  0
LINE
  5
308
100
AcDbEntity
  8
0
100
AcDbLine
 62
7
  6
CONTINUOUS
 10
101.4374996871
 20
121.0885704055
 11
101.6041663587
 21
121.2587831512
  0
LINE
  5
309
100
AcDbEntity
  8
0
100
AcDbLine
 62
7
  6
CONTINUOUS
 10
102.5624996424
 20
119.5141022846
 11
102.7291663885
 21
119.6843150451
  0
LINE
  5
30A
100
AcDbEntity
  8
0
100
AcDbLine
 62
7
  6
CONTINUOUS
 10
104.2708330154
 20
121.2162299647
 11
104.1458330154
 21
121.0885704055
  0
LINE
  5
30B
100
AcDbEntity
  8
0
100
AcDbLine
 62
7
  6
CONTINUOUS
 10
105.1874997616
 20
119.556655471
 11
105.3124995232
 21
119.6843150451
  0
LINE
  5
30C
100
AcDbEntity
  8
0
100
AcDbLine
 62
7
  6
CONTINUOUS
 10
100.4
 20
117.7864427104
 11
99.2
 21
116.5864427104
  0
LINE
  5
30D
100
AcDbEntity
  8
0
100
AcDbLine
 62
7
  6
CONTINUOUS
 10
90.8
 20
108.1864427104
 11
89.6
 21
106.9864427104
  0
LINE
  5
30E
100
AcDbEntity
  8
RUNDUNGEN
100
AcDbLine
 62
7
  6
CONTINUOUS
 10
70.6827773796
 20
90.4979524273
 11
70.5058518301
 21
90.3296505056
  0
LINE
  5
30F
100
AcDbEntity
  8
RUNDUNGEN
100
AcDbLine
 62
7
  6
CONTINUOUS
 10
70.5058518301
 20
90.3296505056
 11
70.4798594849
 21
90.3069934436
  0
LINE
  5
310
100
AcDbEntity
  8
0
100
AcDbLine
 62
7
  6
CONTINUOUS
 10
87.1364985108
 20
107.1089957997
 11
88.0
 21
107.7024673268
  0
LINE
  5
311
100
AcDbEntity
  8
0
100
AcDbLine
 62
7
  6
CONTINUOUS
 10
101.6874996722
 20
121.0034640327
 11
101.812499702
 21
121.0885704055
  0
LINE
  5
312
100
AcDbEntity
  8
0
100
AcDbLine
 62
7
  6
CONTINUOUS
 10
102.4791663885
 20
119.7694214478
 11
102.3541663885
 21
119.6843150451
  0
LINE
  5
313
100
AcDbEntity
  8
0
100
AcDbLine
 62
7
  6
CONTINUOUS
 10
104.3958330154
 20
121.0460172191
 11
104.5208330154
 21
121.1311235919
  0
LINE
  5
314
100
AcDbEntity
  8
0
100
AcDbLine
 62
7
  6
CONTINUOUS
 10
105.0624997616
 20
119.7268682315
 11
104.9374997616
 21
119.6417618587
  0
LINE
  5
315
100
AcDbEntity
  8
0
100
AcDbLine
 62
7
  6
CONTINUOUS
 10
104.4791662693
 20
121.343889524
 11
104.2708330154
 21
121.2162299647
  0
LINE
  5
316
100
AcDbEntity
  8
0
100
AcDbLine
 62
7
  6
CONTINUOUS
 10
104.9791662693
 20
119.4289959006
 11
105.1874997616
 21
119.556655471
  0
LINE
  5
317
100
AcDbEntity
  8
RUNDUNGEN
100
AcDbLine
 62
7
  6
CONTINUOUS
 10
128.9453514022
 20
132.78465974
 11
128.7179982342
 21
132.6591098163
  0
LINE
  5
318
100
AcDbEntity
  8
0
100
AcDbLine
 62
7
  6
CONTINUOUS
 10
101.6041663587
 20
121.2587831512
 11
101.7708330154
 21
121.343889524
  0
LINE
  5
319
100
AcDbEntity
  8
0
100
AcDbLine
 62
7
  6
CONTINUOUS
 10
102.3958330154
 20
119.4289959006
 11
102.5624996424
 21
119.5141022846
  0
LINE
  5
31A
100
AcDbEntity
  8
RUNDUNGEN
100
AcDbLine
 62
7
  6
CONTINUOUS
 10
128.7179982342
 20
132.6591098163
 11
128.4954059129
 21
132.558139585
  0
LINE
  5
31B
100
AcDbEntity
  8
RUNDUNGEN
100
AcDbLine
 62
7
  6
CONTINUOUS
 10
128.4954059129
 20
132.558139585
 11
128.2656027208
 21
132.4743634961
  0
LINE
  5
31C
100
AcDbEntity
  8
0
100
AcDbLine
 62
7
  6
CONTINUOUS
 10
101.812499702
 20
121.0885704055
 11
101.937499702
 21
121.1311235919
  0
LINE
  5
31D
100
AcDbEntity
  8
RUNDUNGEN
100
AcDbLine
 62
7
  6
CONTINUOUS
 10
74.6165833291
 20
115.0428539035
 11
74.3818582815
 21
114.9741781091
  0
LWPOLYLINE
  5
31E
100
AcDbEntity
  8
RUNDUNGEN
100
AcDbPolyline
 62
7
  6
CONTINUOUS
 90
3
 70
0
 10
144.9600712989
 20
106.7796853375
 10
144.9128015673
 20
106.7728364892
 10
144.822904672
 20
106.7464695175
  0
LINE
  5
31F
100
AcDbEntity
  8
0
100
AcDbLine
 62
7
  6
CONTINUOUS
 10
86.548961401
 20
98.6312497898
 11
86.7507418394
 21
98.6579564854
  0
LINE
  5
320
100
AcDbEntity
  8
0
100
AcDbLine
 62
7
  6
CONTINUOUS
 10
86.548961401
 20
100.4027637288
 11
86.818991065
 21
100.4324373051
  0
LINE
  5
321
100
AcDbEntity
  8
0
100
AcDbLine
 62
7
  6
CONTINUOUS
 10
87.1780415177
 20
98.7024663731
 11
87.3768545985
 21
98.7024663731
  0
LINE
  5
322
100
AcDbEntity
  8
0
100
AcDbLine
 62
7
  6
CONTINUOUS
 10
87.8664688468
 20
98.7024663731
 11
88.5875371099
 21
98.7024663731
  0
LINE
  5
323
100
AcDbEntity
  8
0
100
AcDbLine
 62
7
  6
CONTINUOUS
 10
130.4
 20
98.8447757259
 11
130.15
 21
98.8447757259
  0
LINE
  5
324
100
AcDbEntity
  8
0
100
AcDbLine
 62
7
  6
CONTINUOUS
 10
130.4
 20
99.5114427104
 11
130.15
 21
99.5114427104
  0
LINE
  5
325
100
AcDbEntity
  8
0
100
AcDbLine
 62
7
  6
CONTINUOUS
 10
130.4
 20
100.0114422336
 11
130.15
 21
100.0114422336
  0
LINE
  5
326
100
AcDbEntity
  8
0
100
AcDbLine
 62
7
  6
CONTINUOUS
 10
88.0
 20
100.0259088322
 11
87.0267062187
 21
100.0259088322
  0
LINE
  5
327
100
AcDbEntity
  8
0
100
AcDbLine
 62
7
  6
CONTINUOUS
 10
87.2670623064
 20
100.4769471928
 11
88.0
 21
100.4769471928
  0
LINE
  5
328
100
AcDbEntity
  8
0
100
AcDbLine
 62
7
  6
CONTINUOUS
 10
86.5252225399
 20
100.9190839573
 11
86.9495549202
 21
100.9190839573
  0
LINE
  5
329
100
AcDbEntity
  8
0
100
AcDbLine
 62
7
  6
CONTINUOUS
 10
130.4
 20
102.0947762027
 11
130.15
 21
102.0947762027
  0
LINE
  5
32A
100
AcDbEntity
  8
0
100
AcDbLine
 62
7
  6
CONTINUOUS
 10
130.4
 20
102.8447762027
 11
130.15
 21
102.8447762027
  0
LINE
  5
32B
100
AcDbEntity
  8
0
100
AcDbLine
 62
7
  6
CONTINUOUS
 10
87.6884272993
 20
102.8656715199
 11
85.8931751251
 21
102.8656715199
  0
LINE
  5
32C
100
AcDbEntity
  8
0
100
AcDbLine
 62
7
  6
CONTINUOUS
 10
85.8931751251
 20
103.3167098805
 11
88.0
 21
103.3167098805
  0
LWPOLYLINE
  5
32D
100
AcDbEntity
  8
RUNDUNGEN
100
AcDbPolyline
 62
7
  6
CONTINUOUS
 90
5
 70
0
 10
77.1512945385
 20
105.8680984707
 10
76.7874848719
 20
105.8976716325
 10
76.4344707182
 20
105.9756877836
 10
76.1054862054
 20
106.0990713319
 10
75.8230929966
 20
106.2539351021
  0
LWPOLYLINE
  5
32E
100
AcDbEntity
  8
RUNDUNGEN
100
AcDbPolyline
 62
7
  6
CONTINUOUS
 90
3
 70
0
 10
144.8038536051
 20
88.0344657993
 10
144.8928524229
 20
88.0043453345
 10
144.960071251
 20
87.9931995911
  0
LWPOLYLINE
  5
32F
100
AcDbEntity
  8
RUNDUNGEN
100
AcDbPolyline
 62
7
  6
CONTINUOUS
 90
3
 70
0
 10
87.3400450841
 20
125.4095428132
 10
87.2857478965
 20
125.4862229767
 10
87.2379180101
 20
125.5347503267
  0
LWPOLYLINE
  5
330
100
AcDbEntity
  8
RUNDUNGEN
100
AcDbPolyline
 62
7
  6
CONTINUOUS
 90
3
 70
0
 10
90.2632392345
 20
127.7327747253
 10
90.2843600267
 20
127.6899349496
 10
90.3372161752
 20
127.6125857638
  0
LINE
  5
331
100
AcDbEntity
  8
RUNDUNGEN
100
AcDbLine
 62
7
  6
CONTINUOUS
 10
88.9176254966
 20
130.8274790098
 11
90.2632409013
 21
127.7327754498
  0
LINE
  5
332
100
AcDbEntity
  8
RUNDUNGEN
100
AcDbLine
 62
7
  6
CONTINUOUS
 10
89.2016273417
 20
130.4629803839
 11
89.0231821058
 21
130.8733763298
  0
LWPOLYLINE
  5
333
100
AcDbEntity
  8
RUNDUNGEN
100
AcDbPolyline
 62
7
  6
CONTINUOUS
 90
5
 70
0
 10
112.0729832115
 20
63.5588443108
 10
112.1619775572
 20
63.2061592951
 10
112.2021717292
 20
62.8457938204
 10
112.1914069941
 20
62.4911201196
 10
112.1343848453
 20
62.1677022671
  0
LINE
  5
334
100
AcDbEntity
  8
RUNDUNGEN
100
AcDbLine
 62
7
  6
CONTINUOUS
 10
111.8697533206
 20
61.2347678813
 11
112.6001487031
 21
57.9401672182
  0
LINE
  5
335
100
AcDbEntity
  8
RUNDUNGEN
100
AcDbLine
 62
7
  6
CONTINUOUS
 10
112.7125235617
 20
57.9650801246
 11
112.6156641055
 21
58.4019848972
  0
LWPOLYLINE
  5
336
100
AcDbEntity
  8
RUNDUNGEN
100
AcDbPolyline
 62
7
  6
CONTINUOUS
 90
21
 70
0
 10
107.8778509945
 20
62.1212732992
 10
107.8152997129
 20
62.4335546836
 10
107.795899449
 20
62.7800551471
 10
107.8260322065
 20
63.1361621371
 10
107.90491261
 20
63.4892293139
 10
108.0255103393
 20
63.817932347
 10
108.1820052193
 20
64.1159775728
 10
108.3674159055
 20
64.3763598863
 10
108.5774640993
 20
64.5973477167
 10
108.811555207
 20
64.7793529893
 10
109.059848779
 20
64.9154718466
 10
109.3467930277
 20
65.0175430272
 10
109.6596917757
 20
65.0838209332
 10
109.9663585989
 20
65.1077229202
 10
110.2734722072
 20
65.0924013625
 10
110.5864082372
 20
65.0354004159
 10
110.8841851175
 20
64.9392479273
 10
111.1351837968
 20
64.812139715
 10
111.3730908075
 20
64.6392866367
 10
111.5885415811
 20
64.4263598376
 10
111.7803354501
 20
64.1732933195
  0
LWPOLYLINE
  5
337
100
AcDbEntity
  8
RUNDUNGEN
100
AcDbPolyline
 62
7
  6
CONTINUOUS
 90
3
 70
0
 10
108.1410451505
 20
61.3754849546
 10
108.1261108982
 20
61.4684326391
 10
108.103161346
 20
61.5364887681
  0
LINE
  5
338
100
AcDbEntity
  8
0
100
AcDbLine
 62
7
  6
CONTINUOUS
 10
101.3958330154
 20
120.9183576598
 11
101.3958330154
 21
120.748144795
  0
LINE
  5
339
100
AcDbEntity
  8
0
100
AcDbLine
 62
7
  6
CONTINUOUS
 10
101.6458330154
 20
120.7906979814
 11
101.6458330154
 21
120.8758043542
  0
LINE
  5
33A
100
AcDbEntity
  8
0
100
AcDbLine
 62
7
  6
CONTINUOUS
 10
102.5624996424
 20
120.0247405663
 11
102.5624996424
 21
119.897081007
  0
LINE
  5
33B
100
AcDbEntity
  8
0
100
AcDbLine
 62
7
  6
CONTINUOUS
 10
102.8124996424
 20
119.8545278206
 11
102.8124996424
 21
120.0672937527
  0
LINE
  5
33C
100
AcDbEntity
  8
0
100
AcDbLine
 62
7
  6
CONTINUOUS
 10
103.1458330154
 20
121.0885704055
 11
103.1458330154
 21
120.748144795
  0
LINE
  5
33D
100
AcDbEntity
  8
0
100
AcDbLine
 62
7
  6
CONTINUOUS
 10
103.3958330154
 20
121.0460172191
 11
103.3958330154
 21
119.3864427104
  0
LINE
  5
33E
100
AcDbEntity
  8
0
100
AcDbLine
 62
7
  6
CONTINUOUS
 10
103.6458330154
 20
119.3864427104
 11
103.6458330154
 21
121.3864427104
  0
LINE
  5
33F
100
AcDbEntity
  8
0
100
AcDbLine
 62
7
  6
CONTINUOUS
 10
103.9791662693
 20
120.1949533715
 11
103.9791662693
 21
120.5779320493
  0
LINE
  5
340
100
AcDbEntity
  8
0
100
AcDbLine
 62
7
  6
CONTINUOUS
 10
104.1874997616
 20
120.237506558
 11
104.1874997616
 21
120.5353788629
  0
LINE
  5
341
100
AcDbEntity
  8
0
100
AcDbLine
 62
7
  6
CONTINUOUS
 10
105.2708330154
 20
120.5353788629
 11
105.2708330154
 21
120.237506558
  0
LINE
  5
342
100
AcDbEntity
  8
0
100
AcDbLine
 62
7
  6
CONTINUOUS
 10
105.4791665077
 20
120.1949533715
 11
105.4791665077
 21
120.5779320493
  0
LINE
  5
343
100
AcDbEntity
  8
0
100
AcDbLine
 62
7
  6
CONTINUOUS
 10
105.8124995232
 20
120.3226129308
 11
105.8124995232
 21
120.1098469391
  0
LINE
  5
344
100
AcDbEntity
  8
0
100
AcDbLine
 62
7
  6
CONTINUOUS
 10
104.1874997616
 20
120.5353788629
 11
104.2291662693
 21
120.7906979814
  0
LINE
  5
345
100
AcDbEntity
  8
0
100
AcDbLine
 62
7
  6
CONTINUOUS
 10
105.2708330154
 20
120.237506558
 11
105.2291662693
 21
119.9821873799
  0
LINE
  5
346
100
AcDbEntity
  8
0
100
AcDbLine
 62
7
  6
CONTINUOUS
 10
104.0208330154
 20
120.7906979814
 11
103.9791662693
 21
120.5779320493
  0
LINE
  5
347
100
AcDbEntity
  8
0
100
AcDbLine
 62
7
  6
CONTINUOUS
 10
105.4374995232
 20
119.9821873799
 11
105.4791665077
 21
120.1949533715
  0
LINE
  5
348
100
AcDbEntity
  8
RUNDUNGEN
100
AcDbLine
 62
7
  6
CONTINUOUS
 10
107.862161898
 20
132.5913162519
 11
107.9499128106
 21
132.8692929781
  0
LINE
  5
349
100
AcDbEntity
  8
0
100
AcDbLine
 62
7
  6
CONTINUOUS
 10
104.0624997616
 20
120.9183576598
 11
104.0208330154
 21
120.7906979814
  0
LINE
  5
34A
100
AcDbEntity
  8
0
100
AcDbLine
 62
7
  6
CONTINUOUS
 10
105.3958330154
 20
119.8545278206
 11
105.4374995232
 21
119.9821873799
  0
LINE
  5
34B
100
AcDbEntity
  8
RUNDUNGEN
100
AcDbLine
 62
7
  6
CONTINUOUS
 10
87.485401124
 20
69.8861034831
 11
87.5795495155
 21
70.1665513239
  0
LINE
  5
34C
100
AcDbEntity
  8
0
100
AcDbLine
 62
7
  6
CONTINUOUS
 10
105.3124995232
 20
119.6843150451
 11
105.3958330154
 21
119.8545278206
  0
LINE
  5
34D
100
AcDbEntity
  8
0
100
AcDbLine
 62
7
  6
CONTINUOUS
 10
109.7291660309
 20
121.0885704055
 11
109.6458330154
 21
120.9183576598
  0
LINE
  5
34E
100
AcDbEntity
  8
0
100
AcDbLine
 62
7
  6
CONTINUOUS
 10
105.2291662693
 20
119.9821873799
 11
105.0624997616
 21
119.7268682315
  0
LINE
  5
34F
100
AcDbEntity
  8
0
100
AcDbLine
 62
7
  6
CONTINUOUS
 10
109.8125
 20
120.7906979814
 11
109.9791660309
 21
121.0460172191
  0
LINE
  5
350
100
AcDbEntity
  8
0
100
AcDbLine
 62
7
  6
CONTINUOUS
 10
108.7291665077
 20
121.0885704055
 11
108.9791665077
 21
121.3864427104
  0
LINE
  5
351
100
AcDbEntity
  8
0
100
AcDbLine
 62
7
  6
CONTINUOUS
 10
108.9791665077
 20
121.0460172191
 11
108.7291665077
 21
120.748144795
  0
LINE
  5
352
100
AcDbEntity
  8
RUNDUNGEN
100
AcDbLine
 62
7
  6
CONTINUOUS
 10
78.9441638589
 20
85.4059401331
 11
78.7125673318
 21
85.1611487385
  0
LINE
  5
353
100
AcDbEntity
  8
0
100
AcDbLine
 62
7
  6
CONTINUOUS
 10
108.3958330154
 20
121.0885704055
 11
106.9791665077
 21
119.6417618587
  0
LINE
  5
354
100
AcDbEntity
  8
0
100
AcDbLine
 62
7
  6
CONTINUOUS
 10
109.8541660309
 20
121.2162299647
 11
109.7291660309
 21
121.0885704055
  0
LINE
  5
355
100
AcDbEntity
  8
0
100
AcDbLine
 62
7
  6
CONTINUOUS
 10
110.7708330154
 20
119.556655471
 11
110.8958330154
 21
119.6843150451
  0
LINE
  5
356
100
AcDbEntity
  8
0
100
AcDbLine
 62
7
  6
CONTINUOUS
 10
108.1874995232
 20
121.1736767783
 11
106.7291665077
 21
119.7268682315
  0
LWPOLYLINE
  5
357
100
AcDbEntity
  8
RUNDUNGEN
100
AcDbPolyline
 62
7
  6
CONTINUOUS
 90
3
 70
0
 10
75.5403687963
 20
88.4066938668
 10
75.7334871746
 20
88.59231176
 10
75.8489064111
 20
88.7257000775
  0
LINE
  5
358
100
AcDbEntity
  8
RUNDUNGEN
100
AcDbLine
 62
7
  6
CONTINUOUS
 10
75.3185107932
 20
88.1122002218
 11
75.5767558563
 21
88.3348119933
  0
LINE
  5
359
100
AcDbEntity
  8
RUNDUNGEN
100
AcDbLine
 62
7
  6
CONTINUOUS
 10
70.5938715712
 20
90.251440204
 11
71.101785466
 21
90.6415417381
  0
LINE
  5
35A
100
AcDbEntity
  8
RUNDUNGEN
100
AcDbLine
 62
7
  6
CONTINUOUS
 10
128.4349913633
 20
132.2965540894
 11
128.9629539945
 21
132.6590609052
  0
LINE
  5
35B
100
AcDbEntity
  8
0
100
AcDbLine
 62
7
  6
CONTINUOUS
 10
109.9791660309
 20
121.0460172191
 11
110.1041660309
 21
121.1311235919
  0
LINE
  5
35C
100
AcDbEntity
  8
0
100
AcDbLine
 62
7
  6
CONTINUOUS
 10
110.6458330154
 20
119.7268682315
 11
110.5208330154
 21
119.6417618587
  0
LINE
  5
35D
100
AcDbEntity
  8
0
100
AcDbLine
 62
7
  6
CONTINUOUS
 10
113.8125
 20
121.0034640327
 11
113.9375
 21
121.0885704055
  0
LINE
  5
35E
100
AcDbEntity
  8
0
100
AcDbLine
 62
7
  6
CONTINUOUS
 10
110.0625
 20
121.343889524
 11
109.8541660309
 21
121.2162299647
  0
LINE
  5
35F
100
AcDbEntity
  8
0
100
AcDbLine
 62
7
  6
CONTINUOUS
 10
110.5625
 20
119.4289959006
 11
110.7708330154
 21
119.556655471
  0
LINE
  5
360
100
AcDbEntity
  8
0
100
AcDbLine
 62
7
  6
CONTINUOUS
 10
87.6884272993
 20
106.9635947987
 11
87.4035608172
 21
106.7944549366
  0
LINE
  5
361
100
AcDbEntity
  8
0
100
AcDbLine
 62
7
  6
CONTINUOUS
 10
113.7291660309
 20
121.2587831512
 11
113.8958330154
 21
121.343889524
  0
LINE
  5
362
100
AcDbEntity
  8
0
100
AcDbLine
 62
7
  6
CONTINUOUS
 10
114.5208330154
 20
119.4289959006
 11
114.6875
 21
119.5141022846
  0
LINE
  5
363
100
AcDbEntity
  8
0
100
AcDbLine
 62
7
  6
CONTINUOUS
 10
113.9375
 20
121.0885704055
 11
114.0625
 21
121.1311235919
  0
LINE
  5
364
100
AcDbEntity
  8
0
100
AcDbLine
 62
7
  6
CONTINUOUS
 10
116.4375
 20
120.5779320493
 11
116.3125
 21
120.5353788629
  0
LINE
  5
365
100
AcDbEntity
  8
0
100
AcDbLine
 62
7
  6
CONTINUOUS
 10
118.1874990463
 20
120.5353788629
 11
118.3124990463
 21
120.5779320493
  0
LWPOLYLINE
  5
366
100
AcDbEntity
  8
RUNDUNGEN
100
AcDbPolyline
 62
7
  6
CONTINUOUS
 90
4
 70
0
 10
143.5603262275
 20
110.2670626848
 10
143.6538631444
 20
110.2777263304
 10
143.7435690655
 20
110.305670555
 10
143.8045015434
 20
110.336163695
  0
LINE
  5
367
100
AcDbEntity
  8
RUNDUNGEN
100
AcDbLine
 62
7
  6
CONTINUOUS
 10
147.8847072976
 20
106.9456582992
 11
148.3301596467
 21
106.9885504819
  0
LINE
  5
368
100
AcDbEntity
  8
RUNDUNGEN
100
AcDbLine
 62
7
  6
CONTINUOUS
 10
148.3191274876
 20
107.1031238349
 11
144.9600714728
 21
106.7796835284
  0
LINE
  5
369
100
AcDbEntity
  8
RUNDUNGEN
100
AcDbLine
 62
7
  6
CONTINUOUS
 10
77.5021201605
 20
105.8862674451
 11
77.1512945385
 21
105.8680984707
  0
LINE
  5
36A
100
AcDbEntity
  8
0
100
AcDbLine
 62
7
  6
CONTINUOUS
 10
85.8931751251
 20
106.6816943928
 11
87.1632047296
 21
106.6876300618
  0
LINE
  5
36B
100
AcDbEntity
  8
0
100
AcDbLine
 62
7
  6
CONTINUOUS
 10
88.0
 20
103.6787284657
 11
86.548961401
 21
103.6787284657
  0
LINE
  5
36C
100
AcDbEntity
  8
0
100
AcDbLine
 62
7
  6
CONTINUOUS
 10
86.3442136049
 20
103.6787284657
 11
86.2047477961
 21
103.6787284657
  0
LINE
  5
36D
100
AcDbEntity
  8
0
100
AcDbLine
 62
7
  6
CONTINUOUS
 10
85.8931751251
 20
104.1297668263
 11
86.3442136049
 21
104.1297668263
  0
LINE
  5
36E
100
AcDbEntity
  8
0
100
AcDbLine
 62
7
  6
CONTINUOUS
 10
86.548961401
 20
104.1297668263
 11
88.0
 21
104.1297668263
  0
LINE
  5
36F
100
AcDbEntity
  8
0
100
AcDbLine
 62
7
  6
CONTINUOUS
 10
88.0
 20
104.4917835041
 11
87.0118694305
 21
104.4917835041
  0
LINE
  5
370
100
AcDbEntity
  8
0
100
AcDbLine
 62
7
  6
CONTINUOUS
 10
87.1632047296
 20
104.9428218647
 11
88.0
 21
104.9428218647
  0
LINE
  5
371
100
AcDbEntity
  8
0
100
AcDbLine
 62
7
  6
CONTINUOUS
 10
87.6884272993
 20
105.4176009938
 11
87.1958457232
 21
105.4176009938
  0
LINE
  5
372
100
AcDbEntity
  8
0
100
AcDbLine
 62
7
  6
CONTINUOUS
 10
87.1424332261
 20
105.8686393544
 11
88.0
 21
105.8686393544
  0
LINE
  5
373
100
AcDbEntity
  8
0
100
AcDbLine
 62
7
  6
CONTINUOUS
 10
88.0
 20
106.2306560322
 11
85.8931751251
 21
106.2306560322
  0
LINE
  5
374
100
AcDbEntity
  8
0
100
AcDbLine
 62
7
  6
CONTINUOUS
 10
87.5489614308
 20
106.6816943928
 11
88.0
 21
106.6816943928
  0
LINE
  5
375
100
AcDbEntity
  8
RUNDUNGEN
100
AcDbLine
 62
7
  6
CONTINUOUS
 10
71.6698403533
 20
106.9885504819
 11
72.1152927024
 21
106.9456582992
  0
LINE
  5
376
100
AcDbEntity
  8
RUNDUNGEN
100
AcDbLine
 62
7
  6
CONTINUOUS
 10
75.0399285274
 20
106.7796835283
 11
71.6808725124
 21
107.1031238349
  0
LWPOLYLINE
  5
377
100
AcDbEntity
  8
RUNDUNGEN
100
AcDbPolyline
 62
7
  6
CONTINUOUS
 90
21
 70
0
 10
77.1191272878
 20
110.3021432087
 10
77.4370319702
 20
110.2644858768
 10
77.7741170046
 20
110.1747285996
 10
78.1046476742
 20
110.034607295
 10
78.4167652398
 20
109.8489292121
 10
78.6921456175
 20
109.6312750349
 10
78.9268802411
 20
109.3889702036
 10
79.1167310274
 20
109.1304203275
 10
79.2609290645
 20
108.8606762993
 10
79.3597490844
 20
108.5809840404
 10
79.4102648435
 20
108.30126012
 10
79.4164181148
 20
107.9917291753
 10
79.3802370174
 20
107.6736091754
 10
79.3054839588
 20
107.3739341871
 10
79.1930528923
 20
107.0862918291
 10
79.0388115739
 20
106.8063713402
 10
78.85331598
 20
106.5553504778
 10
78.651059983
 20
106.3567185014
 10
78.4094514688
 20
106.1857699319
 10
78.1367996306
 20
106.0492119407
 10
77.833369581
 20
105.9481831116
  0
LWPOLYLINE
  5
378
100
AcDbEntity
  8
RUNDUNGEN
100
AcDbPolyline
 62
7
  6
CONTINUOUS
 90
3
 70
0
 10
76.3259926086
 20
110.2824117638
 10
76.4190060473
 20
110.2678926677
 10
76.4908230739
 20
110.2686884884
  0
LWPOLYLINE
  5
379
100
AcDbEntity
  8
RUNDUNGEN
100
AcDbPolyline
 62
7
  6
CONTINUOUS
 90
3
 70
0
 10
143.8045012927
 20
84.4367212994
 10
143.7622336245
 20
84.4589649159
 10
143.6740073914
 20
84.490473657
  0
LINE
  5
37A
100
AcDbEntity
  8
RUNDUNGEN
100
AcDbLine
 62
7
  6
CONTINUOUS
 10
146.2681379773
 20
82.8519383377
 11
146.6537278903
 21
82.6248085211
  0
LINE
  5
37B
100
AcDbEntity
  8
RUNDUNGEN
100
AcDbLine
 62
7
  6
CONTINUOUS
 10
146.7121472132
 20
82.7239848511
 11
143.8045003701
 21
84.4367197336
  0
LINE
  5
37C
100
AcDbEntity
  8
RUNDUNGEN
100
AcDbLine
 62
7
  6
CONTINUOUS
 10
84.6342267878
 20
127.6846136377
 11
84.9693939159
 21
127.3880828116
  0
LINE
  5
37D
100
AcDbEntity
  8
RUNDUNGEN
100
AcDbLine
 62
7
  6
CONTINUOUS
 10
87.2379164781
 20
125.534748595
 11
84.7104965191
 21
127.7708208869
  0
LWPOLYLINE
  5
37E
100
AcDbEntity
  8
RUNDUNGEN
100
AcDbPolyline
 62
7
  6
CONTINUOUS
 90
3
 70
0
 10
132.6599549159
 20
69.3633426076
 10
132.7142521035
 20
69.2866624441
 10
132.7620819899
 20
69.2381350941
  0
LINE
  5
37F
100
AcDbEntity
  8
0
100
AcDbLine
 62
7
  6
CONTINUOUS
 10
101.5624996722
 20
119.8119746342
 11
101.5208330154
 21
119.9396341934
  0
LINE
  5
380
100
AcDbEntity
  8
0
100
AcDbLine
 62
7
  6
CONTINUOUS
 10
101.6874996722
 20
120.6630384221
 11
101.6458330154
 21
120.7906979814
  0
LINE
  5
381
100
AcDbEntity
  8
0
100
AcDbLine
 62
7
  6
CONTINUOUS
 10
102.6458330154
 20
121.0460172191
 11
102.6874996424
 21
120.9183576598
  0
LINE
  5
382
100
AcDbEntity
  8
0
100
AcDbLine
 62
7
  6
CONTINUOUS
 10
101.2708330154
 20
119.9396341934
 11
101.3124996834
 21
119.7694214478
  0
LINE
  5
383
100
AcDbEntity
  8
0
100
AcDbLine
 62
7
  6
CONTINUOUS
 10
101.3958330154
 20
120.748144795
 11
101.4374996871
 21
120.5779320493
  0
LINE
  5
384
100
AcDbEntity
  8
0
100
AcDbLine
 62
7
  6
CONTINUOUS
 10
104.0208330154
 20
119.9821873799
 11
103.9791662693
 21
120.1949533715
  0
LINE
  5
385
100
AcDbEntity
  8
0
100
AcDbLine
 62
7
  6
CONTINUOUS
 10
104.2291662693
 20
119.9821873799
 11
104.1874997616
 21
120.237506558
  0
LINE
  5
386
100
AcDbEntity
  8
0
100
AcDbLine
 62
7
  6
CONTINUOUS
 10
106.3958330154
 20
120.1098469391
 11
106.3958330154
 21
120.3226129308
  0
LINE
  5
387
100
AcDbEntity
  8
0
100
AcDbLine
 62
7
  6
CONTINUOUS
 10
106.7291665077
 20
121.3864427104
 11
106.7291665077
 21
121.1736767783
  0
LINE
  5
388
100
AcDbEntity
  8
0
100
AcDbLine
 62
7
  6
CONTINUOUS
 10
106.7291665077
 20
119.7268682315
 11
106.7291665077
 21
119.3864427104
  0
LINE
  5
389
100
AcDbEntity
  8
0
100
AcDbLine
 62
7
  6
CONTINUOUS
 10
108.3958330154
 20
119.6417618587
 11
108.3958330154
 21
119.3864427104
  0
LINE
  5
38A
100
AcDbEntity
  8
0
100
AcDbLine
 62
7
  6
CONTINUOUS
 10
108.3958330154
 20
121.0885704055
 11
108.3958330154
 21
121.3864427104
  0
LINE
  5
38B
100
AcDbEntity
  8
0
100
AcDbLine
 62
7
  6
CONTINUOUS
 10
108.7291665077
 20
120.748144795
 11
108.7291665077
 21
121.0885704055
  0
LINE
  5
38C
100
AcDbEntity
  8
0
100
AcDbLine
 62
7
  6
CONTINUOUS
 10
108.9791665077
 20
119.3864427104
 11
108.9791665077
 21
121.0460172191
  0
LINE
  5
38D
100
AcDbEntity
  8
0
100
AcDbLine
 62
7
  6
CONTINUOUS
 10
109.2291665077
 20
119.3864427104
 11
109.2291665077
 21
121.3864427104
  0
LINE
  5
38E
100
AcDbEntity
  8
0
100
AcDbLine
 62
7
  6
CONTINUOUS
 10
109.5625
 20
120.1949533715
 11
109.5625
 21
120.5779320493
  0
LINE
  5
38F
100
AcDbEntity
  8
0
100
AcDbLine
 62
7
  6
CONTINUOUS
 10
109.7708330154
 20
120.237506558
 11
109.7708330154
 21
120.5353788629
  0
LINE
  5
390
100
AcDbEntity
  8
DEFAULT_1
100
AcDbLine
 62
7
  6
CENTER
 10
110.0
 20
97.3864427104
 11
110.0
 21
56.9020992276
  0
LINE
  5
391
100
AcDbEntity
  8
DEFAULT_1
100
AcDbLine
 62
7
  6
CENTER
 10
110.0
 20
97.3864427104
 11
110.0
 21
137.8707861932
  0
LWPOLYLINE
  5
392
100
AcDbEntity
  8
RUNDUNGEN
100
AcDbPolyline
 62
7
  6
CONTINUOUS
 90
3
 70
0
 10
108.1392763478
 20
133.3767942702
 10
108.140420465
 20
133.4707449114
 10
108.1302489367
 20
133.53811804
  0
LINE
  5
393
100
AcDbEntity
  8
0
100
AcDbLine
 62
7
  6
CONTINUOUS
 10
109.7708330154
 20
120.5353788629
 11
109.8125
 21
120.7906979814
  0
LINE
  5
394
100
AcDbEntity
  8
0
100
AcDbLine
 62
7
  6
CONTINUOUS
 10
110.8541660309
 20
120.237506558
 11
110.8125
 21
119.9821873799
  0
LWPOLYLINE
  5
395
100
AcDbEntity
  8
RUNDUNGEN
100
AcDbPolyline
 62
7
  6
CONTINUOUS
 90
3
 70
0
 10
111.8697515463
 20
133.5381179334
 10
111.8616580377
 20
133.4910453366
 10
111.8589548495
 20
133.3974004663
  0
LINE
  5
396
100
AcDbEntity
  8
0
100
AcDbLine
 62
7
  6
CONTINUOUS
 10
109.6041660309
 20
120.7906979814
 11
109.5625
 21
120.5779320493
  0
LINE
  5
397
100
AcDbEntity
  8
0
100
AcDbLine
 62
7
  6
CONTINUOUS
 10
111.0208330154
 20
119.9821873799
 11
111.0625
 21
120.1949533715
  0
LINE
  5
398
100
AcDbEntity
  8
RUNDUNGEN
100
AcDbLine
 62
7
  6
CONTINUOUS
 10
112.6001487031
 20
136.8327182026
 11
111.8697533206
 21
133.5381175398
  0
LINE
  5
399
100
AcDbEntity
  8
RUNDUNGEN
100
AcDbLine
 62
7
  6
CONTINUOUS
 10
112.6156641055
 20
136.3709005236
 11
112.7125235617
 21
136.8078052962
  0
LINE
  5
39A
100
AcDbEntity
  8
0
100
AcDbLine
 62
7
  6
CONTINUOUS
 10
109.6458330154
 20
120.9183576598
 11
109.6041660309
 21
120.7906979814
  0
LINE
  5
39B
100
AcDbEntity
  8
0
100
AcDbLine
 62
7
  6
CONTINUOUS
 10
110.9791660309
 20
119.8545278206
 11
111.0208330154
 21
119.9821873799
  0
LINE
  5
39C
100
AcDbEntity
  8
RUNDUNGEN
100
AcDbLine
 62
7
  6
CONTINUOUS
 10
90.2632409014
 20
67.0401099713
 11
88.9176254966
 21
63.945406411
  0
LINE
  5
39D
100
AcDbEntity
  8
RUNDUNGEN
100
AcDbLine
 62
7
  6
CONTINUOUS
 10
89.0231821058
 20
63.899509091
 11
89.2016273417
 21
64.3099050369
  0
LINE
  5
39E
100
AcDbEntity
  8
RUNDUNGEN
100
AcDbLine
 62
7
  6
CONTINUOUS
 10
87.5795495155
 20
70.1665513239
 11
87.6639652899
 21
70.3484169247
  0
LINE
  5
39F
100
AcDbEntity
  8
0
100
AcDbLine
 62
7
  6
CONTINUOUS
 10
110.8958330154
 20
119.6843150451
 11
110.9791660309
 21
119.8545278206
  0
LINE
  5
3A0
100
AcDbEntity
  8
0
100
AcDbLine
 62
7
  6
CONTINUOUS
 10
110.8125
 20
119.9821873799
 11
110.6458330154
 21
119.7268682315
  0
LINE
  5
3A1
100
AcDbEntity
  8
0
100
AcDbLine
 62
7
  6
CONTINUOUS
 10
114.6875
 20
119.897081007
 11
114.6041660309
 21
119.7694214478
  0
LINE
  5
3A2
100
AcDbEntity
  8
0
100
AcDbLine
 62
7
  6
CONTINUOUS
 10
116.7708330154
 20
120.6204852357
 11
116.6458330154
 21
120.45027249
  0
LINE
  5
3A3
100
AcDbEntity
  8
0
100
AcDbLine
 62
7
  6
CONTINUOUS
 10
113.5625
 20
121.0885704055
 11
113.7291660309
 21
121.2587831512
  0
LINE
  5
3A4
100
AcDbEntity
  8
0
100
AcDbLine
 62
7
  6
CONTINUOUS
 10
114.6875
 20
119.5141022846
 11
114.8541660309
 21
119.6843150451
  0
LINE
  5
3A5
100
AcDbEntity
  8
0
100
AcDbLine
 62
7
  6
CONTINUOUS
 10
116.5208330154
 20
120.6630384221
 11
116.4375
 21
120.5779320493
  0
LINE
  5
3A6
100
AcDbEntity
  8
0
100
AcDbLine
 62
7
  6
CONTINUOUS
 10
118.3958330154
 20
120.6630384221
 11
118.3124990463
 21
120.5779320493
  0
LINE
  5
3A7
100
AcDbEntity
  8
0
100
AcDbLine
 62
7
  6
CONTINUOUS
 10
116.6458330154
 20
120.45027249
 11
116.4791660309
 21
120.3226129308
  0
LINE
  5
3A8
100
AcDbEntity
  8
RUNDUNGEN
100
AcDbLine
 62
7
  6
CONTINUOUS
 10
75.5767536284
 20
88.334814578
 11
75.8071572882
 21
88.5085724433
  0
LINE
  5
3A9
100
AcDbEntity
  8
0
100
AcDbLine
 62
7
  6
CONTINUOUS
 10
114.6041660309
 20
119.7694214478
 11
114.4791660309
 21
119.6843150451
  0
LWPOLYLINE
  5
3AA
100
AcDbEntity
  8
RUNDUNGEN
100
AcDbPolyline
 62
7
  6
CONTINUOUS
 90
3
 70
0
 10
129.5374992427
 20
127.5045989337
 10
129.5798357935
 20
127.5333479864
 10
129.6492408152
 20
127.5969546772
  0
LINE
  5
3AB
100
AcDbEntity
  8
RUNDUNGEN
100
AcDbLine
 62
7
  6
CONTINUOUS
 10
129.2459798148
 20
127.3277856446
 11
129.5374983075
 21
127.5046004763
  0
LINE
  5
3AC
100
AcDbEntity
  8
0
100
AcDbLine
 62
7
  6
CONTINUOUS
 10
118.5208330154
 20
120.45027249
 11
118.3541669846
 21
120.3651661172
  0
LINE
  5
3AD
100
AcDbEntity
  8
RUNDUNGEN
100
AcDbLine
 62
7
  6
CONTINUOUS
 10
77.833369581
 20
105.9481831116
 11
77.5021201605
 21
105.8862674451
  0
LINE
  5
3AE
100
AcDbEntity
  8
0
100
AcDbLine
 62
7
  6
CONTINUOUS
 10
86.548961401
 20
104.8716052815
 11
86.7507418394
 21
104.9012798115
  0
LINE
  5
3AF
100
AcDbEntity
  8
RUNDUNGEN
100
AcDbLine
 62
7
  6
CONTINUOUS
 10
76.8305951605
 20
110.2969982517
 11
77.1191272878
 21
110.3021432087
  0
LINE
  5
3B0
100
AcDbEntity
  8
RUNDUNGEN
100
AcDbLine
 62
7
  6
CONTINUOUS
 10
143.5091769693
 20
110.2686890128
 11
143.5603262275
 21
110.2670626848
  0
LWPOLYLINE
  5
3B1
100
AcDbEntity
  8
RUNDUNGEN
100
AcDbPolyline
 62
7
  6
CONTINUOUS
 90
9
 70
0
 10
91.0423184191
 20
127.1195428193
 10
91.2704787425
 20
126.8958752674
 10
91.4751585097
 20
126.6309766218
 10
91.645224325
 20
126.3374850658
 10
91.7780536162
 20
126.0210631506
 10
91.869453203
 20
125.6916280587
 10
91.9161870359
 20
125.3614975423
 10
91.917875944
 20
125.0407566956
 10
91.876105108
 20
124.7379887623
  0
LWPOLYLINE
  5
3B2
100
AcDbEntity
  8
RUNDUNGEN
100
AcDbPolyline
 62
7
  6
CONTINUOUS
 90
3
 70
0
 10
90.3372161752
 20
127.6125857638
 10
90.4039315173
 20
127.5461676408
 10
90.462500484
 20
127.5045984842
  0
LINE
  5
3B3
100
AcDbEntity
  8
0
100
AcDbLine
 62
7
  6
CONTINUOUS
 10
101.6874996722
 20
119.6843150451
 11
101.5624996722
 21
119.8119746342
  0
LINE
  5
3B4
100
AcDbEntity
  8
0
100
AcDbLine
 62
7
  6
CONTINUOUS
 10
101.4374996871
 20
120.5779320493
 11
101.6041663587
 21
120.4077193036
  0
LINE
  5
3B5
100
AcDbEntity
  8
0
100
AcDbLine
 62
7
  6
CONTINUOUS
 10
102.7291663885
 20
120.237506558
 11
102.5624996424
 21
120.4077193036
  0
LINE
  5
3B6
100
AcDbEntity
  8
0
100
AcDbLine
 62
7
  6
CONTINUOUS
 10
102.5208330154
 20
121.2162299647
 11
102.6458330154
 21
121.0460172191
  0
LINE
  5
3B7
100
AcDbEntity
  8
0
100
AcDbLine
 62
7
  6
CONTINUOUS
 10
102.4791663885
 20
120.1524001851
 11
102.5624996424
 21
120.0247405663
  0
LINE
  5
3B8
100
AcDbEntity
  8
0
100
AcDbLine
 62
7
  6
CONTINUOUS
 10
104.3958330154
 20
119.7268682315
 11
104.2291662693
 21
119.9821873799
  0
LINE
  5
3B9
100
AcDbEntity
  8
0
100
AcDbLine
 62
7
  6
CONTINUOUS
 10
101.3124996834
 20
119.7694214478
 11
101.4374996871
 21
119.556655471
  0
LWPOLYLINE
  5
3BA
100
AcDbEntity
  8
RUNDUNGEN
100
AcDbPolyline
 62
7
  6
CONTINUOUS
 90
3
 70
0
 10
129.7367607655
 20
67.0401106955
 10
129.7156399733
 20
67.0829504713
 10
129.6627838248
 20
67.160299657
  0
LINE
  5
3BB
100
AcDbEntity
  8
0
100
AcDbLine
 62
7
  6
CONTINUOUS
 10
102.8124996424
 20
120.0672937527
 11
102.7291663885
 21
120.237506558
  0
LINE
  5
3BC
100
AcDbEntity
  8
0
100
AcDbLine
 62
7
  6
CONTINUOUS
 10
102.3958330154
 20
121.0034640327
 11
102.4374996424
 21
120.9183576598
  0
LINE
  5
3BD
100
AcDbEntity
  8
0
100
AcDbLine
 62
7
  6
CONTINUOUS
 10
104.1458330154
 20
119.6843150451
 11
104.0624997616
 21
119.8545278206
  0
LINE
  5
3BE
100
AcDbEntity
  8
0
100
AcDbLine
 62
7
  6
CONTINUOUS
 10
105.3958330154
 20
120.9183576598
 11
105.3124995232
 21
121.0885704055
  0
LINE
  5
3BF
100
AcDbEntity
  8
RUNDUNGEN
100
AcDbLine
 62
7
  6
CONTINUOUS
 10
130.7983726583
 20
64.3099050369
 11
130.9768178942
 21
63.899509091
  0
LINE
  5
3C0
100
AcDbEntity
  8
RUNDUNGEN
100
AcDbLine
 62
7
  6
CONTINUOUS
 10
131.0823745034
 20
63.945406411
 11
129.7367590987
 21
67.0401099711
  0
LINE
  5
3C1
100
AcDbEntity
  8
0
100
AcDbLine
 62
7
  6
CONTINUOUS
 10
104.0624997616
 20
119.8545278206
 11
104.0208330154
 21
119.9821873799
  0
LINE
  5
3C2
100
AcDbEntity
  8
0
100
AcDbLine
 62
7
  6
CONTINUOUS
 10
105.4374995232
 20
120.7906979814
 11
105.3958330154
 21
120.9183576598
  0
LINE
  5
3C3
100
AcDbEntity
  8
0
100
AcDbLine
 62
7
  6
CONTINUOUS
 10
105.4791665077
 20
120.5779320493
 11
105.4374995232
 21
120.7906979814
  0
LINE
  5
3C4
100
AcDbEntity
  8
0
100
AcDbLine
 62
7
  6
CONTINUOUS
 10
105.2291662693
 20
120.7906979814
 11
105.2708330154
 21
120.5353788629
  0
LINE
  5
3C5
100
AcDbEntity
  8
0
100
AcDbLine
 62
7
  6
CONTINUOUS
 10
110.8541660309
 20
120.5353788629
 11
110.8541660309
 21
120.237506558
  0
LINE
  5
3C6
100
AcDbEntity
  8
0
100
AcDbLine
 62
7
  6
CONTINUOUS
 10
111.0625
 20
120.1949533715
 11
111.0625
 21
120.5779320493
  0
LINE
  5
3C7
100
AcDbEntity
  8
0
100
AcDbLine
 62
7
  6
CONTINUOUS
 10
113.5208330154
 20
120.9183576598
 11
113.5208330154
 21
120.748144795
  0
LINE
  5
3C8
100
AcDbEntity
  8
0
100
AcDbLine
 62
7
  6
CONTINUOUS
 10
113.7708330154
 20
120.7906979814
 11
113.7708330154
 21
120.8758043542
  0
LINE
  5
3C9
100
AcDbEntity
  8
0
100
AcDbLine
 62
7
  6
CONTINUOUS
 10
114.6875
 20
120.0247405663
 11
114.6875
 21
119.897081007
  0
LINE
  5
3CA
100
AcDbEntity
  8
0
100
AcDbLine
 62
7
  6
CONTINUOUS
 10
114.9375
 20
119.8545278206
 11
114.9375
 21
120.0672937527
  0
LINE
  5
3CB
100
AcDbEntity
  8
0
100
AcDbLine
 62
7
  6
CONTINUOUS
 10
115.2708330154
 20
121.3864427104
 11
115.2708330154
 21
119.3864427104
  0
LWPOLYLINE
  5
3CC
100
AcDbEntity
  8
RUNDUNGEN
100
AcDbPolyline
 62
7
  6
CONTINUOUS
 90
3
 70
0
 10
111.8607236522
 20
61.3960911506
 10
111.859579535
 20
61.3021405095
 10
111.8697510633
 20
61.2347673808
  0
LINE
  5
3CD
100
AcDbEntity
  8
0
100
AcDbLine
 62
7
  6
CONTINUOUS
 10
113.5625
 20
121.0885704055
 11
113.5208330154
 21
120.9183576598
  0
LINE
  5
3CE
100
AcDbEntity
  8
0
100
AcDbLine
 62
7
  6
CONTINUOUS
 10
113.7708330154
 20
120.8758043542
 11
113.8125
 21
121.0034640327
  0
LINE
  5
3CF
100
AcDbEntity
  8
0
100
AcDbLine
 62
7
  6
CONTINUOUS
 10
116.5625
 20
120.7906979814
 11
116.5208330154
 21
120.6630384221
  0
LINE
  5
3D0
100
AcDbEntity
  8
0
100
AcDbLine
 62
7
  6
CONTINUOUS
 10
116.8125
 20
120.748144795
 11
116.7708330154
 21
120.6204852357
  0
LINE
  5
3D1
100
AcDbEntity
  8
0
100
AcDbLine
 62
7
  6
CONTINUOUS
 10
114.8541660309
 20
119.6843150451
 11
114.9375
 21
119.8545278206
  0
LINE
  5
3D2
100
AcDbEntity
  8
0
100
AcDbLine
 62
7
  6
CONTINUOUS
 10
118.5208330154
 20
120.45027249
 11
118.6458330154
 21
120.6204852357
  0
LINE
  5
3D3
100
AcDbEntity
  8
RUNDUNGEN
100
AcDbLine
 62
7
  6
CONTINUOUS
 10
135.2895034809
 20
127.7708208869
 11
132.762083522
 21
125.5347485952
  0
LINE
  5
3D4
100
AcDbEntity
  8
RUNDUNGEN
100
AcDbLine
 62
7
  6
CONTINUOUS
 10
135.0306060841
 20
127.3880828116
 11
135.3657732122
 21
127.6846136377
  0
LINE
  5
3D5
100
AcDbEntity
  8
RUNDUNGEN
100
AcDbLine
 62
7
  6
CONTINUOUS
 10
78.7125673318
 20
85.1611487385
 11
78.4394219281
 21
84.940244158
  0
LWPOLYLINE
  5
3D6
100
AcDbEntity
  8
RUNDUNGEN
100
AcDbPolyline
 62
7
  6
CONTINUOUS
 90
21
 70
0
 10
75.8071572882
 20
88.5085724433
 10
76.0864877935
 20
88.6649686944
 10
76.4119611601
 20
88.7904889449
 10
76.7617337965
 20
88.8714083435
 10
77.1233860906
 20
88.904647093
 10
77.4741093847
 20
88.8904221031
 10
77.8064366886
 20
88.8323631562
 10
78.1119990622
 20
88.7347799912
 10
78.3872063912
 20
88.6013070481
 10
78.6315488788
 20
88.4331138868
 10
78.8368316097
 20
88.2365023778
 10
79.0237471082
 20
87.9896976293
 10
79.1814586505
 20
87.7110651257
 10
79.2971234556
 20
87.4246827224
 10
79.3752333374
 20
87.1258887
 10
79.414978942
 20
86.808766089
 10
79.4124524113
 20
86.4966586253
 10
79.3655725262
 20
86.2170782737
 10
79.2705833017
 20
85.936763096
 10
79.130265221
 20
85.6660246739
 10
78.9441638589
 20
85.4059401331
  0
LWPOLYLINE
  5
3D7
100
AcDbEntity
  8
RUNDUNGEN
100
AcDbPolyline
 62
7
  6
CONTINUOUS
 90
3
 70
0
 10
76.8434088612
 20
110.3765363206
 10
77.1087476454
 20
110.4131920853
 10
77.2805288136
 20
110.4532640987
  0
LINE
  5
3D8
100
AcDbEntity
  8
RUNDUNGEN
100
AcDbLine
 62
7
  6
CONTINUOUS
 10
76.4908228805
 20
110.2686908104
 11
76.8305954415
 21
110.2969948772
  0
LINE
  5
3D9
100
AcDbEntity
  8
RUNDUNGEN
100
AcDbLine
 62
7
  6
CONTINUOUS
 10
73.9259231702
 20
114.7764455682
 11
74.5661300714
 21
114.793500042
  0
LINE
  5
3DA
100
AcDbEntity
  8
0
100
AcDbLine
 62
7
  6
CONTINUOUS
 10
127.8339745962
 20
116.5864427104
 11
120.8
 21
116.5864427104
  0
LINE
  5
3DB
100
AcDbEntity
  8
0
100
AcDbLine
 62
7
  6
CONTINUOUS
 10
99.2
 20
116.5864427104
 11
92.1660254038
 21
116.5864427104
  0
LINE
  5
3DC
100
AcDbEntity
  8
RUNDUNGEN
100
AcDbLine
 62
7
  6
CONTINUOUS
 10
145.4338699286
 20
114.793500042
 11
146.0740768298
 21
114.7764455682
  0
LINE
  5
3DD
100
AcDbEntity
  8
RUNDUNGEN
100
AcDbLine
 62
7
  6
CONTINUOUS
 10
143.1197798997
 20
110.3005787143
 11
143.1694055302
 21
110.2970065945
  0
LINE
  5
3DE
100
AcDbEntity
  8
RUNDUNGEN
100
AcDbLine
 62
7
  6
CONTINUOUS
 10
143.1694045541
 20
110.2969948776
 11
143.5091771193
 21
110.2686908105
  0
LINE
  5
3DF
100
AcDbEntity
  8
0
100
AcDbLine
 62
7
  6
CONTINUOUS
 10
101.6041663587
 20
120.4077193036
 11
101.7708330154
 21
120.3226129308
  0
LINE
  5
3E0
100
AcDbEntity
  8
0
100
AcDbLine
 62
7
  6
CONTINUOUS
 10
102.5624996424
 20
120.4077193036
 11
102.3958330154
 21
120.4928256765
  0
LWPOLYLINE
  5
3E1
100
AcDbEntity
  8
RUNDUNGEN
100
AcDbPolyline
 62
7
  6
CONTINUOUS
 90
3
 70
0
 10
90.8138029939
 20
127.3831920926
 10
91.0225396356
 20
127.270274554
 10
91.2373955708
 20
127.1795287875
  0
LINE
  5
3E2
100
AcDbEntity
  8
RUNDUNGEN
100
AcDbLine
 62
7
  6
CONTINUOUS
 10
90.4625016923
 20
127.5046004764
 11
90.7540201815
 21
127.3277856469
  0
LINE
  5
3E3
100
AcDbEntity
  8
0
100
AcDbLine
 62
7
  6
CONTINUOUS
 10
101.4374996871
 20
119.556655471
 11
101.6458330154
 21
119.4289959006
  0
LINE
  5
3E4
100
AcDbEntity
  8
0
100
AcDbLine
 62
7
  6
CONTINUOUS
 10
104.4791662693
 20
119.4289959006
 11
104.2708330154
 21
119.556655471
  0
LINE
  5
3E5
100
AcDbEntity
  8
RUNDUNGEN
100
AcDbLine
 62
7
  6
CONTINUOUS
 10
90.7540186106
 20
127.3277830571
 11
90.8038074953
 21
127.2966615373
  0
LINE
  5
3E6
100
AcDbEntity
  8
0
100
AcDbLine
 62
7
  6
CONTINUOUS
 10
101.812499702
 20
120.5779320493
 11
101.6874996722
 21
120.6630384221
  0
LINE
  5
3E7
100
AcDbEntity
  8
0
100
AcDbLine
 62
7
  6
CONTINUOUS
 10
102.3541663885
 20
120.237506558
 11
102.4791663885
 21
120.1524001851
  0
LINE
  5
3E8
100
AcDbEntity
  8
0
100
AcDbLine
 62
7
  6
CONTINUOUS
 10
104.5208330154
 20
119.6417618587
 11
104.3958330154
 21
119.7268682315
  0
LINE
  5
3E9
100
AcDbEntity
  8
0
100
AcDbLine
 62
7
  6
CONTINUOUS
 10
104.9374997616
 20
121.1311235919
 11
105.0624997616
 21
121.0460172191
  0
LINE
  5
3EA
100
AcDbEntity
  8
RUNDUNGEN
100
AcDbLine
 62
7
  6
CONTINUOUS
 10
90.8038074953
 20
127.2966615373
 11
91.0423184191
 21
127.1195428193
  0
LINE
  5
3EB
100
AcDbEntity
  8
0
100
AcDbLine
 62
7
  6
CONTINUOUS
 10
102.3541663885
 20
121.343889524
 11
102.5208330154
 21
121.2162299647
  0
LWPOLYLINE
  5
3EC
100
AcDbEntity
  8
RUNDUNGEN
100
AcDbPolyline
 62
7
  6
CONTINUOUS
 90
3
 70
0
 10
144.6814880286
 20
88.1121988557
 10
144.7219127161
 20
88.0808183491
 10
144.8038536051
 20
88.0344657993
  0
LINE
  5
3ED
100
AcDbEntity
  8
RUNDUNGEN
100
AcDbLine
 62
7
  6
CONTINUOUS
 10
144.4232441404
 20
88.3348119961
 11
144.6814892066
 21
88.1122002219
  0
LINE
  5
3EE
100
AcDbEntity
  8
0
100
AcDbLine
 62
7
  6
CONTINUOUS
 10
102.3124996424
 20
121.0885704055
 11
102.3958330154
 21
121.0034640327
  0
LINE
  5
3EF
100
AcDbEntity
  8
0
100
AcDbLine
 62
7
  6
CONTINUOUS
 10
104.2708330154
 20
119.556655471
 11
104.1458330154
 21
119.6843150451
  0
LINE
  5
3F0
100
AcDbEntity
  8
0
100
AcDbLine
 62
7
  6
CONTINUOUS
 10
105.3124995232
 20
121.0885704055
 11
105.1874997616
 21
121.2162299647
  0
LINE
  5
3F1
100
AcDbEntity
  8
0
100
AcDbLine
 62
7
  6
CONTINUOUS
 10
109.8541660309
 20
119.556655471
 11
109.7291660309
 21
119.6843150451
  0
LINE
  5
3F2
100
AcDbEntity
  8
0
100
AcDbLine
 62
7
  6
CONTINUOUS
 10
105.0624997616
 20
121.0460172191
 11
105.2291662693
 21
120.7906979814
  0
LINE
  5
3F3
100
AcDbEntity
  8
0
100
AcDbLine
 62
7
  6
CONTINUOUS
 10
109.9791660309
 20
119.7268682315
 11
109.8125
 21
119.9821873799
  0
LINE
  5
3F4
100
AcDbEntity
  8
0
100
AcDbLine
 62
7
  6
CONTINUOUS
 10
109.7291660309
 20
119.6843150451
 11
109.6458330154
 21
119.8545278206
  0
LINE
  5
3F5
100
AcDbEntity
  8
0
100
AcDbLine
 62
7
  6
CONTINUOUS
 10
110.9791660309
 20
120.9183576598
 11
110.8958330154
 21
121.0885704055
  0
LINE
  5
3F6
100
AcDbEntity
  8
RUNDUNGEN
100
AcDbLine
 62
7
  6
CONTINUOUS
 10
132.3360198037
 20
70.3484452354
 11
132.4011335826
 21
70.2120740742
  0
LINE
  5
3F7
100
AcDbEntity
  8
0
100
AcDbLine
 62
7
  6
CONTINUOUS
 10
109.6458330154
 20
119.8545278206
 11
109.6041660309
 21
119.9821873799
  0
LINE
  5
3F8
100
AcDbEntity
  8
0
100
AcDbLine
 62
7
  6
CONTINUOUS
 10
111.0208330154
 20
120.7906979814
 11
110.9791660309
 21
120.9183576598
  0
LWPOLYLINE
  5
3F9
100
AcDbEntity
  8
RUNDUNGEN
100
AcDbPolyline
 62
7
  6
CONTINUOUS
 90
5
 70
0
 10
107.9299448646
 20
131.2092096599
 10
107.8401541514
 20
131.558025513
 10
107.7984817128
 20
131.9147107985
 10
107.8070819394
 20
132.2668695791
 10
107.862161898
 20
132.5913162519
  0
LINE
  5
3FA
100
AcDbEntity
  8
0
100
AcDbLine
 62
7
  6
CONTINUOUS
 10
113.3958330154
 20
119.9396341934
 11
113.4375
 21
119.7694214478
  0
LINE
  5
3FB
100
AcDbEntity
  8
RUNDUNGEN
100
AcDbLine
 62
7
  6
CONTINUOUS
 10
107.2874764383
 20
136.8078052962
 11
107.3843358945
 21
136.3709005236
  0
LINE
  5
3FC
100
AcDbEntity
  8
RUNDUNGEN
100
AcDbLine
 62
7
  6
CONTINUOUS
 10
108.1302466794
 20
133.5381175395
 11
107.3998512969
 21
136.8327182026
  0
LINE
  5
3FD
100
AcDbEntity
  8
0
100
AcDbLine
 62
7
  6
CONTINUOUS
 10
109.6041660309
 20
119.9821873799
 11
109.5625
 21
120.1949533715
  0
LINE
  5
3FE
100
AcDbEntity
  8
0
100
AcDbLine
 62
7
  6
CONTINUOUS
 10
111.0625
 20
120.5779320493
 11
111.0208330154
 21
120.7906979814
  0
LINE
  5
3FF
100
AcDbEntity
  8
0
100
AcDbLine
 62
7
  6
CONTINUOUS
 10
109.8125
 20
119.9821873799
 11
109.7708330154
 21
120.237506558
  0
LINE
  5
400
100
AcDbEntity
  8
0
100
AcDbLine
 62
7
  6
CONTINUOUS
 10
110.8125
 20
120.7906979814
 11
110.8541660309
 21
120.5353788629
  0
LWPOLYLINE
  5
401
100
AcDbEntity
  8
RUNDUNGEN
100
AcDbPolyline
 62
7
  6
CONTINUOUS
 90
3
 70
0
 10
111.8589548495
 20
133.3974004663
 10
111.8738891018
 20
133.3044527818
 10
111.896838654
 20
133.2363966528
  0
LINE
  5
402
100
AcDbEntity
  8
0
100
AcDbLine
 62
7
  6
CONTINUOUS
 10
115.5208330154
 20
119.3864427104
 11
115.5208330154
 21
120.2800597444
  0
LINE
  5
403
100
AcDbEntity
  8
0
100
AcDbLine
 62
7
  6
CONTINUOUS
 10
115.5208330154
 20
120.5353788629
 11
115.5208330154
 21
121.1736767783
  0
LINE
  5
404
100
AcDbEntity
  8
0
100
AcDbLine
 62
7
  6
CONTINUOUS
 10
116.5625
 20
120.9183576598
 11
116.5625
 21
120.7906979814
  0
LINE
  5
405
100
AcDbEntity
  8
0
100
AcDbLine
 62
7
  6
CONTINUOUS
 10
116.8125
 20
120.9183576598
 11
116.8125
 21
120.748144795
  0
LINE
  5
406
100
AcDbEntity
  8
0
100
AcDbLine
 62
7
  6
CONTINUOUS
 10
117.1458330154
 20
121.3864427104
 11
117.1458330154
 21
119.3864427104
  0
LINE
  5
407
100
AcDbEntity
  8
0
100
AcDbLine
 62
7
  6
CONTINUOUS
 10
117.3958330154
 20
119.3864427104
 11
117.3958330154
 21
120.2800597444
  0
LINE
  5
408
100
AcDbEntity
  8
0
100
AcDbLine
 62
7
  6
CONTINUOUS
 10
117.3958330154
 20
120.5353788629
 11
117.3958330154
 21
121.1736767783
  0
LINE
  5
409
100
AcDbEntity
  8
0
100
AcDbLine
 62
7
  6
CONTINUOUS
 10
118.4374990463
 20
120.9183576598
 11
118.4374990463
 21
120.7906979814
  0
LINE
  5
40A
100
AcDbEntity
  8
0
100
AcDbLine
 62
7
  6
CONTINUOUS
 10
118.6874990463
 20
120.748144795
 11
118.6874990463
 21
120.9183576598
  0
LWPOLYLINE
  5
40B
100
AcDbEntity
  8
RUNDUNGEN
100
AcDbPolyline
 62
7
  6
CONTINUOUS
 90
3
 70
0
 10
108.1302484537
 20
61.2347674874
 10
108.1383419623
 20
61.2818400842
 10
108.1410451505
 20
61.3754849546
  0
LINE
  5
40C
100
AcDbEntity
  8
RUNDUNGEN
100
AcDbLine
 62
7
  6
CONTINUOUS
 10
107.3843358945
 20
58.4019848972
 11
107.2874764383
 21
57.9650801246
  0
LINE
  5
40D
100
AcDbEntity
  8
RUNDUNGEN
100
AcDbLine
 62
7
  6
CONTINUOUS
 10
107.3998512969
 20
57.9401672182
 11
108.1302466794
 21
61.2347678811
  0
LINE
  5
40E
100
AcDbEntity
  8
0
100
AcDbLine
 62
7
  6
CONTINUOUS
 10
118.4374990463
 20
120.7906979814
 11
118.3958330154
 21
120.6630384221
  0
LINE
  5
40F
100
AcDbEntity
  8
0
100
AcDbLine
 62
7
  6
CONTINUOUS
 10
118.6458330154
 20
120.6204852357
 11
118.6874990463
 21
120.748144795
  0
LWPOLYLINE
  5
410
100
AcDbEntity
  8
RUNDUNGEN
100
AcDbPolyline
 62
7
  6
CONTINUOUS
 90
3
 70
0
 10
129.6492408152
 20
127.5969546772
 10
129.7053892268
 20
127.6722898473
 10
129.7367612189
 20
127.7327745276
  0
LWPOLYLINE
  5
411
100
AcDbEntity
  8
RUNDUNGEN
100
AcDbPolyline
 62
7
  6
CONTINUOUS
 90
4
 70
0
 10
132.762082318
 20
125.5347499565
 10
132.7278659394
 20
125.501424656
 10
132.6706359606
 20
125.4272532824
 10
132.6280847566
 20
125.3432789201
  0
LWPOLYLINE
  5
412
100
AcDbEntity
  8
RUNDUNGEN
100
AcDbPolyline
 62
7
  6
CONTINUOUS
 90
5
 70
0
 10
78.4394219281
 20
84.940244158
 10
78.1277140836
 20
84.7503335516
 10
77.7962686473
 20
84.605959232
 10
77.4576008604
 20
84.5124103137
 10
77.1381208245
 20
84.4717131735
  0
LINE
  5
413
100
AcDbEntity
  8
RUNDUNGEN
100
AcDbLine
 62
7
  6
CONTINUOUS
 10
76.1954996301
 20
84.4367197337
 11
73.2878527868
 21
82.7239848511
  0
LINE
  5
414
100
AcDbEntity
  8
RUNDUNGEN
100
AcDbLine
 62
7
  6
CONTINUOUS
 10
73.3462721097
 20
82.6248085211
 11
73.7318620227
 21
82.8519383377
  0
LWPOLYLINE
  5
415
100
AcDbEntity
  8
RUNDUNGEN
100
AcDbPolyline
 62
7
  6
CONTINUOUS
 90
3
 70
0
 10
75.177095328
 20
88.0264159033
 10
75.2608788912
 20
88.0693416354
 10
75.3185123146
 20
88.1121984569
  0
LINE
  5
416
100
AcDbEntity
  8
0
100
AcDbLine
 62
7
  6
CONTINUOUS
 10
114.4791660309
 20
119.6843150451
 11
114.3125
 21
119.6417618587
  0
LINE
  5
417
100
AcDbEntity
  8
0
100
AcDbLine
 62
7
  6
CONTINUOUS
 10
113.8958330154
 20
121.343889524
 11
114.0625
 21
121.3864427104
  0
LINE
  5
418
100
AcDbEntity
  8
0
100
AcDbLine
 62
7
  6
CONTINUOUS
 10
102.3541663885
 20
119.6843150451
 11
102.187499702
 21
119.6417618587
  0
LINE
  5
419
100
AcDbEntity
  8
0
100
AcDbLine
 62
7
  6
CONTINUOUS
 10
114.3125
 20
119.3864427104
 11
114.5208330154
 21
119.4289959006
  0
LINE
  5
41A
100
AcDbEntity
  8
0
100
AcDbLine
 62
7
  6
CONTINUOUS
 10
116.4791660309
 20
120.3226129308
 11
116.2708330154
 21
120.2800597444
  0
LINE
  5
41B
100
AcDbEntity
  8
0
100
AcDbLine
 62
7
  6
CONTINUOUS
 10
110.5208330154
 20
119.6417618587
 11
110.3125
 21
119.5992086723
  0
LINE
  5
41C
100
AcDbEntity
  8
0
100
AcDbLine
 62
7
  6
CONTINUOUS
 10
104.9374997616
 20
119.6417618587
 11
104.7291662693
 21
119.5992086723
  0
LINE
  5
41D
100
AcDbEntity
  8
0
100
AcDbLine
 62
7
  6
CONTINUOUS
 10
102.187499702
 20
119.3864427104
 11
102.3958330154
 21
119.4289959006
  0
LINE
  5
41E
100
AcDbEntity
  8
0
100
AcDbLine
 62
7
  6
CONTINUOUS
 10
110.1041660309
 20
121.1311235919
 11
110.3125
 21
121.1736767783
  0
LINE
  5
41F
100
AcDbEntity
  8
0
100
AcDbLine
 62
7
  6
CONTINUOUS
 10
110.5625
 20
119.4289959006
 11
110.3125
 21
119.3864427104
  0
LINE
  5
420
100
AcDbEntity
  8
0
100
AcDbLine
 62
7
  6
CONTINUOUS
 10
104.9791662693
 20
119.4289959006
 11
104.7291662693
 21
119.3864427104
  0
LINE
  5
421
100
AcDbEntity
  8
0
100
AcDbLine
 62
7
  6
CONTINUOUS
 10
110.3125
 20
121.3864427104
 11
110.0625
 21
121.343889524
  0
LINE
  5
422
100
AcDbEntity
  8
RUNDUNGEN
100
AcDbLine
 62
7
  6
CONTINUOUS
 10
74.1427457295
 20
114.9236206232
 11
73.9006845657
 21
114.891455737
  0
LINE
  5
423
100
AcDbEntity
  8
RUNDUNGEN
100
AcDbLine
 62
7
  6
CONTINUOUS
 10
73.9006845657
 20
114.891455737
 11
73.8663388299
 21
114.888403706
  0
LINE
  5
424
100
AcDbEntity
  8
0
100
AcDbLine
 62
7
  6
CONTINUOUS
 10
119.6
 20
117.7864427104
 11
100.4
 21
117.7864427104
  0
LINE
  5
425
100
AcDbEntity
  8
0
100
AcDbLine
 62
7
  6
CONTINUOUS
 10
118.7291669846
 20
119.3864427104
 11
118.4374990463
 21
119.3864427104
  0
LINE
  5
426
100
AcDbEntity
  8
0
100
AcDbLine
 62
7
  6
CONTINUOUS
 10
109.2291665077
 20
119.3864427104
 11
108.9791665077
 21
119.3864427104
  0
LINE
  5
427
100
AcDbEntity
  8
0
100
AcDbLine
 62
7
  6
CONTINUOUS
 10
103.6458330154
 20
119.3864427104
 11
103.3958330154
 21
119.3864427104
  0
LINE
  5
428
100
AcDbEntity
  8
0
100
AcDbLine
 62
7
  6
CONTINUOUS
 10
101.8541663289
 20
119.3864427104
 11
102.187499702
 21
119.3864427104
  0
LINE
  5
429
100
AcDbEntity
  8
0
100
AcDbLine
 62
7
  6
CONTINUOUS
 10
106.7291665077
 20
119.3864427104
 11
108.3958330154
 21
119.3864427104
  0
LINE
  5
42A
100
AcDbEntity
  8
0
100
AcDbLine
 62
7
  6
CONTINUOUS
 10
113.9791660309
 20
119.3864427104
 11
114.3125
 21
119.3864427104
  0
LINE
  5
42B
100
AcDbEntity
  8
0
100
AcDbLine
 62
7
  6
CONTINUOUS
 10
115.2708330154
 20
119.3864427104
 11
115.5208330154
 21
119.3864427104
  0
LINE
  5
42C
100
AcDbEntity
  8
0
100
AcDbLine
 62
7
  6
CONTINUOUS
 10
117.1458330154
 20
119.3864427104
 11
117.3958330154
 21
119.3864427104
  0
LINE
  5
42D
100
AcDbEntity
  8
0
100
AcDbLine
 62
7
  6
CONTINUOUS
 10
114.3125
 20
119.6417618587
 11
113.9791660309
 21
119.6417618587
  0
LINE
  5
42E
100
AcDbEntity
  8
0
100
AcDbLine
 62
7
  6
CONTINUOUS
 10
102.187499702
 20
119.6417618587
 11
101.8541663289
 21
119.6417618587
  0
LINE
  5
42F
100
AcDbEntity
  8
0
100
AcDbLine
 62
7
  6
CONTINUOUS
 10
106.9791665077
 20
119.6417618587
 11
108.3958330154
 21
119.6417618587
  0
LINE
  5
430
100
AcDbEntity
  8
0
100
AcDbLine
 62
7
  6
CONTINUOUS
 10
113.6458330154
 20
119.9396341934
 11
113.3958330154
 21
119.9396341934
  0
LINE
  5
431
100
AcDbEntity
  8
0
100
AcDbLine
 62
7
  6
CONTINUOUS
 10
101.5208330154
 20
119.9396341934
 11
101.2708330154
 21
119.9396341934
  0
LINE
  5
432
100
AcDbEntity
  8
0
100
AcDbLine
 62
7
  6
CONTINUOUS
 10
106.3958330154
 20
120.1098469391
 11
105.8124995232
 21
120.1098469391
  0
LINE
  5
433
100
AcDbEntity
  8
0
100
AcDbLine
 62
7
  6
CONTINUOUS
 10
118.1041669846
 20
120.2800597444
 11
117.3958330154
 21
120.2800597444
  0
LINE
  5
434
100
AcDbEntity
  8
0
100
AcDbLine
 62
7
  6
CONTINUOUS
 10
116.2708330154
 20
120.2800597444
 11
115.5208330154
 21
120.2800597444
  0
LINE
  5
435
100
AcDbEntity
  8
0
100
AcDbLine
 62
7
  6
CONTINUOUS
 10
101.937499702
 20
120.2800597444
 11
102.187499702
 21
120.2800597444
  0
LINE
  5
436
100
AcDbEntity
  8
0
100
AcDbLine
 62
7
  6
CONTINUOUS
 10
114.0625
 20
120.2800597444
 11
114.3125
 21
120.2800597444
  0
LINE
  5
437
100
AcDbEntity
  8
0
100
AcDbLine
 62
7
  6
CONTINUOUS
 10
106.3958330154
 20
120.3226129308
 11
105.8124995232
 21
120.3226129308
  0
LINE
  5
438
100
AcDbEntity
  8
0
100
AcDbLine
 62
7
  6
CONTINUOUS
 10
118.1874990463
 20
120.5353788629
 11
117.3958330154
 21
120.5353788629
  0
LINE
  5
439
100
AcDbEntity
  8
0
100
AcDbLine
 62
7
  6
CONTINUOUS
 10
116.3125
 20
120.5353788629
 11
115.5208330154
 21
120.5353788629
  0
LINE
  5
43A
100
AcDbEntity
  8
0
100
AcDbLine
 62
7
  6
CONTINUOUS
 10
114.3125
 20
120.5353788629
 11
114.0625
 21
120.5353788629
  0
LINE
  5
43B
100
AcDbEntity
  8
0
100
AcDbLine
 62
7
  6
CONTINUOUS
 10
102.187499702
 20
120.5353788629
 11
101.937499702
 21
120.5353788629
  0
LINE
  5
43C
100
AcDbEntity
  8
0
100
AcDbLine
 62
7
  6
CONTINUOUS
 10
114.8125
 20
120.9183576598
 11
114.5625
 21
120.9183576598
  0
LINE
  5
43D
100
AcDbEntity
  8
0
100
AcDbLine
 62
7
  6
CONTINUOUS
 10
102.6874996424
 20
120.9183576598
 11
102.4374996424
 21
120.9183576598
  0
LINE
  5
43E
100
AcDbEntity
  8
0
100
AcDbLine
 62
7
  6
CONTINUOUS
 10
101.937499702
 20
121.1311235919
 11
102.187499702
 21
121.1311235919
  0
LINE
  5
43F
100
AcDbEntity
  8
0
100
AcDbLine
 62
7
  6
CONTINUOUS
 10
114.0625
 20
121.1311235919
 11
114.3125
 21
121.1311235919
  0
LINE
  5
440
100
AcDbEntity
  8
0
100
AcDbLine
 62
7
  6
CONTINUOUS
 10
106.7291665077
 20
121.1736767783
 11
108.1874995232
 21
121.1736767783
  0
LINE
  5
441
100
AcDbEntity
  8
0
100
AcDbLine
 62
7
  6
CONTINUOUS
 10
115.5208330154
 20
121.1736767783
 11
116.3125
 21
121.1736767783
  0
LINE
  5
442
100
AcDbEntity
  8
0
100
AcDbLine
 62
7
  6
CONTINUOUS
 10
117.3958330154
 20
121.1736767783
 11
118.1874990463
 21
121.1736767783
  0
LINE
  5
443
100
AcDbEntity
  8
0
100
AcDbLine
 62
7
  6
CONTINUOUS
 10
118.1458330154
 20
121.3864427104
 11
117.1458330154
 21
121.3864427104
  0
LINE
  5
444
100
AcDbEntity
  8
0
100
AcDbLine
 62
7
  6
CONTINUOUS
 10
116.2708330154
 20
121.3864427104
 11
115.2708330154
 21
121.3864427104
  0
LINE
  5
445
100
AcDbEntity
  8
0
100
AcDbLine
 62
7
  6
CONTINUOUS
 10
108.3958330154
 20
121.3864427104
 11
106.7291665077
 21
121.3864427104
  0
LINE
  5
446
100
AcDbEntity
  8
0
100
AcDbLine
 62
7
  6
CONTINUOUS
 10
103.6458330154
 20
121.3864427104
 11
103.3958330154
 21
121.3864427104
  0
LINE
  5
447
100
AcDbEntity
  8
0
100
AcDbLine
 62
7
  6
CONTINUOUS
 10
101.937499702
 20
121.3864427104
 11
102.1458330154
 21
121.3864427104
  0
LINE
  5
448
100
AcDbEntity
  8
0
100
AcDbLine
 62
7
  6
CONTINUOUS
 10
108.9791665077
 20
121.3864427104
 11
109.2291665077
 21
121.3864427104
  0
LINE
  5
449
100
AcDbEntity
  8
0
100
AcDbLine
 62
7
  6
CONTINUOUS
 10
114.0625
 20
121.3864427104
 11
114.2708330154
 21
121.3864427104
  0
LINE
  5
44A
100
AcDbEntity
  8
RUNDUNGEN
100
AcDbLine
 62
7
  6
CONTINUOUS
 10
146.1336611762
 20
114.8884037042
 11
145.875932206
 21
114.9204665215
  0
LINE
  5
44B
100
AcDbEntity
  8
0
100
AcDbLine
 62
7
  6
CONTINUOUS
 10
104.7291662693
 20
119.3864427104
 11
104.4791662693
 21
119.4289959006
  0
LINE
  5
44C
100
AcDbEntity
  8
0
100
AcDbLine
 62
7
  6
CONTINUOUS
 10
110.3125
 20
119.3864427104
 11
110.0625
 21
119.4289959006
  0
LINE
  5
44D
100
AcDbEntity
  8
0
100
AcDbLine
 62
7
  6
CONTINUOUS
 10
104.9791662693
 20
121.343889524
 11
104.7291662693
 21
121.3864427104
  0
LINE
  5
44E
100
AcDbEntity
  8
0
100
AcDbLine
 62
7
  6
CONTINUOUS
 10
110.5625
 20
121.343889524
 11
110.3125
 21
121.3864427104
  0
LINE
  5
44F
100
AcDbEntity
  8
0
100
AcDbLine
 62
7
  6
CONTINUOUS
 10
101.6458330154
 20
119.4289959006
 11
101.8541663289
 21
119.3864427104
  0
LINE
  5
450
100
AcDbEntity
  8
0
100
AcDbLine
 62
7
  6
CONTINUOUS
 10
104.7291662693
 20
119.5992086723
 11
104.5208330154
 21
119.6417618587
  0
LINE
  5
451
100
AcDbEntity
  8
0
100
AcDbLine
 62
7
  6
CONTINUOUS
 10
102.3958330154
 20
120.4928256765
 11
102.187499702
 21
120.5353788629
  0
LINE
  5
452
100
AcDbEntity
  8
0
100
AcDbLine
 62
7
  6
CONTINUOUS
 10
110.3125
 20
119.5992086723
 11
110.1041660309
 21
119.6417618587
  0
LINE
  5
453
100
AcDbEntity
  8
0
100
AcDbLine
 62
7
  6
CONTINUOUS
 10
102.1458330154
 20
121.3864427104
 11
102.3541663885
 21
121.343889524
  0
LINE
  5
454
100
AcDbEntity
  8
0
100
AcDbLine
 62
7
  6
CONTINUOUS
 10
104.7291662693
 20
121.1736767783
 11
104.9374997616
 21
121.1311235919
  0
LINE
  5
455
100
AcDbEntity
  8
0
100
AcDbLine
 62
7
  6
CONTINUOUS
 10
113.7708330154
 20
119.4289959006
 11
113.9791660309
 21
119.3864427104
  0
LINE
  5
456
100
AcDbEntity
  8
0
100
AcDbLine
 62
7
  6
CONTINUOUS
 10
110.3125
 20
121.1736767783
 11
110.5208330154
 21
121.1311235919
  0
LINE
  5
457
100
AcDbEntity
  8
0
100
AcDbLine
 62
7
  6
CONTINUOUS
 10
114.5208330154
 20
120.4928256765
 11
114.3125
 21
120.5353788629
  0
LINE
  5
458
100
AcDbEntity
  8
0
100
AcDbLine
 62
7
  6
CONTINUOUS
 10
101.8541663289
 20
119.6417618587
 11
101.6874996722
 21
119.6843150451
  0
LINE
  5
459
100
AcDbEntity
  8
0
100
AcDbLine
 62
7
  6
CONTINUOUS
 10
101.7708330154
 20
120.3226129308
 11
101.937499702
 21
120.2800597444
  0
LINE
  5
45A
100
AcDbEntity
  8
0
100
AcDbLine
 62
7
  6
CONTINUOUS
 10
102.187499702
 20
120.2800597444
 11
102.3541663885
 21
120.237506558
  0
LINE
  5
45B
100
AcDbEntity
  8
0
100
AcDbLine
 62
7
  6
CONTINUOUS
 10
113.9791660309
 20
119.6417618587
 11
113.8125
 21
119.6843150451
  0
LINE
  5
45C
100
AcDbEntity
  8
0
100
AcDbLine
 62
7
  6
CONTINUOUS
 10
113.8958330154
 20
120.3226129308
 11
114.0625
 21
120.2800597444
  0
LINE
  5
45D
100
AcDbEntity
  8
0
100
AcDbLine
 62
7
  6
CONTINUOUS
 10
114.3125
 20
120.2800597444
 11
114.4791660309
 21
120.237506558
  0
LINE
  5
45E
100
AcDbEntity
  8
0
100
AcDbLine
 62
7
  6
CONTINUOUS
 10
101.937499702
 20
120.5353788629
 11
101.812499702
 21
120.5779320493
  0
LINE
  5
45F
100
AcDbEntity
  8
0
100
AcDbLine
 62
7
  6
CONTINUOUS
 10
102.187499702
 20
121.1311235919
 11
102.3124996424
 21
121.0885704055
  0
LINE
  5
460
100
AcDbEntity
  8
0
100
AcDbLine
 62
7
  6
CONTINUOUS
 10
114.0625
 20
120.5353788629
 11
113.9375
 21
120.5779320493
  0
LINE
  5
461
100
AcDbEntity
  8
0
100
AcDbLine
 62
7
  6
CONTINUOUS
 10
113.7291660309
 20
120.4077193036
 11
113.8958330154
 21
120.3226129308
  0
LINE
  5
462
100
AcDbEntity
  8
0
100
AcDbLine
 62
7
  6
CONTINUOUS
 10
114.6875
 20
120.4077193036
 11
114.5208330154
 21
120.4928256765
  0
LINE
  5
463
100
AcDbEntity
  8
RUNDUNGEN
100
AcDbLine
 62
7
  6
CONTINUOUS
 10
91.2989664675
 20
132.6506829231
 11
91.0842288266
 21
132.7669409658
  0
LINE
  5
464
100
AcDbEntity
  8
RUNDUNGEN
100
AcDbLine
 62
7
  6
CONTINUOUS
 10
91.0842288266
 20
132.7669409658
 11
91.0546486038
 21
132.7846597379
  0
LINE
  5
465
100
AcDbEntity
  8
0
100
AcDbLine
 62
7
  6
CONTINUOUS
 10
105.1874997616
 20
121.2162299647
 11
104.9791662693
 21
121.343889524
  0
LINE
  5
466
100
AcDbEntity
  8
0
100
AcDbLine
 62
7
  6
CONTINUOUS
 10
110.0625
 20
119.4289959006
 11
109.8541660309
 21
119.556655471
  0
LINE
  5
467
100
AcDbEntity
  8
0
100
AcDbLine
 62
7
  6
CONTINUOUS
 10
110.7708330154
 20
121.2162299647
 11
110.5625
 21
121.343889524
  0
LINE
  5
468
100
AcDbEntity
  8
0
100
AcDbLine
 62
7
  6
CONTINUOUS
 10
113.5625
 20
119.556655471
 11
113.7708330154
 21
119.4289959006
  0
LINE
  5
469
100
AcDbEntity
  8
0
100
AcDbLine
 62
7
  6
CONTINUOUS
 10
110.1041660309
 20
119.6417618587
 11
109.9791660309
 21
119.7268682315
  0
LINE
  5
46A
100
AcDbEntity
  8
0
100
AcDbLine
 62
7
  6
CONTINUOUS
 10
110.5208330154
 20
121.1311235919
 11
110.6458330154
 21
121.0460172191
  0
LINE
  5
46B
100
AcDbEntity
  8
0
100
AcDbLine
 62
7
  6
CONTINUOUS
 10
113.9375
 20
120.5779320493
 11
113.8125
 21
120.6630384221
  0
LINE
  5
46C
100
AcDbEntity
  8
0
100
AcDbLine
 62
7
  6
CONTINUOUS
 10
114.4791660309
 20
120.237506558
 11
114.6041660309
 21
120.1524001851
  0
LINE
  5
46D
100
AcDbEntity
  8
RUNDUNGEN
100
AcDbLine
 62
7
  6
CONTINUOUS
 10
91.0370460055
 20
132.6590609052
 11
91.5650086367
 21
132.2965540894
  0
LINE
  5
46E
100
AcDbEntity
  8
RUNDUNGEN
100
AcDbLine
 62
7
  6
CONTINUOUS
 10
148.898214534
 20
90.6415417381
 11
149.4061284288
 21
90.251440204
  0
LINE
  5
46F
100
AcDbEntity
  8
0
100
AcDbLine
 62
7
  6
CONTINUOUS
 10
110.8958330154
 20
121.0885704055
 11
110.7708330154
 21
121.2162299647
  0
LINE
  5
470
100
AcDbEntity
  8
0
100
AcDbLine
 62
7
  6
CONTINUOUS
 10
113.8125
 20
119.6843150451
 11
113.6875
 21
119.8119746342
  0
LINE
  5
471
100
AcDbEntity
  8
0
100
AcDbLine
 62
7
  6
CONTINUOUS
 10
113.5625
 20
120.5779320493
 11
113.7291660309
 21
120.4077193036
  0
LINE
  5
472
100
AcDbEntity
  8
0
100
AcDbLine
 62
7
  6
CONTINUOUS
 10
114.8541660309
 20
120.237506558
 11
114.6875
 21
120.4077193036
  0
LINE
  5
473
100
AcDbEntity
  8
0
100
AcDbLine
 62
7
  6
CONTINUOUS
 10
114.4375
 20
121.0885704055
 11
114.5208330154
 21
121.0034640327
  0
LINE
  5
474
100
AcDbEntity
  8
0
100
AcDbLine
 62
7
  6
CONTINUOUS
 10
114.6458330154
 20
121.2162299647
 11
114.7708330154
 21
121.0460172191
  0
LINE
  5
475
100
AcDbEntity
  8
0
100
AcDbLine
 62
7
  6
CONTINUOUS
 10
110.6458330154
 20
121.0460172191
 11
110.8125
 21
120.7906979814
  0
LINE
  5
476
100
AcDbEntity
  8
0
100
AcDbLine
 62
7
  6
CONTINUOUS
 10
114.6041660309
 20
120.1524001851
 11
114.6875
 21
120.0247405663
  0
LINE
  5
477
100
AcDbEntity
  8
0
100
AcDbLine
 62
7
  6
CONTINUOUS
 10
113.4375
 20
119.7694214478
 11
113.5625
 21
119.556655471
  0
LINE
  5
478
100
AcDbEntity
  8
0
100
AcDbLine
 62
7
  6
CONTINUOUS
 10
114.9375
 20
120.0672937527
 11
114.8541660309
 21
120.237506558
  0
LINE
  5
479
100
AcDbEntity
  8
0
100
AcDbLine
 62
7
  6
CONTINUOUS
 10
114.5208330154
 20
121.0034640327
 11
114.5625
 21
120.9183576598
  0
LINE
  5
47A
100
AcDbEntity
  8
RUNDUNGEN
100
AcDbLine
 62
7
  6
CONTINUOUS
 10
108.0600121502
 20
130.887493453
 11
107.9299448646
 21
131.2092096599
  0
LINE
  5
47B
100
AcDbEntity
  8
RUNDUNGEN
100
AcDbLine
 62
7
  6
CONTINUOUS
 10
132.4011335826
 20
70.2120740742
 11
132.5051077036
 21
69.92109112
  0
LINE
  5
47C
100
AcDbEntity
  8
RUNDUNGEN
100
AcDbLine
 62
7
  6
CONTINUOUS
 10
112.0287559316
 20
132.922001446
 11
112.1271544011
 21
132.6331317731
  0
LINE
  5
47D
100
AcDbEntity
  8
0
100
AcDbLine
 62
7
  6
CONTINUOUS
 10
113.6875
 20
119.8119746342
 11
113.6458330154
 21
119.9396341934
  0
LINE
  5
47E
100
AcDbEntity
  8
0
100
AcDbLine
 62
7
  6
CONTINUOUS
 10
113.8125
 20
120.6630384221
 11
113.7708330154
 21
120.7906979814
  0
LINE
  5
47F
100
AcDbEntity
  8
0
100
AcDbLine
 62
7
  6
CONTINUOUS
 10
114.7708330154
 20
121.0460172191
 11
114.8125
 21
120.9183576598
  0
LINE
  5
480
100
AcDbEntity
  8
0
100
AcDbLine
 62
7
  6
CONTINUOUS
 10
116.5208330154
 20
121.0460172191
 11
116.5625
 21
120.9183576598
  0
LINE
  5
481
100
AcDbEntity
  8
0
100
AcDbLine
 62
7
  6
CONTINUOUS
 10
116.8125
 20
120.9183576598
 11
116.7708330154
 21
121.0460172191
  0
LWPOLYLINE
  5
482
100
AcDbEntity
  8
RUNDUNGEN
100
AcDbPolyline
 62
7
  6
CONTINUOUS
 90
3
 70
0
 10
132.6066494414
 20
69.4981546312
 10
132.6209086946
 20
69.4490062531
 10
132.6599549159
 20
69.3633426076
  0
LINE
  5
483
100
AcDbEntity
  8
0
100
AcDbLine
 62
7
  6
CONTINUOUS
 10
113.5208330154
 20
120.748144795
 11
113.5625
 21
120.5779320493
  0
LWPOLYLINE
  5
484
100
AcDbEntity
  8
RUNDUNGEN
100
AcDbPolyline
 62
7
  6
CONTINUOUS
 90
22
 70
0
 10
112.1271544011
 20
132.6331317731
 10
112.1875342707
 20
132.3165544363
 10
112.2035037111
 20
131.9691262892
 10
112.1697377968
 20
131.6138276536
 10
112.0873669118
 20
131.2630133876
 10
111.9632931101
 20
130.936387884
 10
111.8032985979
 20
130.640289203
 10
111.6144476667
 20
130.3816181294
 10
111.4015312457
 20
130.162568148
 10
111.1660966626
 20
129.9830268424
 10
110.9175831834
 20
129.8486927498
 10
110.6437955913
 20
129.7524477948
 10
110.3284032653
 20
129.687712187
 10
110.0242035823
 20
129.6650534095
 10
109.7208229639
 20
129.6813981727
 10
109.4054974449
 20
129.7395096007
 10
109.1234571286
 20
129.8312568185
 10
108.8730128853
 20
129.95876712
 10
108.6351389095
 20
130.1312517739
 10
108.4182647103
 20
130.3442992121
 10
108.224862688
 20
130.5973665924
 10
108.0600121502
 20
130.887493453
  0
LINE
  5
485
100
AcDbEntity
  8
RUNDUNGEN
100
AcDbLine
 62
7
  6
CONTINUOUS
 10
130.9768178942
 20
130.8733763298
 11
130.7983726583
 21
130.4629803839
  0
LINE
  5
486
100
AcDbEntity
  8
RUNDUNGEN
100
AcDbLine
 62
7
  6
CONTINUOUS
 10
129.7367590986
 20
127.7327754496
 11
131.0823745034
 21
130.8274790098
  0
LWPOLYLINE
  5
487
100
AcDbEntity
  8
RUNDUNGEN
100
AcDbPolyline
 62
7
  6
CONTINUOUS
 90
3
 70
0
 10
90.3507591848
 20
67.1759307436
 10
90.2946107732
 20
67.1005955735
 10
90.2632387811
 20
67.0401108932
  0
LINE
  5
488
100
AcDbEntity
  8
0
100
AcDbLine
 62
7
  6
CONTINUOUS
 10
101.7708330154
 20
121.343889524
 11
101.937499702
 21
121.3864427104
  0
LINE
  5
489
100
AcDbEntity
  8
RUNDUNGEN
100
AcDbLine
 62
7
  6
CONTINUOUS
 10
74.3818582815
 20
114.9741781091
 11
74.1427457295
 21
114.9236206232
  0
LINE
  5
48A
100
AcDbEntity
  8
0
100
AcDbLine
 62
7
  6
CONTINUOUS
 10
104.5208330154
 20
121.1311235919
 11
104.7291662693
 21
121.1736767783
  0
LINE
  5
48B
100
AcDbEntity
  8
0
100
AcDbLine
 62
7
  6
CONTINUOUS
 10
104.7291662693
 20
121.3864427104
 11
104.4791662693
 21
121.343889524
  0
LINE
  5
48C
100
AcDbEntity
  8
RUNDUNGEN
100
AcDbLine
 62
7
  6
CONTINUOUS
 10
84.1585553631
 20
123.2278873473
 11
83.5566845762
 21
123.2082222169
  0
LINE
  5
48D
100
AcDbEntity
  8
RUNDUNGEN
100
AcDbLine
 62
7
  6
CONTINUOUS
 10
131.4482676305
 20
123.8847958952
 11
129.120511911
 21
123.8847958952
  0
LINE
  5
48E
100
AcDbEntity
  8
RUNDUNGEN
100
AcDbLine
 62
7
  6
CONTINUOUS
 10
90.8826350341
 20
123.8847958952
 11
88.5517250285
 21
123.8847958952
  0
LINE
  5
48F
100
AcDbEntity
  8
RUNDUNGEN
100
AcDbLine
 62
7
  6
CONTINUOUS
 10
135.8414446369
 20
123.2278873473
 11
136.4433154238
 21
123.2082222169
  0
LINE
  5
490
100
AcDbEntity
  8
0
100
AcDbLine
 62
7
  6
CONTINUOUS
 10
114.2708330154
 20
121.3864427104
 11
114.4791660309
 21
121.343889524
  0
LINE
  5
491
100
AcDbEntity
  8
0
100
AcDbLine
 62
7
  6
CONTINUOUS
 10
116.4791660309
 20
121.343889524
 11
116.2708330154
 21
121.3864427104
  0
LINE
  5
492
100
AcDbEntity
  8
0
100
AcDbLine
 62
7
  6
CONTINUOUS
 10
118.3541669846
 20
121.343889524
 11
118.1458330154
 21
121.3864427104
  0
LINE
  5
493
100
AcDbEntity
  8
RUNDUNGEN
100
AcDbLine
 62
7
  6
CONTINUOUS
 10
145.875932206
 20
114.9204665215
 11
145.6365024224
 21
114.9696163722
  0
LINE
  5
494
100
AcDbEntity
  8
RUNDUNGEN
100
AcDbLine
 62
7
  6
CONTINUOUS
 10
145.6365024224
 20
114.9696163722
 11
145.4013453851
 21
115.0369150198
  0
LINE
  5
495
100
AcDbEntity
  8
0
100
AcDbLine
 62
7
  6
CONTINUOUS
 10
114.3125
 20
121.1311235919
 11
114.4375
 21
121.0885704055
  0
LINE
  5
496
100
AcDbEntity
  8
0
100
AcDbLine
 62
7
  6
CONTINUOUS
 10
116.3125
 20
121.1736767783
 11
116.4375
 21
121.1311235919
  0
LINE
  5
497
100
AcDbEntity
  8
0
100
AcDbLine
 62
7
  6
CONTINUOUS
 10
118.1874990463
 20
121.1736767783
 11
118.3124990463
 21
121.1311235919
  0
LINE
  5
498
100
AcDbEntity
  8
RUNDUNGEN
100
AcDbLine
 62
7
  6
CONTINUOUS
 10
91.7523927019
 20
132.4686299201
 11
91.5221295303
 21
132.5510379568
  0
LINE
  5
499
100
AcDbEntity
  8
RUNDUNGEN
100
AcDbLine
 62
7
  6
CONTINUOUS
 10
91.5221295303
 20
132.5510379568
 11
91.2989664675
 21
132.6506829231
  0
LINE
  5
49A
100
AcDbEntity
  8
0
100
AcDbLine
 62
7
  6
CONTINUOUS
 10
114.4791660309
 20
121.343889524
 11
114.6458330154
 21
121.2162299647
  0
LINE
  5
49B
100
AcDbEntity
  8
0
100
AcDbLine
 62
7
  6
CONTINUOUS
 10
116.6458330154
 20
121.2162299647
 11
116.4791660309
 21
121.343889524
  0
LINE
  5
49C
100
AcDbEntity
  8
0
100
AcDbLine
 62
7
  6
CONTINUOUS
 10
118.5208330154
 20
121.2162299647
 11
118.3541669846
 21
121.343889524
  0
LINE
  5
49D
100
AcDbEntity
  8
RUNDUNGEN
100
AcDbLine
 62
7
  6
CONTINUOUS
 10
149.5201405189
 20
90.3069934385
 11
149.3304794532
 21
90.4844220904
  0
LINE
  5
49E
100
AcDbEntity
  8
0
100
AcDbLine
 62
7
  6
CONTINUOUS
 10
130.4
 20
106.9864427104
 11
129.2
 21
108.1864427104
  0
LINE
  5
49F
100
AcDbEntity
  8
0
100
AcDbLine
 62
7
  6
CONTINUOUS
 10
120.8
 20
116.5864427104
 11
119.6
 21
117.7864427104
  0
LINE
  5
4A0
100
AcDbEntity
  8
0
100
AcDbLine
 62
7
  6
CONTINUOUS
 10
116.4375
 20
121.1311235919
 11
116.5208330154
 21
121.0460172191
  0
LINE
  5
4A1
100
AcDbEntity
  8
0
100
AcDbLine
 62
7
  6
CONTINUOUS
 10
118.3124990463
 20
121.1311235919
 11
118.3958330154
 21
121.0460172191
  0
LINE
  5
4A2
100
AcDbEntity
  8
RUNDUNGEN
100
AcDbLine
 62
7
  6
CONTINUOUS
 10
149.3304794532
 20
90.4844220904
 11
149.1656662466
 21
90.6649184507
  0
LINE
  5
4A3
100
AcDbEntity
  8
0
100
AcDbLine
 62
7
  6
CONTINUOUS
 10
116.7708330154
 20
121.0460172191
 11
116.6458330154
 21
121.2162299647
  0
LINE
  5
4A4
100
AcDbEntity
  8
0
100
AcDbLine
 62
7
  6
CONTINUOUS
 10
118.6458330154
 20
121.0460172191
 11
118.5208330154
 21
121.2162299647
  0
LINE
  5
4A5
100
AcDbEntity
  8
RUNDUNGEN
100
AcDbLine
 62
7
  6
CONTINUOUS
 10
111.8968408026
 20
133.2363975543
 11
112.0287550657
 21
132.9220010827
  0
LINE
  5
4A6
100
AcDbEntity
  8
0
100
AcDbLine
 62
7
  6
CONTINUOUS
 10
118.3541669846
 20
120.3651661172
 11
118.7291669846
 21
119.3864427104
  0
LINE
  5
4A7
100
AcDbEntity
  8
0
100
AcDbLine
 62
7
  6
CONTINUOUS
 10
118.4374990463
 20
119.3864427104
 11
118.1041669846
 21
120.2800597444
  0
LINE
  5
4A8
100
AcDbEntity
  8
RUNDUNGEN
100
AcDbLine
 62
7
  6
CONTINUOUS
 10
115.3913727395
 20
137.068734964
 11
115.6054273204
 21
136.4651321411
  0
LINE
  5
4A9
100
AcDbEntity
  8
0
100
AcDbLine
 62
7
  6
CONTINUOUS
 10
118.3958330154
 20
121.0460172191
 11
118.4374990463
 21
120.9183576598
  0
LINE
  5
4AA
100
AcDbEntity
  8
0
100
AcDbLine
 62
7
  6
CONTINUOUS
 10
118.6874990463
 20
120.9183576598
 11
118.6458330154
 21
121.0460172191
  0
LINE
  5
4AB
100
AcDbEntity
  8
RUNDUNGEN
100
AcDbLine
 62
7
  6
CONTINUOUS
 10
137.5047632892
 20
69.0659063548
 11
137.6863783331
 21
68.4517632874
  0
LINE
  5
4AC
100
AcDbEntity
  8
RUNDUNGEN
100
AcDbLine
 62
7
  6
CONTINUOUS
 10
132.5051077036
 20
69.92109112
 11
132.5285796443
 21
69.8300456117
  0
LINE
  5
4AD
100
AcDbEntity
  8
RUNDUNGEN
100
AcDbLine
 62
7
  6
CONTINUOUS
 10
132.5285744681
 20
69.830044394
 11
132.6066511975
 21
69.4981550441
  0
LWPOLYLINE
  5
4AE
100
AcDbEntity
  8
RUNDUNGEN
100
AcDbPolyline
 62
7
  6
CONTINUOUS
 90
3
 70
0
 10
132.5355535561
 20
70.3459947647
 10
132.5603545525
 20
70.0775704004
 10
132.5993392922
 20
69.8721757328
  0
LINE
  5
4AF
100
AcDbEntity
  8
0
100
AcDbLine
 62
7
  6
CONTINUOUS
 10
129.2
 20
79.5524681142
 11
129.2
 21
86.5864427104
  0
LINE
  5
4B0
100
AcDbEntity
  8
0
100
AcDbLine
 62
7
  6
CONTINUOUS
 10
129.2
 20
108.1864427104
 11
129.2
 21
115.2204173066
  0
LINE
  5
4B1
100
AcDbEntity
  8
RUNDUNGEN
100
AcDbLine
 62
7
  6
CONTINUOUS
 10
132.6066511975
 20
125.274730377
 11
132.5285744689
 21
124.9428410304
  0
LINE
  5
4B2
100
AcDbEntity
  8
RUNDUNGEN
100
AcDbLine
 62
7
  6
CONTINUOUS
 10
132.5285711382
 20
124.9428418141
 11
132.5139470641
 21
124.8843102169
  0
LINE
  5
4B3
100
AcDbEntity
  8
RUNDUNGEN
100
AcDbLine
 62
7
  6
CONTINUOUS
 10
132.6280847566
 20
125.3432789201
 11
132.6066489299
 21
125.2747309104
  0
LINE
  5
4B4
100
AcDbEntity
  8
RUNDUNGEN
100
AcDbLine
 62
7
  6
CONTINUOUS
 10
112.1343848453
 20
62.1677022671
 11
112.0471343056
 21
61.896046191
  0
LWPOLYLINE
  5
4B5
100
AcDbEntity
  8
RUNDUNGEN
100
AcDbPolyline
 62
7
  6
CONTINUOUS
 90
3
 70
0
 10
132.5139470641
 20
124.8843102169
 10
132.4187866595
 20
124.6023021735
 10
132.3359587501
 20
124.4243472231
  0
LWPOLYLINE
  5
4B6
100
AcDbEntity
  8
RUNDUNGEN
100
AcDbPolyline
 62
7
  6
CONTINUOUS
 90
3
 70
0
 10
111.8968391393
 20
61.5364885649
 10
111.8794864195
 20
61.4883452926
 10
111.8607236522
 20
61.3960911506
  0
LWPOLYLINE
  5
4B7
100
AcDbEntity
  8
RUNDUNGEN
100
AcDbPolyline
 62
7
  6
CONTINUOUS
 90
4
 70
0
 10
87.237917682
 20
69.2381354643
 10
87.2721340606
 20
69.2714607648
 10
87.3293640394
 20
69.3456321384
 10
87.3719152434
 20
69.4296065007
  0
LINE
  5
4B8
100
AcDbEntity
  8
RUNDUNGEN
100
AcDbLine
 62
7
  6
CONTINUOUS
 10
84.9693939159
 20
67.3848026092
 11
84.6342267878
 21
67.0882717831
  0
LINE
  5
4B9
100
AcDbEntity
  8
RUNDUNGEN
100
AcDbLine
 62
7
  6
CONTINUOUS
 10
84.7104965191
 20
67.0020645339
 11
87.237916478
 21
69.2381368256
  0
LWPOLYLINE
  5
4BA
100
AcDbEntity
  8
RUNDUNGEN
100
AcDbPolyline
 62
7
  6
CONTINUOUS
 90
6
 70
0
 10
141.5343207587
 20
109.8129242135
 10
141.8412538304
 20
110.0057369593
 10
142.1703466828
 20
110.1546932563
 10
142.5097177974
 20
110.2537200582
 10
142.8341822709
 20
110.2994661443
 10
143.1197798997
 20
110.3005787143
  0
LINE
  5
4BB
100
AcDbEntity
  8
RUNDUNGEN
100
AcDbLine
 62
7
  6
CONTINUOUS
 10
146.6537278903
 20
112.1480768998
 11
146.2681379773
 21
111.9209470831
  0
LINE
  5
4BC
100
AcDbEntity
  8
RUNDUNGEN
100
AcDbLine
 62
7
  6
CONTINUOUS
 10
143.8045003699
 20
110.3361656871
 11
146.7121472132
 21
112.0489005697
  0
LINE
  5
4BD
100
AcDbEntity
  8
RUNDUNGEN
100
AcDbLine
 62
7
  6
CONTINUOUS
 10
128.2656027208
 20
132.4743634961
 11
128.0460589099
 21
132.412232425
  0
LINE
  5
4BE
100
AcDbEntity
  8
RUNDUNGEN
100
AcDbLine
 62
7
  6
CONTINUOUS
 10
125.148614693
 20
131.7525219902
 11
128.055121493
 21
132.4138460644
  0
LINE
  5
4BF
100
AcDbEntity
  8
RUNDUNGEN
100
AcDbLine
 62
7
  6
CONTINUOUS
 10
91.9448757043
 20
132.4138467021
 11
94.8513823976
 21
131.7525226522
  0
LINE
  5
4C0
100
AcDbEntity
  8
RUNDUNGEN
100
AcDbLine
 62
7
  6
CONTINUOUS
 10
91.9541015249
 20
132.4121931195
 11
91.7523927019
 21
132.4686299201
  0
LINE
  5
4C1
100
AcDbEntity
  8
RUNDUNGEN
100
AcDbLine
 62
7
  6
CONTINUOUS
 10
145.4013453851
 20
115.0369150198
 11
145.1872109837
 21
115.1156945417
  0
LINE
  5
4C2
100
AcDbEntity
  8
RUNDUNGEN
100
AcDbLine
 62
7
  6
CONTINUOUS
 10
142.4553613077
 20
116.2850525686
 11
145.1954938832
 21
115.1116720192
  0
LINE
  5
4C3
100
AcDbEntity
  8
RUNDUNGEN
100
AcDbLine
 62
7
  6
CONTINUOUS
 10
149.1656662466
 20
90.6649184507
 11
149.0149773597
 21
90.8575860388
  0
LINE
  5
4C4
100
AcDbEntity
  8
RUNDUNGEN
100
AcDbLine
 62
7
  6
CONTINUOUS
 10
115.8581678492
 20
136.4942028224
 11
115.7203192587
 21
136.6962176209
  0
LINE
  5
4C5
100
AcDbEntity
  8
RUNDUNGEN
100
AcDbLine
 62
7
  6
CONTINUOUS
 10
115.7203192587
 20
136.6962176209
 11
115.5983463901
 21
136.9080040492
  0
LINE
  5
4C6
100
AcDbEntity
  8
RUNDUNGEN
100
AcDbLine
 62
7
  6
CONTINUOUS
 10
115.5983463901
 20
136.9080040492
 11
115.4929547523
 21
137.1282783999
  0
LINE
  5
4C7
100
AcDbEntity
  8
RUNDUNGEN
100
AcDbLine
 62
7
  6
CONTINUOUS
 10
115.4929547523
 20
137.1282783999
 11
115.4794386823
 21
137.1600000064
  0
LINE
  5
4C8
100
AcDbEntity
  8
RUNDUNGEN
100
AcDbLine
 62
7
  6
CONTINUOUS
 10
137.8112694253
 20
68.4296921735
 11
137.762120002
 21
68.6847171941
  0
LINE
  5
4C9
100
AcDbEntity
  8
RUNDUNGEN
100
AcDbLine
 62
7
  6
CONTINUOUS
 10
132.5336905579
 20
70.4419850164
 11
132.5355583155
 21
70.3448482327
  0
LINE
  5
4CA
100
AcDbEntity
  8
0
100
AcDbLine
 62
7
  6
CONTINUOUS
 10
130.15
 20
91.9281092181
 11
130.15
 21
92.9281092181
  0
LINE
  5
4CB
100
AcDbEntity
  8
0
100
AcDbLine
 62
7
  6
CONTINUOUS
 10
130.15
 20
93.5947758451
 11
130.15
 21
94.011442472
  0
LINE
  5
4CC
100
AcDbEntity
  8
0
100
AcDbLine
 62
7
  6
CONTINUOUS
 10
130.15
 20
94.6781092181
 11
130.15
 21
97.6781092181
  0
LINE
  5
4CD
100
AcDbEntity
  8
0
100
AcDbLine
 62
7
  6
CONTINUOUS
 10
130.15
 20
98.3447757259
 11
130.15
 21
98.8447757259
  0
LINE
  5
4CE
100
AcDbEntity
  8
0
100
AcDbLine
 62
7
  6
CONTINUOUS
 10
130.15
 20
99.5114427104
 11
130.15
 21
102.8447762027
  0
LINE
  5
4CF
100
AcDbEntity
  8
0
100
AcDbLine
 62
7
  6
CONTINUOUS
 10
130.4
 20
87.7864427104
 11
130.4
 21
106.9864427104
  0
LINE
  5
4D0
100
AcDbEntity
  8
RUNDUNGEN
100
AcDbLine
 62
7
  6
CONTINUOUS
 10
137.6863783331
 20
126.3211221334
 11
137.5047632892
 21
125.706979066
  0
LINE
  5
4D1
100
AcDbEntity
  8
RUNDUNGEN
100
AcDbLine
 62
7
  6
CONTINUOUS
 10
115.6054273204
 20
58.3077532798
 11
115.3913727395
 21
57.7041504568
  0
LINE
  5
4D2
100
AcDbEntity
  8
RUNDUNGEN
100
AcDbLine
 62
7
  6
CONTINUOUS
 10
112.0471343056
 20
61.896046191
 11
112.0287664921
 21
61.8508795474
  0
LINE
  5
4D3
100
AcDbEntity
  8
RUNDUNGEN
100
AcDbLine
 62
7
  6
CONTINUOUS
 10
112.028755067
 20
61.8508843412
 11
111.8968408027
 21
61.5364878667
  0
LINE
  5
4D4
100
AcDbEntity
  8
RUNDUNGEN
100
AcDbLine
 62
7
  6
CONTINUOUS
 10
141.2669019181
 20
109.590839089
 11
141.5343207587
 21
109.8129242135
  0
LWPOLYLINE
  5
4D5
100
AcDbEntity
  8
RUNDUNGEN
100
AcDbPolyline
 62
7
  6
CONTINUOUS
 90
3
 70
0
 10
91.0777320748
 20
67.6841435893
 10
90.8331971234
 20
67.4954448723
 10
90.7540230117
 20
67.445095116
  0
LWPOLYLINE
  5
4D6
100
AcDbEntity
  8
RUNDUNGEN
100
AcDbPolyline
 62
7
  6
CONTINUOUS
 90
3
 70
0
 10
144.822904672
 20
106.7464695175
 10
144.7391211088
 20
106.7035437855
 10
144.6814876854
 20
106.6606869639
  0
LINE
  5
4D7
100
AcDbEntity
  8
RUNDUNGEN
100
AcDbLine
 62
7
  6
CONTINUOUS
 10
115.9816891016
 20
136.3367435978
 11
117.9443858872
 21
134.0933194327
  0
LINE
  5
4D8
100
AcDbEntity
  8
RUNDUNGEN
100
AcDbLine
 62
7
  6
CONTINUOUS
 10
115.9881809942
 20
136.3299830219
 11
115.8581678492
 21
136.4942028224
  0
LINE
  5
4D9
100
AcDbEntity
  8
RUNDUNGEN
100
AcDbLine
 62
7
  6
CONTINUOUS
 10
149.0149773597
 20
90.8575860388
 11
148.8880444308
 21
91.0471850543
  0
LINE
  5
4DA
100
AcDbEntity
  8
RUNDUNGEN
100
AcDbLine
 62
7
  6
CONTINUOUS
 10
147.3652630199
 20
93.5989565213
 11
148.8923795866
 21
91.0390646654
  0
LINE
  5
4DB
100
AcDbEntity
  8
RUNDUNGEN
100
AcDbLine
 62
7
  6
CONTINUOUS
 10
128.1582597147
 20
124.6126953183
 11
128.1364655082
 21
124.6968676702
  0
LWPOLYLINE
  5
4DC
100
AcDbEntity
  8
RUNDUNGEN
100
AcDbPolyline
 62
7
  6
CONTINUOUS
 90
11
 70
0
 10
128.1364655082
 20
124.6968676702
 10
128.0889151366
 20
124.9957163784
 10
128.0836989596
 20
125.3123297137
 10
128.1224656565
 20
125.6392882713
 10
128.2053546697
 20
125.9671028939
 10
128.3300753542
 20
126.2846878261
 10
128.4935279556
 20
126.5826071456
 10
128.693783127
 20
126.8546699851
 10
128.9216423836
 20
127.0881836988
 10
129.1662485382
 20
127.2770704575
 10
129.2459773075
 20
127.3277897785
  0
LWPOLYLINE
  5
4DD
100
AcDbEntity
  8
RUNDUNGEN
100
AcDbPolyline
 62
7
  6
CONTINUOUS
 90
3
 70
0
 10
137.762120002
 20
68.6847171941
 10
137.7348764749
 20
68.9276180511
 10
137.7262140594
 20
69.1720628056
  0
LINE
  5
4DE
100
AcDbEntity
  8
RUNDUNGEN
100
AcDbLine
 62
7
  6
CONTINUOUS
 10
137.7349804535
 20
125.3726425972
 11
137.7263220078
 21
125.5819385272
  0
LWPOLYLINE
  5
4DF
100
AcDbEntity
  8
RUNDUNGEN
100
AcDbPolyline
 62
7
  6
CONTINUOUS
 90
3
 70
0
 10
137.7263220078
 20
125.5819385272
 10
137.7335413349
 20
125.8263976987
 10
137.7593481357
 20
126.0694311065
  0
LINE
  5
4E0
100
AcDbEntity
  8
RUNDUNGEN
100
AcDbLine
 62
7
  6
CONTINUOUS
 10
137.7593481357
 20
126.0694311065
 11
137.8035585849
 21
126.309585025
  0
LINE
  5
4E1
100
AcDbEntity
  8
RUNDUNGEN
100
AcDbLine
 62
7
  6
CONTINUOUS
 10
137.8035585849
 20
126.309585025
 11
137.8112694247
 21
126.343193241
  0
LINE
  5
4E2
100
AcDbEntity
  8
RUNDUNGEN
100
AcDbLine
 62
7
  6
CONTINUOUS
 10
128.1221969572
 20
70.0233796957
 11
128.1565885036
 21
70.1629823667
  0
LINE
  5
4E3
100
AcDbEntity
  8
RUNDUNGEN
100
AcDbLine
 62
7
  6
CONTINUOUS
 10
115.4794386786
 20
57.6128854092
 11
115.5895748617
 21
57.8480922703
  0
LWPOLYLINE
  5
4E4
100
AcDbEntity
  8
RUNDUNGEN
100
AcDbPolyline
 62
7
  6
CONTINUOUS
 90
3
 70
0
 10
112.283932859
 20
62.1809349701
 10
112.23700951
 20
62.1016257476
 10
112.1071730734
 20
61.836014624
  0
LINE
  5
4E5
100
AcDbEntity
  8
RUNDUNGEN
100
AcDbLine
 62
7
  6
CONTINUOUS
 10
141.0408590933
 20
109.345984363
 11
141.2669019181
 21
109.590839089
  0
LINE
  5
4E6
100
AcDbEntity
  8
RUNDUNGEN
100
AcDbLine
 62
7
  6
CONTINUOUS
 10
144.6814892068
 20
106.6606851991
 11
144.4232441433
 21
106.4380734272
  0
LWPOLYLINE
  5
4E7
100
AcDbEntity
  8
RUNDUNGEN
100
AcDbPolyline
 62
7
  6
CONTINUOUS
 90
22
 70
0
 10
144.4232460673
 20
106.4380711951
 10
144.194022352
 20
106.2650871302
 10
143.9159132212
 20
106.1090773865
 10
143.5919952376
 20
105.9837709792
 10
143.2434669971
 20
105.902814956
 10
142.882808652
 20
105.8694712877
 10
142.5325543299
 20
105.8835443858
 10
142.200507015
 20
105.9413142982
 10
141.8959092252
 20
106.0379570341
 10
141.6209603883
 20
106.1700001442
 10
141.3744902304
 20
106.3375285884
 10
141.1676704507
 20
106.5321077188
 10
140.9836321255
 20
106.7720249108
 10
140.824103907
 20
107.0503534531
 10
140.7071818015
 20
107.3353213031
 10
140.6276420743
 20
107.6324529443
 10
140.5859991383
 20
107.9481175795
 10
140.5863530304
 20
108.2585535505
 10
140.6307531109
 20
108.5357457045
 10
140.7227129599
 20
108.8157518837
 10
140.859215787
 20
109.0859592129
 10
141.0408590933
 20
109.345984363
  0
LWPOLYLINE
  5
4E8
100
AcDbEntity
  8
RUNDUNGEN
100
AcDbPolyline
 62
7
  6
CONTINUOUS
 90
3
 70
0
 10
90.4625007573
 20
67.2682864871
 10
90.4201642065
 20
67.2395374344
 10
90.3507591848
 20
67.1759307436
  0
LINE
  5
4E9
100
AcDbEntity
  8
RUNDUNGEN
100
AcDbLine
 62
7
  6
CONTINUOUS
 10
90.7540201852
 20
67.4450997762
 11
90.4625016925
 21
67.2682849445
  0
LINE
  5
4EA
100
AcDbEntity
  8
RUNDUNGEN
100
AcDbLine
 62
7
  6
CONTINUOUS
 10
105.4424902581
 20
137.6577680534
 11
106.2284447915
 21
137.6577680534
  0
LINE
  5
4EB
100
AcDbEntity
  8
RUNDUNGEN
100
AcDbLine
 62
7
  6
CONTINUOUS
 10
113.7715552085
 20
137.6577680534
 11
114.5575097419
 21
137.6577680534
  0
LINE
  5
4EC
100
AcDbEntity
  8
RUNDUNGEN
100
AcDbLine
 62
7
  6
CONTINUOUS
 10
114.5575097419
 20
137.772871319
 11
113.7715552085
 21
137.772871319
  0
LINE
  5
4ED
100
AcDbEntity
  8
RUNDUNGEN
100
AcDbLine
 62
7
  6
CONTINUOUS
 10
106.2284447915
 20
137.772871319
 11
105.4424902581
 21
137.772871319
  0
LINE
  5
4EE
100
AcDbEntity
  8
AUSFORMSCHRAEGEN
100
AcDbLine
 62
7
  6
CONTINUOUS
 10
136.4433154238
 20
123.2082222169
 11
135.8574922083
 21
123.6338476969
  0
LINE
  5
4EF
100
AcDbEntity
  8
RUNDUNGEN
100
AcDbLine
 62
7
  6
CONTINUOUS
 10
129.9837882937
 20
132.6454663124
 11
130.619638868
 21
132.1834938287
  0
LINE
  5
4F0
100
AcDbEntity
  8
RUNDUNGEN
100
AcDbLine
 62
7
  6
CONTINUOUS
 10
136.7221433858
 20
127.7497647691
 11
137.3579939601
 21
127.2877922855
  0
LINE
  5
4F1
100
AcDbEntity
  8
RUNDUNGEN
100
AcDbLine
 62
7
  6
CONTINUOUS
 10
137.7337005723
 20
125.3819494266
 11
138.0029039877
 21
122.4133369261
  0
LINE
  5
4F2
100
AcDbEntity
  8
RUNDUNGEN
100
AcDbLine
 62
7
  6
CONTINUOUS
 10
137.7262140594
 20
69.1720628056
 11
137.7349770316
 21
69.4001966269
  0
LINE
  5
4F3
100
AcDbEntity
  8
RUNDUNGEN
100
AcDbLine
 62
7
  6
CONTINUOUS
 10
138.0029042572
 20
72.3595514663
 11
137.7337008317
 21
69.3909388547
  0
LINE
  5
4F4
100
AcDbEntity
  8
RUNDUNGEN
100
AcDbLine
 62
7
  6
CONTINUOUS
 10
115.5895748617
 20
57.8480922703
 11
115.7103070196
 21
58.0606153871
  0
LINE
  5
4F5
100
AcDbEntity
  8
0
100
AcDbLine
 62
7
  6
CONTINUOUS
 10
119.6
 20
76.9864427104
 11
120.8
 21
78.1864427104
  0
LINE
  5
4F6
100
AcDbEntity
  8
0
100
AcDbLine
 62
7
  6
CONTINUOUS
 10
129.2
 20
86.5864427104
 11
130.4
 21
87.7864427104
  0
LINE
  5
4F7
100
AcDbEntity
  8
RUNDUNGEN
100
AcDbLine
 62
7
  6
CONTINUOUS
 10
149.3172226204
 20
104.2749329935
 11
149.4941481699
 21
104.4432349152
  0
LINE
  5
4F8
100
AcDbEntity
  8
RUNDUNGEN
100
AcDbLine
 62
7
  6
CONTINUOUS
 10
149.4941481699
 20
104.4432349152
 11
149.5201405151
 21
104.4658919772
  0
LINE
  5
4F9
100
AcDbEntity
  8
RUNDUNGEN
100
AcDbLine
 62
7
  6
CONTINUOUS
 10
149.4061284288
 20
104.5214452168
 11
148.898214534
 21
104.1313436827
  0
LINE
  5
4FA
100
AcDbEntity
  8
RUNDUNGEN
100
AcDbLine
 62
7
  6
CONTINUOUS
 10
91.5650086367
 20
62.4763313314
 11
91.0370460055
 21
62.1138245156
  0
LINE
  5
4FB
100
AcDbEntity
  8
RUNDUNGEN
100
AcDbLine
 62
7
  6
CONTINUOUS
 10
137.4256499621
 20
127.3809127834
 11
136.7897993878
 21
127.8428852671
  0
LINE
  5
4FC
100
AcDbEntity
  8
RUNDUNGEN
100
AcDbLine
 62
7
  6
CONTINUOUS
 10
130.68729487
 20
132.2766143267
 11
130.0514442957
 21
132.7385868103
  0
LINE
  5
4FD
100
AcDbEntity
  8
RUNDUNGEN
100
AcDbLine
 62
7
  6
CONTINUOUS
 10
148.8923810581
 20
103.7338232221
 11
147.3652645486
 21
101.173931462
  0
LINE
  5
4FE
100
AcDbEntity
  8
RUNDUNGEN
100
AcDbLine
 62
7
  6
CONTINUOUS
 10
148.8879574736
 20
103.7255599326
 11
149.0039635135
 21
103.8999564904
  0
LINE
  5
4FF
100
AcDbEntity
  8
RUNDUNGEN
100
AcDbLine
 62
7
  6
CONTINUOUS
 10
115.7103070196
 20
58.0606153871
 11
115.8469793578
 21
58.2634665939
  0
LINE
  5
500
100
AcDbEntity
  8
RUNDUNGEN
100
AcDbLine
 62
7
  6
CONTINUOUS
 10
149.0039635135
 20
103.8999564904
 11
149.1534934469
 21
104.0934842965
  0
LINE
  5
501
100
AcDbEntity
  8
RUNDUNGEN
100
AcDbLine
 62
7
  6
CONTINUOUS
 10
115.8469793578
 20
58.2634665939
 11
115.9880743048
 21
58.442776301
  0
LINE
  5
502
100
AcDbEntity
  8
RUNDUNGEN
100
AcDbLine
 62
7
  6
CONTINUOUS
 10
149.1534934469
 20
104.0934842965
 11
149.3172226204
 21
104.2749329935
  0
LINE
  5
503
100
AcDbEntity
  8
RUNDUNGEN
100
AcDbLine
 62
7
  6
CONTINUOUS
 10
91.0546485978
 20
61.9882256809
 11
91.2820017658
 21
62.1137756045
  0
LINE
  5
504
100
AcDbEntity
  8
RUNDUNGEN
100
AcDbLine
 62
7
  6
CONTINUOUS
 10
91.2820017658
 20
62.1137756045
 11
91.5045940871
 21
62.2147458359
  0
LWPOLYLINE
  5
505
100
AcDbEntity
  8
RUNDUNGEN
100
AcDbPolyline
 62
7
  6
CONTINUOUS
 90
3
 70
0
 10
91.2472088709
 20
67.5977032911
 10
91.0000838865
 20
67.4917070715
 10
90.8161614778
 20
67.3909235833
  0
LINE
  5
506
100
AcDbEntity
  8
RUNDUNGEN
100
AcDbLine
 62
7
  6
CONTINUOUS
 10
146.8919584251
 20
114.1654159655
 11
147.1348317327
 21
113.4179287851
  0
LINE
  5
507
100
AcDbEntity
  8
RUNDUNGEN
100
AcDbLine
 62
7
  6
CONTINUOUS
 10
149.465781042
 20
106.2440044698
 11
149.7086543496
 21
105.4965172893
  0
LINE
  5
508
100
AcDbEntity
  8
RUNDUNGEN
100
AcDbLine
 62
7
  6
CONTINUOUS
 10
149.8181240604
 20
105.5320861545
 11
149.5752507527
 21
106.2795733349
  0
LINE
  5
509
100
AcDbEntity
  8
RUNDUNGEN
100
AcDbLine
 62
7
  6
CONTINUOUS
 10
147.2443014434
 20
113.4534976502
 11
147.0014281358
 21
114.2009848307
  0
LINE
  5
50A
100
AcDbEntity
  8
RUNDUNGEN
100
AcDbLine
 62
7
  6
CONTINUOUS
 10
117.9443878519
 20
60.6795682338
 11
115.9816909928
 21
58.4361439847
  0
LINE
  5
50B
100
AcDbEntity
  8
RUNDUNGEN
100
AcDbLine
 62
7
  6
CONTINUOUS
 10
91.5045940871
 20
62.2147458359
 11
91.7343972792
 21
62.2985219247
  0
LINE
  5
50C
100
AcDbEntity
  8
RUNDUNGEN
100
AcDbLine
 62
7
  6
CONTINUOUS
 10
145.3834166709
 20
79.7300315174
 11
145.6181417185
 21
79.7987073117
  0
LINE
  5
50D
100
AcDbEntity
  8
RUNDUNGEN
100
AcDbLine
 62
7
  6
CONTINUOUS
 10
149.7086543496
 20
89.2763681315
 11
149.465781042
 21
88.5288809511
  0
LINE
  5
50E
100
AcDbEntity
  8
RUNDUNGEN
100
AcDbLine
 62
7
  6
CONTINUOUS
 10
147.1348317327
 20
81.3549566358
 11
146.8919584251
 21
80.6074694553
  0
LINE
  5
50F
100
AcDbEntity
  8
RUNDUNGEN
100
AcDbLine
 62
7
  6
CONTINUOUS
 10
147.0014281358
 20
80.5719005901
 11
147.2443014434
 21
81.3193877706
  0
LINE
  5
510
100
AcDbEntity
  8
RUNDUNGEN
100
AcDbLine
 62
7
  6
CONTINUOUS
 10
149.5752507527
 20
88.4933120859
 11
149.8181240604
 21
89.2407992664
  0
LINE
  5
511
100
AcDbEntity
  8
RUNDUNGEN
100
AcDbLine
 62
7
  6
CONTINUOUS
 10
145.1954938832
 20
79.6612134016
 11
142.4553640505
 21
78.4878340268
  0
LINE
  5
512
100
AcDbEntity
  8
RUNDUNGEN
100
AcDbLine
 62
7
  6
CONTINUOUS
 10
145.1870580887
 20
79.6571283779
 11
145.3834166709
 21
79.7300315174
  0
LINE
  5
513
100
AcDbEntity
  8
AUSFORMSCHRAEGEN
100
AcDbLine
 62
7
  6
CONTINUOUS
 10
135.8574925964
 20
71.1390380059
 11
136.4433154238
 21
71.5646632039
  0
LINE
  5
514
100
AcDbEntity
  8
RUNDUNGEN
100
AcDbLine
 62
7
  6
CONTINUOUS
 10
137.3579939601
 20
67.4850931354
 11
136.7221433858
 21
67.0231206517
  0
LINE
  5
515
100
AcDbEntity
  8
RUNDUNGEN
100
AcDbLine
 62
7
  6
CONTINUOUS
 10
130.619638868
 20
62.5893915921
 11
129.9837882937
 21
62.1274191084
  0
LINE
  5
516
100
AcDbEntity
  8
RUNDUNGEN
100
AcDbLine
 62
7
  6
CONTINUOUS
 10
130.0514442957
 20
62.0342986105
 11
130.68729487
 21
62.4962710942
  0
LINE
  5
517
100
AcDbEntity
  8
RUNDUNGEN
100
AcDbLine
 62
7
  6
CONTINUOUS
 10
136.7897993878
 20
66.9300001537
 11
137.4256499621
 21
67.3919726374
  0
LINE
  5
518
100
AcDbEntity
  8
RUNDUNGEN
100
AcDbLine
 62
7
  6
CONTINUOUS
 10
219.9099171752
 20
57.0001664096
 11
233.0819922616
 21
57.1151173674
  0
LINE
  5
519
100
AcDbEntity
  8
RUNDUNGEN
100
AcDbLine
 62
7
  6
CONTINUOUS
 10
206.6680298048
 20
57.1151173674
 11
219.8401048912
 21
57.0001664096
  0
LINE
  5
51A
100
AcDbEntity
  8
AUSFORMSCHRAEGEN
100
AcDbLine
 62
7
  6
CONTINUOUS
 10
219.9099171752
 20
61.8434970019
 11
233.0819922616
 21
61.9584479597
  0
LINE
  5
51B
100
AcDbEntity
  8
0
100
AcDbLine
 62
7
  6
CONTINUOUS
 10
219.2250110332
 20
60.5116847702
 11
220.5250110332
 21
60.5116847702
  0
LINE
  5
51C
100
AcDbEntity
  8
RUNDUNGEN
100
AcDbLine
 62
7
  6
CONTINUOUS
 10
219.8401048912
 20
61.8434970019
 11
219.9099171752
 21
61.8434970019
  0
LINE
  5
51D
100
AcDbEntity
  8
AUSFORMSCHRAEGEN
100
AcDbLine
 62
7
  6
CONTINUOUS
 10
206.6680298048
 20
61.9584479597
 11
219.8401048912
 21
61.8434970019
  0
LINE
  5
51E
100
AcDbEntity
  8
AUSFORMSCHRAEGEN
100
AcDbLine
 62
7
  6
CONTINUOUS
 10
219.9099171752
 20
66.701001944
 11
233.0819922616
 21
66.8159529018
  0
LINE
  5
51F
100
AcDbEntity
  8
RUNDUNGEN
100
AcDbLine
 62
7
  6
CONTINUOUS
 10
219.8401048912
 20
66.701001944
 11
219.9099171752
 21
66.701001944
  0
LINE
  5
520
100
AcDbEntity
  8
AUSFORMSCHRAEGEN
100
AcDbLine
 62
7
  6
CONTINUOUS
 10
206.6680298048
 20
66.8159529018
 11
219.8401048912
 21
66.701001944
  0
LINE
  5
521
100
AcDbEntity
  8
AUSFORMSCHRAEGEN
100
AcDbLine
 62
7
  6
CONTINUOUS
 10
232.8162289736
 20
71.5646632039
 11
232.5277326754
 21
71.5495437536
  0
LINE
  5
522
100
AcDbEntity
  8
AUSFORMSCHRAEGEN
100
AcDbLine
 62
7
  6
CONTINUOUS
 10
206.9337930929
 20
71.5646632039
 11
207.2222893815
 21
71.5495437541
  0
LWPOLYLINE
  5
523
100
AcDbEntity
  8
RUNDUNGEN
100
AcDbPolyline
 62
7
  6
CONTINUOUS
 90
4
 70
0
 10
233.1987705437
 20
79.9830239117
 10
233.2497811998
 20
79.9941948066
 10
233.3104178191
 20
80.0113800529
 10
233.3783022942
 20
80.03644847
  0
LWPOLYLINE
  5
524
100
AcDbEntity
  8
RUNDUNGEN
100
AcDbPolyline
 62
7
  6
CONTINUOUS
 90
4
 70
0
 10
225.9210293948
 20
79.8442286036
 10
225.916583346
 20
79.8436345735
 10
225.9114291682
 20
79.8430252382
 10
225.9107826257
 20
79.8429756419
  0
LWPOLYLINE
  5
525
100
AcDbEntity
  8
RUNDUNGEN
100
AcDbPolyline
 62
7
  6
CONTINUOUS
 90
9
 70
0
 10
232.8045463809
 20
79.9439525899
 10
232.8681481091
 20
79.947849649
 10
232.9257728903
 20
79.9517864083
 10
232.9780755427
 20
79.9558038364
 10
233.0254781843
 20
79.959938371
 10
233.0695626739
 20
79.9643617526
 10
233.1112159069
 20
79.9692510889
 10
233.1533464855
 20
79.975167115
 10
233.1987705437
 20
79.9830239117
  0
LWPOLYLINE
  5
526
100
AcDbEntity
  8
RUNDUNGEN
100
AcDbPolyline
 62
7
  6
CONTINUOUS
 90
3
 70
0
 10
232.6578938544
 20
79.9362344527
 10
232.7346046776
 20
79.9400838348
 10
232.8045463809
 20
79.9439525899
  0
LINE
  5
527
100
AcDbEntity
  8
RUNDUNGEN
100
AcDbLine
 62
7
  6
CONTINUOUS
 10
225.9153692713
 20
79.8433130861
 11
225.9242774136
 21
79.8437404545
  0
LINE
  5
528
100
AcDbEntity
  8
RUNDUNGEN
100
AcDbLine
 62
7
  6
CONTINUOUS
 10
232.4833871578
 20
79.9286228245
 11
232.6578938544
 21
79.9362344527
  0
LINE
  5
529
100
AcDbEntity
  8
RUNDUNGEN
100
AcDbLine
 62
7
  6
CONTINUOUS
 10
231.5277063877
 20
79.8954210027
 11
232.4833871578
 21
79.9286228245
  0
LINE
  5
52A
100
AcDbEntity
  8
RUNDUNGEN
100
AcDbLine
 62
7
  6
CONTINUOUS
 10
225.9242774136
 20
79.8437404545
 11
225.9361857251
 21
79.8441023678
  0
LINE
  5
52B
100
AcDbEntity
  8
RUNDUNGEN
100
AcDbLine
 62
7
  6
CONTINUOUS
 10
225.9361857251
 20
79.8441023678
 11
225.9397107458
 21
79.8441806044
  0
LINE
  5
52C
100
AcDbEntity
  8
RUNDUNGEN
100
AcDbLine
 62
7
  6
CONTINUOUS
 10
231.3350460038
 20
79.8913029708
 11
231.52771291
 21
79.8954175746
  0
LINE
  5
52D
100
AcDbEntity
  8
RUNDUNGEN
100
AcDbLine
 62
7
  6
CONTINUOUS
 10
225.9434262646
 20
79.8442226629
 11
225.9526897916
 21
79.8443456259
  0
LINE
  5
52E
100
AcDbEntity
  8
AUSFORMSCHRAEGEN
100
AcDbLine
 62
7
  6
CONTINUOUS
 10
225.9527201148
 20
79.8443458901
 11
231.3336808742
 21
79.8913048232
  0
LINE
  5
52F
100
AcDbEntity
  8
RUNDUNGEN
100
AcDbLine
 62
7
  6
CONTINUOUS
 10
231.3278088348
 20
79.8912586239
 11
231.3345073735
 21
79.8913121387
  0
LINE
  5
530
100
AcDbEntity
  8
RUNDUNGEN
100
AcDbLine
 62
7
  6
CONTINUOUS
 10
208.4168914287
 20
79.8913003832
 11
208.4196260509
 21
79.8912780775
  0
LINE
  5
531
100
AcDbEntity
  8
AUSFORMSCHRAEGEN
100
AcDbLine
 62
7
  6
CONTINUOUS
 10
208.4170298535
 20
79.8912988134
 11
213.7973019483
 21
79.8443458901
  0
LINE
  5
532
100
AcDbEntity
  8
RUNDUNGEN
100
AcDbLine
 62
7
  6
CONTINUOUS
 10
213.7973317894
 20
79.8443456301
 11
213.8103105984
 21
79.844149607
  0
LINE
  5
533
100
AcDbEntity
  8
RUNDUNGEN
100
AcDbLine
 62
7
  6
CONTINUOUS
 10
208.2223060754
 20
79.895417335
 11
208.4162722651
 21
79.8912865588
  0
LINE
  5
534
100
AcDbEntity
  8
RUNDUNGEN
100
AcDbLine
 62
7
  6
CONTINUOUS
 10
213.813291365
 20
79.8440838278
 11
213.8103105984
 21
79.844149607
  0
LWPOLYLINE
  5
535
100
AcDbEntity
  8
RUNDUNGEN
100
AcDbPolyline
 62
7
  6
CONTINUOUS
 90
4
 70
0
 10
213.8132920549
 20
79.8441155548
 10
213.8302722027
 20
79.8435477888
 10
213.8363506434
 20
79.8432047016
 10
213.8390461035
 20
79.8429823126
  0
LINE
  5
536
100
AcDbEntity
  8
RUNDUNGEN
100
AcDbLine
 62
7
  6
CONTINUOUS
 10
207.2829323148
 20
79.9279774509
 11
208.2223156953
 21
79.8954210021
  0
LWPOLYLINE
  5
537
100
AcDbEntity
  8
RUNDUNGEN
100
AcDbPolyline
 62
7
  6
CONTINUOUS
 90
4
 70
0
 10
206.9750651059
 20
79.9422686124
 10
207.0436291696
 20
79.9386250518
 10
207.1178424534
 20
79.935021586
 10
207.2829323148
 20
79.9279774509
  0
LWPOLYLINE
  5
538
100
AcDbEntity
  8
RUNDUNGEN
100
AcDbPolyline
 62
7
  6
CONTINUOUS
 90
4
 70
0
 10
206.7999263931
 20
79.9535940129
 10
206.8536164951
 20
79.9497248195
 10
206.9117777826
 20
79.9459661633
 10
206.9750651059
 20
79.9422686124
  0
LINE
  5
539
100
AcDbEntity
  8
RUNDUNGEN
100
AcDbLine
 62
7
  6
CONTINUOUS
 10
213.8390461035
 20
79.8429823126
 11
213.8379544938
 21
79.8430935506
  0
LWPOLYLINE
  5
53A
100
AcDbEntity
  8
RUNDUNGEN
100
AcDbPolyline
 62
7
  6
CONTINUOUS
 90
5
 70
0
 10
213.814865746
 20
79.8440629353
 10
213.8237722571
 20
79.8408934443
 10
213.8478475305
 20
79.8313503913
 10
213.8806315334
 20
79.8168753409
 10
213.9218685162
 20
79.7965973243
  0
LINE
  5
53B
100
AcDbEntity
  8
RUNDUNGEN
100
AcDbLine
 62
7
  6
CONTINUOUS
 10
213.9218685162
 20
79.7965973243
 11
213.971581817
 21
79.7693633854
  0
LWPOLYLINE
  5
53C
100
AcDbEntity
  8
RUNDUNGEN
100
AcDbPolyline
 62
7
  6
CONTINUOUS
 90
15
 70
0
 10
213.971581817
 20
79.7693633854
 10
214.0288940877
 20
79.7343790583
 10
214.0930265243
 20
79.6907375389
 10
214.1627364998
 20
79.6377854419
 10
214.2368156043
 20
79.5748478183
 10
214.3135650293
 20
79.5017094899
 10
214.3912932665
 20
79.4182981324
 10
214.4683459341
 20
79.3246754474
 10
214.5429911598
 20
79.2212183317
 10
214.6136192611
 20
79.1083961614
 10
214.6786054662
 20
78.9870060499
 10
214.7363649827
 20
78.8582546504
 10
214.78544851
 20
78.7237339138
 10
214.8245574541
 20
78.5856238755
 10
214.8395811103
 20
78.5183891392
  0
LINE
  5
53D
100
AcDbEntity
  8
RUNDUNGEN
100
AcDbLine
 62
7
  6
CONTINUOUS
 10
208.5208315831
 20
84.4196011596
 11
208.4850403951
 21
84.4172749584
  0
LWPOLYLINE
  5
53E
100
AcDbEntity
  8
RUNDUNGEN
100
AcDbPolyline
 62
7
  6
CONTINUOUS
 90
4
 70
0
 10
208.6423787663
 20
84.422977145
 10
208.5999936046
 20
84.4223459088
 10
208.5590989471
 20
84.4212456165
 10
208.5208315831
 20
84.4196011596
  0
LINE
  5
53F
100
AcDbEntity
  8
RUNDUNGEN
100
AcDbLine
 62
7
  6
CONTINUOUS
 10
219.8456910178
 20
84.5058130269
 11
208.6423787663
 21
84.422977145
  0
LINE
  5
540
100
AcDbEntity
  8
RUNDUNGEN
100
AcDbLine
 62
7
  6
CONTINUOUS
 10
231.0954115014
 20
84.4230828207
 11
219.8748501069
 21
84.5059173456
  0
LWPOLYLINE
  5
541
100
AcDbEntity
  8
RUNDUNGEN
100
AcDbPolyline
 62
7
  6
CONTINUOUS
 90
3
 70
0
 10
231.1499487281
 20
84.4223475182
 10
231.107475033
 20
84.422978809
 10
231.0954112363
 20
84.4230828547
  0
LWPOLYLINE
  5
542
100
AcDbEntity
  8
RUNDUNGEN
100
AcDbPolyline
 62
7
  6
CONTINUOUS
 90
4
 70
0
 10
231.2651134498
 20
84.4172645674
 10
231.2292596276
 20
84.4195974797
 10
231.190923117
 20
84.4212456026
 10
231.1499487281
 20
84.4223475182
  0
LINE
  5
543
100
AcDbEntity
  8
RUNDUNGEN
100
AcDbLine
 62
7
  6
CONTINUOUS
 10
232.7994063215
 20
66.2796650906
 11
232.178505586
 21
66.8080682931
  0
LINE
  5
544
100
AcDbEntity
  8
RUNDUNGEN
100
AcDbLine
 62
7
  6
CONTINUOUS
 10
232.8162289736
 20
60.9531934368
 11
231.7130487512
 21
61.9465013707
  0
LWPOLYLINE
  5
545
100
AcDbEntity
  8
RUNDUNGEN
100
AcDbPolyline
 62
7
  6
CONTINUOUS
 90
3
 70
0
 10
208.45969198
 20
84.4149450528
 10
208.3773726277
 20
84.400787838
 10
208.3036932072
 20
84.3780804907
  0
LINE
  5
546
100
AcDbEntity
  8
RUNDUNGEN
100
AcDbLine
 62
7
  6
CONTINUOUS
 10
208.45969198
 20
84.4149450528
 11
208.4601166265
 21
84.4149893423
  0
LINE
  5
547
100
AcDbEntity
  8
RUNDUNGEN
100
AcDbLine
 62
7
  6
CONTINUOUS
 10
208.4850403951
 20
84.4172749584
 11
208.4601139699
 21
84.4150149383
  0
LINE
  5
548
100
AcDbEntity
  8
AUSFORMSCHRAEGEN
100
AcDbLine
 62
7
  6
CONTINUOUS
 10
219.9099171752
 20
87.664390033
 11
233.0819922616
 21
87.7793409908
  0
LINE
  5
549
100
AcDbEntity
  8
0
100
AcDbLine
 62
7
  6
CONTINUOUS
 10
234.1250110332
 20
87.0704192414
 11
233.8750110332
 21
87.0704192414
  0
LINE
  5
54A
100
AcDbEntity
  8
0
100
AcDbLine
 62
7
  6
CONTINUOUS
 10
234.1250110332
 20
87.106027548
 11
233.8750110332
 21
87.106027548
  0
LINE
  5
54B
100
AcDbEntity
  8
RUNDUNGEN
100
AcDbLine
 62
7
  6
CONTINUOUS
 10
219.8401048914
 20
87.664390033
 11
219.9099171752
 21
87.664390033
  0
LINE
  5
54C
100
AcDbEntity
  8
0
100
AcDbLine
 62
7
  6
CONTINUOUS
 10
234.1250110332
 20
88.1030602499
 11
233.8750110332
 21
88.1030602499
  0
LINE
  5
54D
100
AcDbEntity
  8
0
100
AcDbLine
 62
7
  6
CONTINUOUS
 10
234.1250110332
 20
88.1653747603
 11
233.8750110332
 21
88.1653747603
  0
LINE
  5
54E
100
AcDbEntity
  8
0
100
AcDbLine
 62
7
  6
CONTINUOUS
 10
234.1250110332
 20
88.4413391396
 11
233.8750110332
 21
88.4413391396
  0
LINE
  5
54F
100
AcDbEntity
  8
0
100
AcDbLine
 62
7
  6
CONTINUOUS
 10
234.1250110332
 20
88.8923777386
 11
233.8750110332
 21
88.8923777386
  0
LINE
  5
550
100
AcDbEntity
  8
0
100
AcDbLine
 62
7
  6
CONTINUOUS
 10
234.1250110332
 20
89.1831787869
 11
233.8750110332
 21
89.1831787869
  0
LINE
  5
551
100
AcDbEntity
  8
AUSFORMSCHRAEGEN
100
AcDbLine
 62
7
  6
CONTINUOUS
 10
206.6680298048
 20
87.7793409908
 11
219.8401048912
 21
87.664390033
  0
LINE
  5
552
100
AcDbEntity
  8
RUNDUNGEN
100
AcDbLine
 62
7
  6
CONTINUOUS
 10
231.2899050848
 20
84.4150152433
 11
231.2651134498
 21
84.4172645674
  0
LINE
  5
553
100
AcDbEntity
  8
RUNDUNGEN
100
AcDbLine
 62
7
  6
CONTINUOUS
 10
231.2899028199
 20
84.4149934105
 11
231.290628883
 21
84.4149172789
  0
LINE
  5
554
100
AcDbEntity
  8
RUNDUNGEN
100
AcDbLine
 62
7
  6
CONTINUOUS
 10
231.3089478331
 20
84.4127322147
 11
231.290628883
 21
84.4149172789
  0
LINE
  5
555
100
AcDbEntity
  8
0
100
AcDbLine
 62
7
  6
CONTINUOUS
 10
234.1250110332
 20
90.5630008026
 11
233.8750110332
 21
90.5630008026
  0
LINE
  5
556
100
AcDbEntity
  8
0
100
AcDbLine
 62
7
  6
CONTINUOUS
 10
234.1250110332
 20
90.7380751416
 11
233.8750110332
 21
90.7380751416
  0
LINE
  5
557
100
AcDbEntity
  8
0
100
AcDbLine
 62
7
  6
CONTINUOUS
 10
234.1250110332
 20
91.8003896519
 11
233.8750110332
 21
91.8003896519
  0
LINE
  5
558
100
AcDbEntity
  8
0
100
AcDbLine
 62
7
  6
CONTINUOUS
 10
234.1250110332
 20
91.8152264401
 11
233.8750110332
 21
91.8152264401
  0
LINE
  5
559
100
AcDbEntity
  8
0
100
AcDbLine
 62
7
  6
CONTINUOUS
 10
234.1250110332
 20
92.206917648
 11
233.8750110332
 21
92.206917648
  0
LINE
  5
55A
100
AcDbEntity
  8
0
100
AcDbLine
 62
7
  6
CONTINUOUS
 10
234.1250110332
 20
92.5570663258
 11
233.8750110332
 21
92.5570663258
  0
LINE
  5
55B
100
AcDbEntity
  8
0
100
AcDbLine
 62
7
  6
CONTINUOUS
 10
234.1250110332
 20
93.0081046864
 11
233.8750110332
 21
93.0081046864
  0
LWPOLYLINE
  5
55C
100
AcDbEntity
  8
RUNDUNGEN
100
AcDbPolyline
 62
7
  6
CONTINUOUS
 90
4
 70
0
 10
231.4952650752
 20
84.3572405769
 10
231.4806287813
 20
84.3639864265
 10
231.3961393521
 20
84.394620465
 10
231.3089478331
 20
84.4127322147
  0
LINE
  5
55D
100
AcDbEntity
  8
RUNDUNGEN
100
AcDbLine
 62
7
  6
CONTINUOUS
 10
232.6251043709
 20
83.8187864915
 11
231.4955409276
 21
84.3571209968
  0
LWPOLYLINE
  5
55E
100
AcDbEntity
  8
RUNDUNGEN
100
AcDbPolyline
 62
7
  6
CONTINUOUS
 90
12
 70
0
 10
227.4111055545
 20
84.4503190998
 10
227.1228191268
 20
84.6345399114
 10
226.8125469199
 20
84.8770991779
 10
226.5209281343
 20
85.1535842234
 10
226.2524053548
 20
85.4625445746
 10
226.0141467824
 20
85.7987186809
 10
225.8145106912
 20
86.1543167524
 10
225.6590450972
 20
86.5231285849
 10
225.5473918369
 20
86.9049390086
 10
225.4651673057
 20
87.296730032
 10
225.4153576529
 20
87.6770038504
 10
225.4136002039
 20
87.7124199471
  0
LINE
  5
55F
100
AcDbEntity
  8
RUNDUNGEN
100
AcDbLine
 62
7
  6
CONTINUOUS
 10
231.8212912
 20
72.1673579011
 11
231.7437620394
 21
72.2370068819
  0
LINE
  5
560
100
AcDbEntity
  8
RUNDUNGEN
100
AcDbLine
 62
7
  6
CONTINUOUS
 10
232.0424710815
 20
71.9657254913
 11
231.8111129742
 21
72.1765015968
  0
LINE
  5
561
100
AcDbEntity
  8
RUNDUNGEN
100
AcDbLine
 62
7
  6
CONTINUOUS
 10
232.823070291
 20
71.2463480347
 11
232.0424699874
 21
71.9657255589
  0
LINE
  5
562
100
AcDbEntity
  8
RUNDUNGEN
100
AcDbLine
 62
7
  6
CONTINUOUS
 10
232.9580535903
 20
71.114401533
 11
232.8230553873
 21
71.2463239227
  0
LWPOLYLINE
  5
563
100
AcDbEntity
  8
RUNDUNGEN
100
AcDbPolyline
 62
7
  6
CONTINUOUS
 90
17
 70
0
 10
205.8866927991
 20
80.6429110652
 10
205.9174340898
 20
80.5218069499
 10
205.9647373457
 20
80.4105331537
 10
206.0257399473
 20
80.3110534359
 10
206.0970076144
 20
80.2251005
 10
206.1752488579
 20
80.1532091347
 10
206.2564563189
 20
80.0957518526
 10
206.3379004381
 20
80.0515047859
 10
206.4140115364
 20
80.0200635121
 10
206.4789711361
 20
79.9997068677
 10
206.5345305726
 20
79.9863867744
 10
206.5797920212
 20
79.9778858191
 10
206.6203046768
 20
79.9717102667
 10
206.6613398768
 20
79.9665060583
 10
206.7038025226
 20
79.9619383921
 10
206.7499707602
 20
79.9576528125
 10
206.7999263931
 20
79.9535940129
  0
LINE
  5
564
100
AcDbEntity
  8
RUNDUNGEN
100
AcDbLine
 62
7
  6
CONTINUOUS
 10
205.8750472458
 20
80.7790383779
 11
205.8866927991
 21
80.6429110652
  0
LWPOLYLINE
  5
565
100
AcDbEntity
  8
AUSFORMSCHRAEGEN
100
AcDbPolyline
 62
7
  6
CONTINUOUS
 90
5
 70
0
 10
206.9337958107
 20
123.6338501713
 10
206.9356314778
 20
123.6383894177
 10
206.9375533245
 20
123.643005631
 10
206.9395610403
 20
123.6476980656
 10
206.9416543009
 20
123.6524659634
  0
LINE
  5
566
100
AcDbEntity
  8
0
100
AcDbLine
 62
7
  6
CONTINUOUS
 10
218.6389431152
 20
129.4691545612
 11
214.9059968085
 21
128.2562467812
  0
LWPOLYLINE
  5
567
100
AcDbEntity
  8
RUNDUNGEN
100
AcDbPolyline
 62
7
  6
CONTINUOUS
 90
4
 70
0
 10
211.3788186391
 20
93.6220371273
 10
210.4175645461
 20
93.4140454849
 10
209.4637262841
 20
93.1015019813
 10
208.555431964
 20
92.7031297264
  0
LINE
  5
568
100
AcDbEntity
  8
RUNDUNGEN
100
AcDbLine
 62
7
  6
CONTINUOUS
 10
212.1648167337
 20
93.7202276609
 11
211.3788186391
 21
93.6220371273
  0
LINE
  5
569
100
AcDbEntity
  8
RUNDUNGEN
100
AcDbLine
 62
7
  6
CONTINUOUS
 10
211.9627436429
 20
93.6954850126
 11
211.9635673682
 21
93.6955597002
  0
LINE
  5
56A
100
AcDbEntity
  8
0
100
AcDbLine
 62
7
  6
CONTINUOUS
 10
234.1250110332
 20
93.3701223179
 11
233.8750110332
 21
93.3701223179
  0
LINE
  5
56B
100
AcDbEntity
  8
0
100
AcDbLine
 62
7
  6
CONTINUOUS
 10
234.1250110332
 20
93.8211611554
 11
233.8750110332
 21
93.8211611554
  0
LINE
  5
56C
100
AcDbEntity
  8
0
100
AcDbLine
 62
7
  6
CONTINUOUS
 10
234.1250110332
 20
94.1713093563
 11
233.8750110332
 21
94.1713093563
  0
LINE
  5
56D
100
AcDbEntity
  8
0
100
AcDbLine
 62
7
  6
CONTINUOUS
 10
234.1250110332
 20
94.5630010411
 11
233.8750110332
 21
94.5630010411
  0
LINE
  5
56E
100
AcDbEntity
  8
0
100
AcDbLine
 62
7
  6
CONTINUOUS
 10
234.1250110332
 20
94.5926746174
 11
233.8750110332
 21
94.5926746174
  0
LINE
  5
56F
100
AcDbEntity
  8
0
100
AcDbLine
 62
7
  6
CONTINUOUS
 10
234.1250110332
 20
95.5600332066
 11
233.8750110332
 21
95.5600332066
  0
LINE
  5
570
100
AcDbEntity
  8
0
100
AcDbLine
 62
7
  6
CONTINUOUS
 10
234.1250110332
 20
95.8389648243
 11
233.8750110332
 21
95.8389648243
  0
LINE
  5
571
100
AcDbEntity
  8
0
100
AcDbLine
 62
7
  6
CONTINUOUS
 10
234.1250110332
 20
96.9012798115
 11
233.8750110332
 21
96.9012798115
  0
LINE
  5
572
100
AcDbEntity
  8
0
100
AcDbLine
 62
7
  6
CONTINUOUS
 10
234.1250110332
 20
96.9161161229
 11
233.8750110332
 21
96.9161161229
  0
LINE
  5
573
100
AcDbEntity
  8
RUNDUNGEN
100
AcDbLine
 62
7
  6
CONTINUOUS
 10
227.7866076971
 20
93.6954744935
 11
227.7874348628
 21
93.6953995196
  0
LINE
  5
574
100
AcDbEntity
  8
RUNDUNGEN
100
AcDbLine
 62
7
  6
CONTINUOUS
 10
227.7866881942
 20
93.6954642482
 11
227.5852140716
 21
93.7201554738
  0
LINE
  5
575
100
AcDbEntity
  8
RUNDUNGEN
100
AcDbLine
 62
7
  6
CONTINUOUS
 10
228.3960125378
 20
93.6180211629
 11
227.7875954876
 21
93.695385069
  0
LWPOLYLINE
  5
576
100
AcDbEntity
  8
RUNDUNGEN
100
AcDbPolyline
 62
7
  6
CONTINUOUS
 90
11
 70
0
 10
227.5852140716
 20
93.7201554738
 10
227.1826612517
 20
93.8093867701
 10
226.794919433
 20
93.9496411047
 10
226.4284299079
 20
94.1385898118
 10
226.0892804949
 20
94.3730941215
 10
225.7831009779
 20
94.6492606579
 10
225.5149611987
 20
94.9625218599
 10
225.2893529936
 20
95.3076227757
 10
225.1100557062
 20
95.6787044806
 10
224.9799293906
 20
96.0697849117
 10
224.9011211716
 20
96.4745656305
  0
LWPOLYLINE
  5
577
100
AcDbEntity
  8
0
100
AcDbPolyline
 62
7
  6
CONTINUOUS
 90
8
 70
0
 10
205.8750557033
 20
130.7818223913
 10
205.8797881965
 20
130.6160170488
 10
205.9257371782
 20
130.2398687612
 10
206.0199261866
 20
129.8723752236
 10
206.1606489716
 20
129.5190683486
 10
206.3457415948
 20
129.1851052539
 10
206.5724324713
 20
128.8753368421
 10
206.8374268298
 20
128.5944016636
  0
LWPOLYLINE
  5
578
100
AcDbEntity
  8
0
100
AcDbPolyline
 62
7
  6
CONTINUOUS
 90
8
 70
0
 10
205.8750473078
 20
125.9337902771
 10
205.8801610857
 20
125.7507615496
 10
205.9259237102
 20
125.357598219
 10
206.0187078836
 20
124.9726378627
 10
206.1565234961
 20
124.6030450422
 10
206.3364641328
 20
124.2548312542
 10
206.5546983639
 20
123.9333775963
 10
206.8064587418
 20
123.6435724078
  0
LINE
  5
579
100
AcDbEntity
  8
0
100
AcDbLine
 62
7
  6
CONTINUOUS
 10
205.8750110332
 20
136.857798515
 11
205.8750110332
 21
136.6346601982
  0
LINE
  5
57A
100
AcDbEntity
  8
RUNDUNGEN
100
AcDbLine
 62
7
  6
CONTINUOUS
 10
205.8750110332
 20
136.857798515
 11
205.8750110332
 21
136.1977554255
  0
LINE
  5
57B
100
AcDbEntity
  8
0
100
AcDbLine
 62
7
  6
CONTINUOUS
 10
205.8750110332
 20
132.0144604064
 11
205.8750110332
 21
131.9995799743
  0
LINE
  5
57C
100
AcDbEntity
  8
RUNDUNGEN
100
AcDbLine
 62
7
  6
CONTINUOUS
 10
205.8750110332
 20
132.0143709792
 11
205.8750110332
 21
130.7819674926
  0
LINE
  5
57D
100
AcDbEntity
  8
0
100
AcDbLine
 62
7
  6
CONTINUOUS
 10
205.8750110332
 20
127.1566350299
 11
205.8750110332
 21
127.0854718754
  0
LINE
  5
57E
100
AcDbEntity
  8
RUNDUNGEN
100
AcDbLine
 62
7
  6
CONTINUOUS
 10
205.8750110332
 20
127.1566396371
 11
205.8750110332
 21
125.9338353834
  0
LINE
  5
57F
100
AcDbEntity
  8
0
100
AcDbLine
 62
7
  6
CONTINUOUS
 10
205.8750110332
 20
126.7889410493
 11
205.8750110332
 21
125.9338353834
  0
LINE
  5
580
100
AcDbEntity
  8
RUNDUNGEN
100
AcDbLine
 62
7
  6
CONTINUOUS
 10
205.8750110332
 20
68.8390500374
 11
205.8750110332
 21
67.6204508722
  0
LINE
  5
581
100
AcDbEntity
  8
RUNDUNGEN
100
AcDbLine
 62
7
  6
CONTINUOUS
 10
205.8750110332
 20
63.9909179283
 11
205.8750110332
 21
62.7585144416
  0
LINE
  5
582
100
AcDbEntity
  8
RUNDUNGEN
100
AcDbLine
 62
7
  6
CONTINUOUS
 10
205.8750110332
 20
58.5751299953
 11
205.8750110332
 21
57.9150869058
  0
LINE
  5
583
100
AcDbEntity
  8
RUNDUNGEN
100
AcDbLine
 62
7
  6
CONTINUOUS
 10
205.8750110332
 20
73.0435984704
 11
205.8750110332
 21
97.386442711
  0
LINE
  5
584
100
AcDbEntity
  8
0
100
AcDbLine
 62
7
  6
CONTINUOUS
 10
205.8750110332
 20
97.386442711
 11
205.8750110332
 21
121.7292869504
  0
LINE
  5
585
100
AcDbEntity
  8
AUSFORMSCHRAEGEN
100
AcDbLine
 62
7
  6
CONTINUOUS
 10
206.9337930929
 20
123.6338474158
 11
206.9337930929
 21
123.2082222169
  0
LINE
  5
586
100
AcDbEntity
  8
AUSFORMSCHRAEGEN
100
AcDbLine
 62
7
  6
CONTINUOUS
 10
206.9337930929
 20
71.2463239227
 11
206.9337930929
 21
71.5646632039
  0
LWPOLYLINE
  5
587
100
AcDbEntity
  8
0
100
AcDbPolyline
 62
7
  6
CONTINUOUS
 90
5
 70
0
 10
207.7392600612
 20
123.2678215445
 10
207.7402073537
 20
123.2712811465
 10
207.7388491168
 20
123.2707153351
 10
207.725517015
 20
123.2521143487
 10
207.7230960052
 20
123.2495878298
  0
LINE
  5
588
100
AcDbEntity
  8
0
100
AcDbLine
 62
7
  6
CONTINUOUS
 10
234.1250110332
 20
97.3078082844
 11
233.8750110332
 21
97.3078082844
  0
LINE
  5
589
100
AcDbEntity
  8
DEFAULT_1
100
AcDbLine
 62
7
  6
CENTER
 10
202.8750012881
 20
97.3864427104
 11
205.8750110332
 21
97.386442711
  0
LINE
  5
58A
100
AcDbEntity
  8
DEFAULT_1
100
AcDbLine
 62
7
  6
CENTER
 10
233.8750110332
 20
97.386442711
 11
237.1250110332
 21
97.3864427104
  0
LINE
  5
58B
100
AcDbEntity
  8
0
100
AcDbLine
 62
2
  6
CONTINUOUS
 10
205.8750110332
 20
97.386442711
 11
233.8750110332
 21
97.386442711
  0
LINE
  5
58C
100
AcDbEntity
  8
0
100
AcDbLine
 62
7
  6
CONTINUOUS
 10
228.3005428974
 20
97.5114427104
 11
227.8750110332
 21
97.5114427104
  0
LINE
  5
58D
100
AcDbEntity
  8
0
100
AcDbLine
 62
7
  6
CONTINUOUS
 10
230.7686280672
 20
97.6781092181
 11
230.4282025759
 21
97.6781092181
  0
LINE
  5
58E
100
AcDbEntity
  8
0
100
AcDbLine
 62
7
  6
CONTINUOUS
 10
227.8750110332
 20
98.3447757259
 11
231.8750110332
 21
98.3447757259
  0
LINE
  5
58F
100
AcDbEntity
  8
0
100
AcDbLine
 62
7
  6
CONTINUOUS
 10
231.8750110332
 20
98.8447757259
 11
227.8750110332
 21
98.8447757259
  0
LINE
  5
590
100
AcDbEntity
  8
0
100
AcDbLine
 62
7
  6
CONTINUOUS
 10
227.8750110332
 20
99.5114427104
 11
231.8750110332
 21
99.5114427104
  0
LINE
  5
591
100
AcDbEntity
  8
0
100
AcDbLine
 62
7
  6
CONTINUOUS
 10
231.8750110332
 20
100.0114422336
 11
228.3856492702
 21
100.0114422336
  0
LWPOLYLINE
  5
592
100
AcDbEntity
  8
RUNDUNGEN
100
AcDbPolyline
 62
7
  6
CONTINUOUS
 90
5
 70
0
 10
231.9073200415
 20
92.3166404899
 10
231.2118885913
 20
92.694500795
 10
230.306793214
 20
93.093627584
 10
229.3556696358
 20
93.4075979158
 10
228.3960125378
 20
93.6180211629
  0
LINE
  5
593
100
AcDbEntity
  8
RUNDUNGEN
100
AcDbLine
 62
7
  6
CONTINUOUS
 10
231.9407245544
 20
72.0281823253
 11
231.9404289026
 21
72.0285837746
  0
LINE
  5
594
100
AcDbEntity
  8
RUNDUNGEN
100
AcDbLine
 62
7
  6
CONTINUOUS
 10
214.839673286
 20
78.5179370205
 11
214.8395811103
 21
78.5183891392
  0
LINE
  5
595
100
AcDbEntity
  8
0
100
AcDbLine
 62
7
  6
CONTINUOUS
 10
231.7275348099
 20
132.839427356
 11
232.8162289679
 21
133.8196919789
  0
LINE
  5
596
100
AcDbEntity
  8
RUNDUNGEN
100
AcDbLine
 62
7
  6
CONTINUOUS
 10
225.9337930929
 20
127.6227188824
 11
232.8162289736
 21
133.819691984
  0
LINE
  5
597
100
AcDbEntity
  8
0
100
AcDbLine
 62
7
  6
CONTINUOUS
 10
231.5803859204
 20
127.4759118121
 11
231.6153362732
 21
127.495310315
  0
LINE
  5
598
100
AcDbEntity
  8
0
100
AcDbLine
 62
7
  6
CONTINUOUS
 10
231.5810205376
 20
127.4762254812
 11
231.3646906585
 21
127.3657171713
  0
LINE
  5
599
100
AcDbEntity
  8
RUNDUNGEN
100
AcDbLine
 62
7
  6
CONTINUOUS
 10
231.5811649974
 20
127.4762992761
 11
231.5805307116
 21
127.4759765106
  0
LINE
  5
59A
100
AcDbEntity
  8
0
100
AcDbLine
 62
7
  6
CONTINUOUS
 10
227.8750110332
 20
102.3447762027
 11
231.2792663638
 21
102.3447762027
  0
LINE
  5
59B
100
AcDbEntity
  8
0
100
AcDbLine
 62
7
  6
CONTINUOUS
 10
231.8750110332
 20
102.8447762027
 11
227.8750110332
 21
102.8447762027
  0
LINE
  5
59C
100
AcDbEntity
  8
0
100
AcDbLine
 62
7
  6
CONTINUOUS
 10
231.194159991
 20
97.5114427104
 11
230.7686280672
 21
97.6781092181
  0
LINE
  5
59D
100
AcDbEntity
  8
RUNDUNGEN
100
AcDbLine
 62
7
  6
CONTINUOUS
 10
232.6878149314
 20
91.8555790423
 11
231.9072154314
 21
92.3167001823
  0
LWPOLYLINE
  5
59E
100
AcDbEntity
  8
RUNDUNGEN
100
AcDbPolyline
 62
7
  6
CONTINUOUS
 90
3
 70
0
 10
214.8396667293
 20
78.5179356465
 10
214.8551410416
 20
78.4319895571
 10
214.8712274382
 20
78.2916610182
  0
LINE
  5
59F
100
AcDbEntity
  8
RUNDUNGEN
100
AcDbLine
 62
7
  6
CONTINUOUS
 10
218.1425355082
 20
61.4161201443
 11
218.1415762356
 21
61.4215244321
  0
LINE
  5
5A0
100
AcDbEntity
  8
RUNDUNGEN
100
AcDbLine
 62
7
  6
CONTINUOUS
 10
214.8712274382
 20
78.2916610182
 11
214.8750109536
 21
78.1888181507
  0
LINE
  5
5A1
100
AcDbEntity
  8
0
100
AcDbLine
 62
7
  6
CONTINUOUS
 10
214.8750110332
 20
125.5200205814
 11
214.8750110332
 21
124.5733683807
  0
LINE
  5
5A2
100
AcDbEntity
  8
RUNDUNGEN
100
AcDbLine
 62
7
  6
CONTINUOUS
 10
214.8750110332
 20
78.0648529917
 11
214.8750110332
 21
78.1888181507
  0
LINE
  5
5A3
100
AcDbEntity
  8
RUNDUNGEN
100
AcDbLine
 62
7
  6
CONTINUOUS
 10
214.8750110332
 20
96.8790383271
 11
214.8750110332
 21
97.386442711
  0
LWPOLYLINE
  5
5A4
100
AcDbEntity
  8
RUNDUNGEN
100
AcDbPolyline
 62
7
  6
CONTINUOUS
 90
12
 70
0
 10
214.3362102143
 20
87.7124217941
 10
214.3340616336
 20
87.6703917995
 10
214.28385234
 20
87.2908372539
 10
214.2015258358
 20
86.8999061528
 10
214.0899714036
 20
86.5202677506
 10
213.9345928185
 20
86.1525040316
 10
213.7354194875
 20
85.7979853539
 10
213.4976311123
 20
85.4625643611
 10
213.2297512929
 20
85.1542721729
 10
212.938755301
 20
84.8781963329
 10
212.6293131762
 20
84.6360366393
 10
212.3391809511
 20
84.4503210547
  0
LINE
  5
5A5
100
AcDbEntity
  8
RUNDUNGEN
100
AcDbLine
 62
7
  6
CONTINUOUS
 10
214.8750016903
 20
96.8825123237
 11
214.8487243404
 21
96.4732636181
  0
LINE
  5
5A6
100
AcDbEntity
  8
0
100
AcDbLine
 62
7
  6
CONTINUOUS
 10
232.7994193537
 20
128.4932746601
 11
232.9270093643
 21
128.6080004573
  0
LWPOLYLINE
  5
5A7
100
AcDbEntity
  8
0
100
AcDbPolyline
 62
7
  6
CONTINUOUS
 90
18
 70
0
 10
227.5767089173
 20
125.1870848197
 10
227.7825287668
 20
125.3706609602
 10
228.0318392275
 20
125.5813691729
 10
228.2938424239
 20
125.7897225351
 10
228.5614599685
 20
125.9893489631
 10
228.8308359362
 20
126.177105991
 10
229.0942213709
 20
126.3478763279
 10
229.3422487918
 20
126.4967555996
 10
229.5770691698
 20
126.626703585
 10
229.7982290717
 20
126.7390088021
 10
230.0065118786
 20
126.8355091414
 10
230.1995156086
 20
126.9166177649
 10
230.3872461812
 20
126.9877918439
 10
230.5782843039
 20
127.0536995037
 10
230.774512109
 20
127.1184023504
 10
230.9855595251
 20
127.1939273144
 10
231.191140178
 20
127.2812614601
 10
231.3585178107
 20
127.3626523495
  0
LINE
  5
5A8
100
AcDbEntity
  8
RUNDUNGEN
100
AcDbLine
 62
7
  6
CONTINUOUS
 10
232.7994063207
 20
128.4932203295
 11
232.799440693
 21
128.4932496052
  0
LINE
  5
5A9
100
AcDbEntity
  8
0
100
AcDbLine
 62
7
  6
CONTINUOUS
 10
232.7994063215
 20
128.4932203302
 11
231.6893881787
 21
127.5485650771
  0
LWPOLYLINE
  5
5AA
100
AcDbEntity
  8
0
100
AcDbPolyline
 62
7
  6
CONTINUOUS
 90
3
 70
0
 10
231.6153362732
 20
127.495310315
 10
231.6800928247
 20
127.5408735203
 10
231.6892630159
 20
127.5485110542
  0
LINE
  5
5AB
100
AcDbEntity
  8
0
100
AcDbLine
 62
7
  6
CONTINUOUS
 10
205.8750110332
 20
106.9864427104
 11
233.8750110332
 21
106.9864427104
  0
LINE
  5
5AC
100
AcDbEntity
  8
0
100
AcDbLine
 62
7
  6
CONTINUOUS
 10
205.8750110332
 20
108.1864427104
 11
233.8750110332
 21
108.1864427104
  0
LINE
  5
5AD
100
AcDbEntity
  8
0
100
AcDbLine
 62
7
  6
CONTINUOUS
 10
231.3643727507
 20
97.386442711
 11
231.194159991
 21
97.5114427104
  0
LWPOLYLINE
  5
5AE
100
AcDbEntity
  8
RUNDUNGEN
100
AcDbPolyline
 62
7
  6
CONTINUOUS
 90
11
 70
0
 10
214.8487243404
 20
96.4732636181
 10
214.7697751437
 20
96.0686467883
 10
214.6395536655
 20
95.6777589715
 10
214.4602055766
 20
95.3068738231
 10
214.2345789766
 20
94.9619501712
 10
213.9664540477
 20
94.6488521849
 10
213.6603230896
 20
94.3728338004
 10
213.3212506228
 20
94.138455688
 10
212.954861488
 20
93.94960668
 10
212.56723829
 20
93.8094220216
 10
212.1648167337
 20
93.7202276609
  0
LWPOLYLINE
  5
5AF
100
AcDbEntity
  8
0
100
AcDbPolyline
 62
7
  6
CONTINUOUS
 90
8
 70
0
 10
232.9270093643
 20
128.6080004573
 10
233.1903026593
 20
128.8907075603
 10
233.4149983622
 20
129.2019841015
 10
233.5978713249
 20
129.5371463119
 10
233.7361923068
 20
129.8912906908
 10
233.8278720871
 20
130.2592533777
 10
233.87127679
 20
130.6354854675
 10
233.874966356
 20
130.781821681
  0
LINE
  5
5B0
100
AcDbEntity
  8
AUSFORMSCHRAEGEN
100
AcDbLine
 62
7
  6
CONTINUOUS
 10
232.7185637961
 20
123.5519382147
 11
232.6444090107
 21
123.4940045679
  0
LWPOLYLINE
  5
5B1
100
AcDbEntity
  8
AUSFORMSCHRAEGEN
100
AcDbPolyline
 62
7
  6
CONTINUOUS
 90
3
 70
0
 10
232.6444090107
 20
123.4940045679
 10
232.5686756612
 20
123.4383513929
 10
232.4914214743
 20
123.3850873645
  0
LWPOLYLINE
  5
5B2
100
AcDbEntity
  8
AUSFORMSCHRAEGEN
100
AcDbPolyline
 62
7
  6
CONTINUOUS
 90
3
 70
0
 10
207.1985748605
 20
123.3900089183
 10
207.1409648383
 20
123.4420826219
 10
207.0848406457
 20
123.4958580452
  0
LINE
  5
5B3
100
AcDbEntity
  8
0
100
AcDbLine
 62
7
  6
CONTINUOUS
 10
206.8064587418
 20
123.6435724078
 11
206.926966671
 21
123.5265614897
  0
LINE
  5
5B4
100
AcDbEntity
  8
AUSFORMSCHRAEGEN
100
AcDbLine
 62
7
  6
CONTINUOUS
 10
207.0848406457
 20
123.4958580452
 11
207.0303314977
 21
123.5508660203
  0
LINE
  5
5B5
100
AcDbEntity
  8
RUNDUNGEN
100
AcDbLine
 62
7
  6
CONTINUOUS
 10
207.3173780711
 20
123.2283250538
 11
207.2434374453
 21
123.3085346279
  0
LINE
  5
5B6
100
AcDbEntity
  8
RUNDUNGEN
100
AcDbLine
 62
7
  6
CONTINUOUS
 10
207.2434374453
 20
123.3085346279
 11
207.1709494744
 21
123.3890279803
  0
LINE
  5
5B7
100
AcDbEntity
  8
RUNDUNGEN
100
AcDbLine
 62
7
  6
CONTINUOUS
 10
207.1709494744
 20
123.3890279803
 11
207.0999141586
 21
123.4698051111
  0
LINE
  5
5B8
100
AcDbEntity
  8
RUNDUNGEN
100
AcDbLine
 62
7
  6
CONTINUOUS
 10
207.0999141586
 20
123.4698051111
 11
207.0303314977
 21
123.5508660203
  0
LWPOLYLINE
  5
5B9
100
AcDbEntity
  8
0
100
AcDbPolyline
 62
7
  6
CONTINUOUS
 90
13
 70
0
 10
212.338187035
 20
124.9923693188
 10
212.4146329335
 20
124.8503888413
 10
212.4672639469
 20
124.6979644897
 10
212.4947105437
 20
124.53906015
 10
212.4962582328
 20
124.3778074411
 10
212.4718663811
 20
124.2184025125
 10
212.4221708933
 20
124.0649939
 10
212.3484644681
 20
123.9215680715
 10
212.2526663851
 20
123.7918568001
 10
212.1372584833
 20
123.6792226737
 10
212.0052132585
 20
123.586583199
 10
211.8600017829
 20
123.5163821241
 10
211.7054475964
 20
123.4704505118
  0
LINE
  5
5BA
100
AcDbEntity
  8
RUNDUNGEN
100
AcDbLine
 62
7
  6
CONTINUOUS
 10
231.9736837582
 20
71.97969289
 11
231.9670653868
 21
72.0017645392
  0
LINE
  5
5BB
100
AcDbEntity
  8
RUNDUNGEN
100
AcDbLine
 62
7
  6
CONTINUOUS
 10
224.9011211716
 20
96.4745656305
 11
224.8750205899
 21
96.8824410785
  0
LWPOLYLINE
  5
5BC
100
AcDbEntity
  8
0
100
AcDbPolyline
 62
7
  6
CONTINUOUS
 90
8
 70
0
 10
232.958056884
 20
123.6584872551
 10
233.2080023599
 20
123.9499530643
 10
233.4241559988
 20
124.2727692868
 10
233.6018289692
 20
124.6220070202
 10
233.7372440292
 20
124.9922437705
 10
233.8275722771
 20
125.3774677006
 10
233.8709025532
 20
125.7705000041
 10
233.8749748019
 20
125.9337901934
  0
LINE
  5
5BD
100
AcDbEntity
  8
RUNDUNGEN
100
AcDbLine
 62
7
  6
CONTINUOUS
 10
232.6500974025
 20
123.4697934808
 11
232.7196765469
 21
123.5508506234
  0
LINE
  5
5BE
100
AcDbEntity
  8
RUNDUNGEN
100
AcDbLine
 62
7
  6
CONTINUOUS
 10
232.5790655958
 20
123.3890201717
 11
232.6500974025
 21
123.4697934808
  0
LINE
  5
5BF
100
AcDbEntity
  8
RUNDUNGEN
100
AcDbLine
 62
7
  6
CONTINUOUS
 10
232.5065811268
 20
123.308530696
 11
232.5790655958
 21
123.3890201717
  0
LINE
  5
5C0
100
AcDbEntity
  8
RUNDUNGEN
100
AcDbLine
 62
7
  6
CONTINUOUS
 10
232.4326439954
 20
123.2283250538
 11
232.5065811268
 21
123.308530696
  0
LINE
  5
5C1
100
AcDbEntity
  8
AUSFORMSCHRAEGEN
100
AcDbLine
 62
7
  6
CONTINUOUS
 10
232.7196765469
 20
123.5508506234
 11
232.665175189
 21
123.4958512329
  0
LINE
  5
5C2
100
AcDbEntity
  8
0
100
AcDbLine
 62
7
  6
CONTINUOUS
 10
232.8230572397
 20
123.5265635297
 11
232.958056884
 21
123.6584872551
  0
LINE
  5
5C3
100
AcDbEntity
  8
0
100
AcDbLine
 62
7
  6
CONTINUOUS
 10
205.8750110332
 20
115.2204173066
 11
233.8750110332
 21
115.2204173066
  0
LINE
  5
5C4
100
AcDbEntity
  8
AUSFORMSCHRAEGEN
100
AcDbLine
 62
7
  6
CONTINUOUS
 10
207.1813276544
 20
123.4383653141
 11
207.1055964348
 21
123.4940173979
  0
LINE
  5
5C5
100
AcDbEntity
  8
AUSFORMSCHRAEGEN
100
AcDbLine
 62
7
  6
CONTINUOUS
 10
207.1055964348
 20
123.4940173979
 11
207.0314428544
 21
123.5519506674
  0
LINE
  5
5C6
100
AcDbEntity
  8
0
100
AcDbLine
 62
7
  6
CONTINUOUS
 10
208.0606318783
 20
127.5485667872
 11
206.9506160916
 21
128.4932200352
  0
LINE
  5
5C7
100
AcDbEntity
  8
RUNDUNGEN
100
AcDbLine
 62
7
  6
CONTINUOUS
 10
206.9506161503
 20
128.4932199853
 11
206.9505830216
 21
128.4932482008
  0
LINE
  5
5C8
100
AcDbEntity
  8
0
100
AcDbLine
 62
7
  6
CONTINUOUS
 10
206.8374268298
 20
128.5944016636
 11
206.9506043405
 21
128.4932732298
  0
LWPOLYLINE
  5
5C9
100
AcDbEntity
  8
0
100
AcDbPolyline
 62
7
  6
CONTINUOUS
 90
3
 70
0
 10
212.1733941395
 20
125.1870241365
 10
212.2399146892
 20
125.1202145078
 10
212.338187035
 20
124.9923693188
  0
LINE
  5
5CA
100
AcDbEntity
  8
0
100
AcDbLine
 62
7
  6
CONTINUOUS
 10
224.8750110332
 20
125.5200196177
 11
224.8750110332
 21
124.5733683807
  0
LINE
  5
5CB
100
AcDbEntity
  8
RUNDUNGEN
100
AcDbLine
 62
7
  6
CONTINUOUS
 10
224.8750110332
 20
97.386442711
 11
224.8750110332
 21
96.8789738232
  0
LINE
  5
5CC
100
AcDbEntity
  8
RUNDUNGEN
100
AcDbLine
 62
7
  6
CONTINUOUS
 10
224.8750110332
 20
78.1889807462
 11
224.8750110332
 21
78.0648546485
  0
LINE
  5
5CD
100
AcDbEntity
  8
0
100
AcDbLine
 62
7
  6
CONTINUOUS
 10
227.8750110332
 20
102.8447762027
 11
227.8750110332
 21
102.3447762027
  0
LINE
  5
5CE
100
AcDbEntity
  8
0
100
AcDbLine
 62
7
  6
CONTINUOUS
 10
227.8750110332
 20
100.2614422336
 11
227.8750110332
 21
99.5114427104
  0
LINE
  5
5CF
100
AcDbEntity
  8
0
100
AcDbLine
 62
7
  6
CONTINUOUS
 10
227.8750110332
 20
98.8447757259
 11
227.8750110332
 21
98.3447757259
  0
LINE
  5
5D0
100
AcDbEntity
  8
0
100
AcDbLine
 62
7
  6
CONTINUOUS
 10
227.8750110332
 20
97.5114427104
 11
227.8750110332
 21
97.386442711
  0
LINE
  5
5D1
100
AcDbEntity
  8
RUNDUNGEN
100
AcDbLine
 62
7
  6
CONTINUOUS
 10
224.8750108589
 20
78.1887614955
 11
224.8802033536
 21
78.3098717379
  0
LINE
  5
5D2
100
AcDbEntity
  8
0
100
AcDbLine
 62
7
  6
CONTINUOUS
 10
205.8750110332
 20
116.5864427104
 11
233.8750110332
 21
116.5864427104
  0
LINE
  5
5D3
100
AcDbEntity
  8
0
100
AcDbLine
 62
7
  6
CONTINUOUS
 10
233.8750110332
 20
117.7864427104
 11
205.8750110332
 21
117.7864427104
  0
LINE
  5
5D4
100
AcDbEntity
  8
0
100
AcDbLine
 62
7
  6
CONTINUOUS
 10
234.1250110332
 20
119.3864427104
 11
233.8750110332
 21
119.3864427104
  0
LINE
  5
5D5
100
AcDbEntity
  8
0
100
AcDbLine
 62
7
  6
CONTINUOUS
 10
234.1250110332
 20
119.4289959006
 11
233.8750110332
 21
119.4289959006
  0
LINE
  5
5D6
100
AcDbEntity
  8
0
100
AcDbLine
 62
7
  6
CONTINUOUS
 10
234.1250110332
 20
119.4672936548
 11
233.8750110332
 21
119.4672936548
  0
LINE
  5
5D7
100
AcDbEntity
  8
0
100
AcDbLine
 62
7
  6
CONTINUOUS
 10
234.1250110332
 20
119.7126834032
 11
233.8750110332
 21
119.7126834032
  0
LINE
  5
5D8
100
AcDbEntity
  8
0
100
AcDbLine
 62
7
  6
CONTINUOUS
 10
233.8750110332
 20
119.7268682315
 11
234.1250110332
 21
119.7268682315
  0
LINE
  5
5D9
100
AcDbEntity
  8
0
100
AcDbLine
 62
7
  6
CONTINUOUS
 10
233.8750110332
 20
119.9821873799
 11
234.1250110332
 21
119.9821873799
  0
LINE
  5
5DA
100
AcDbEntity
  8
0
100
AcDbLine
 62
7
  6
CONTINUOUS
 10
208.0607618995
 20
127.5485059886
 11
208.1688268749
 21
127.4763229523
  0
LINE
  5
5DB
100
AcDbEntity
  8
0
100
AcDbLine
 62
7
  6
CONTINUOUS
 10
206.9337930929
 20
133.819691984
 11
208.213954609
 21
132.6670293775
  0
LINE
  5
5DC
100
AcDbEntity
  8
RUNDUNGEN
100
AcDbLine
 62
7
  6
CONTINUOUS
 10
206.9337930929
 20
133.819691984
 11
213.8162289736
 21
127.6227188824
  0
LINE
  5
5DD
100
AcDbEntity
  8
0
100
AcDbLine
 62
7
  6
CONTINUOUS
 10
228.3005428974
 20
97.386442711
 11
228.3005428974
 21
97.5114427104
  0
LINE
  5
5DE
100
AcDbEntity
  8
0
100
AcDbLine
 62
7
  6
CONTINUOUS
 10
231.8750110332
 20
98.3447757259
 11
231.8750110332
 21
98.8447757259
  0
LINE
  5
5DF
100
AcDbEntity
  8
0
100
AcDbLine
 62
7
  6
CONTINUOUS
 10
231.8750110332
 20
99.5114427104
 11
231.8750110332
 21
100.0114422336
  0
LINE
  5
5E0
100
AcDbEntity
  8
0
100
AcDbLine
 62
7
  6
CONTINUOUS
 10
231.8750110332
 20
102.0947762027
 11
231.8750110332
 21
102.8447762027
  0
LWPOLYLINE
  5
5E1
100
AcDbEntity
  8
RUNDUNGEN
100
AcDbPolyline
 62
7
  6
CONTINUOUS
 90
3
 70
0
 10
224.8802033536
 20
78.3098717379
 10
224.8991446459
 20
78.4581079211
 10
224.9103748383
 20
78.5180466291
  0
LINE
  5
5E2
100
AcDbEntity
  8
RUNDUNGEN
100
AcDbLine
 62
7
  6
CONTINUOUS
 10
221.6084267437
 20
61.4214144893
 11
221.6074863779
 21
61.4161191714
  0
LINE
  5
5E3
100
AcDbEntity
  8
RUNDUNGEN
100
AcDbLine
 62
7
  6
CONTINUOUS
 10
224.9103748383
 20
78.5180466291
 11
224.9104249275
 21
78.5182923115
  0
LWPOLYLINE
  5
5E4
100
AcDbEntity
  8
RUNDUNGEN
100
AcDbPolyline
 62
7
  6
CONTINUOUS
 90
9
 70
0
 10
207.0622253223
 20
91.8555665377
 10
206.9104225719
 20
91.7598962812
 10
206.619318057
 20
91.5362704512
 10
206.3723666685
 20
91.2868626329
 10
206.172538174
 20
91.0155664297
 10
206.0223210673
 20
90.7265423714
 10
205.9241212822
 20
90.4261406241
 10
205.8787696898
 20
90.1227435536
 10
205.8750503495
 20
90.008859096
  0
LINE
  5
5E5
100
AcDbEntity
  8
RUNDUNGEN
100
AcDbLine
 62
7
  6
CONTINUOUS
 10
207.8428064789
 20
92.31670009
 11
207.0622081238
 21
91.8555796264
  0
LINE
  5
5E6
100
AcDbEntity
  8
RUNDUNGEN
100
AcDbLine
 62
7
  6
CONTINUOUS
 10
208.555431964
 20
92.7031297264
 11
207.8427091327
 21
92.3166456418
  0
LINE
  5
5E7
100
AcDbEntity
  8
0
100
AcDbLine
 62
7
  6
CONTINUOUS
 10
213.9273469895
 20
123.574738846
 11
207.2965070989
 21
123.2272312525
  0
LINE
  5
5E8
100
AcDbEntity
  8
RUNDUNGEN
100
AcDbLine
 62
7
  6
CONTINUOUS
 10
207.2541397657
 20
123.2250108747
 11
206.9337930929
 21
123.2082222169
  0
LINE
  5
5E9
100
AcDbEntity
  8
0
100
AcDbLine
 62
7
  6
CONTINUOUS
 10
233.8750110332
 20
120.237506558
 11
234.1250110332
 21
120.237506558
  0
LINE
  5
5EA
100
AcDbEntity
  8
0
100
AcDbLine
 62
7
  6
CONTINUOUS
 10
233.8750110332
 20
120.5353788629
 11
234.1250110332
 21
120.5353788629
  0
LINE
  5
5EB
100
AcDbEntity
  8
0
100
AcDbLine
 62
7
  6
CONTINUOUS
 10
233.8750110332
 20
120.7906979814
 11
234.1250110332
 21
120.7906979814
  0
LINE
  5
5EC
100
AcDbEntity
  8
0
100
AcDbLine
 62
7
  6
CONTINUOUS
 10
233.8750110332
 20
121.0460172191
 11
234.1250110332
 21
121.0460172191
  0
LINE
  5
5ED
100
AcDbEntity
  8
0
100
AcDbLine
 62
7
  6
CONTINUOUS
 10
234.1250110332
 20
121.0602020474
 11
233.8750110332
 21
121.0602020474
  0
LINE
  5
5EE
100
AcDbEntity
  8
0
100
AcDbLine
 62
7
  6
CONTINUOUS
 10
234.1250110332
 20
121.3055917731
 11
233.8750110332
 21
121.3055917731
  0
LINE
  5
5EF
100
AcDbEntity
  8
0
100
AcDbLine
 62
7
  6
CONTINUOUS
 10
233.8750110332
 20
121.343889524
 11
234.1250110332
 21
121.343889524
  0
LINE
  5
5F0
100
AcDbEntity
  8
0
100
AcDbLine
 62
7
  6
CONTINUOUS
 10
233.8750110332
 20
121.3864427104
 11
234.1250110332
 21
121.3864427104
  0
LINE
  5
5F1
100
AcDbEntity
  8
0
100
AcDbLine
 62
7
  6
CONTINUOUS
 10
232.4535149676
 20
123.2272312525
 11
225.822675077
 21
123.574738846
  0
LINE
  5
5F2
100
AcDbEntity
  8
RUNDUNGEN
100
AcDbLine
 62
7
  6
CONTINUOUS
 10
232.4958823007
 20
123.2250108747
 11
232.8162289736
 21
123.2082222169
  0
LWPOLYLINE
  5
5F3
100
AcDbEntity
  8
0
100
AcDbPolyline
 62
7
  6
CONTINUOUS
 90
19
 70
0
 10
208.3921937868
 20
127.362322198
 10
208.5772883227
 20
127.2728310782
 10
208.7849011217
 20
127.1860383986
 10
208.9989338651
 20
127.1105994001
 10
209.1950699515
 20
127.0459074051
 10
209.3891008118
 20
126.9782420314
 10
209.5927678694
 20
126.8995569428
 10
209.8046729184
 20
126.8081213235
 10
210.0274362856
 20
126.7017207739
 10
210.256207825
 20
126.5818721509
 10
210.4872369672
 20
126.4503448144
 10
210.717552222
 20
126.3089909758
 10
210.9425467409
 20
126.1613445741
 10
211.162686312
 20
126.0079535582
 10
211.377327887
 20
125.8499144142
 10
211.5865422906
 20
125.6876813267
 10
211.7902749218
 20
125.5217129832
 10
211.9887273061
 20
125.3521446859
 10
212.1733827246
 20
125.1870229944
  0
LINE
  5
5F4
100
AcDbEntity
  8
0
100
AcDbLine
 62
7
  6
CONTINUOUS
 10
208.385327693
 20
127.3657190691
 11
208.1689989918
 21
127.4762267772
  0
LINE
  5
5F5
100
AcDbEntity
  8
RUNDUNGEN
100
AcDbLine
 62
7
  6
CONTINUOUS
 10
208.1688492651
 20
127.4763032625
 11
208.1686855633
 21
127.4763869653
  0
LWPOLYLINE
  5
5F6
100
AcDbEntity
  8
RUNDUNGEN
100
AcDbPolyline
 62
7
  6
CONTINUOUS
 90
8
 70
0
 10
233.8706293712
 20
64.1430117816
 10
233.8702338699
 20
64.156868372
 10
233.8242848883
 20
64.5330166596
 10
233.7300958798
 20
64.9005101972
 10
233.5893730948
 20
65.2538170723
 10
233.4042804717
 20
65.5877801669
 10
233.1775895952
 20
65.8975485787
 10
232.9125952367
 20
66.1784837572
  0
LWPOLYLINE
  5
5F7
100
AcDbEntity
  8
RUNDUNGEN
100
AcDbPolyline
 62
7
  6
CONTINUOUS
 90
9
 70
0
 10
233.8749716215
 20
90.008898357
 10
233.8722327784
 20
90.1063137222
 10
233.8295987069
 20
90.4101714241
 10
233.7340703269
 20
90.7112256319
 10
233.5863861646
 20
91.0011819485
 10
233.3888442439
 20
91.2737183012
 10
233.143827776
 20
91.5246483601
 10
232.8541152584
 20
91.7500840008
 10
232.6878153123
 20
91.8555553277
  0
LWPOLYLINE
  5
5F8
100
AcDbEntity
  8
RUNDUNGEN
100
AcDbPolyline
 62
7
  6
CONTINUOUS
 90
9
 70
0
 10
233.874966356
 20
63.9910637398
 10
233.87127679
 20
64.1373999533
 10
233.8278720871
 20
64.5136320432
 10
233.7361923068
 20
64.88159473
 10
233.5978713249
 20
65.2357391089
 10
233.4149983622
 20
65.5709013194
 10
233.1903026593
 20
65.8821778605
 10
232.9270093643
 20
66.1648849635
 10
232.7994193537
 20
66.2796107608
  0
LWPOLYLINE
  5
5F9
100
AcDbEntity
  8
RUNDUNGEN
100
AcDbPolyline
 62
7
  6
CONTINUOUS
 90
8
 70
0
 10
233.8749748049
 20
68.8390952289
 10
233.8709025038
 20
69.0023865375
 10
233.8275719095
 20
69.3954198796
 10
233.7372430887
 20
69.7806447844
 10
233.6018272952
 20
70.1508822377
 10
233.4241536133
 20
70.5001202446
 10
233.2079993315
 20
70.8229363286
 10
232.9580535903
 20
71.114401533
  0
LWPOLYLINE
  5
5FA
100
AcDbEntity
  8
RUNDUNGEN
100
AcDbPolyline
 62
7
  6
CONTINUOUS
 90
9
 70
0
 10
233.8749533641
 20
82.1666026185
 10
233.874035248
 20
82.2142029816
 10
233.8384119238
 20
82.4869383999
 10
233.7446195923
 20
82.7685995869
 10
233.5908045653
 20
83.041967504
 10
233.3807781744
 20
83.2953616068
 10
233.1185814284
 20
83.5237831227
 10
232.8113925568
 20
83.7224958875
 10
232.6246727102
 20
83.8189691025
  0
LINE
  5
5FB
100
AcDbEntity
  8
AUSFORMSCHRAEGEN
100
AcDbLine
 62
7
  6
CONTINUOUS
 10
232.8162289736
 20
71.5646632039
 11
232.8162289736
 21
71.2463218819
  0
LINE
  5
5FC
100
AcDbEntity
  8
AUSFORMSCHRAEGEN
100
AcDbLine
 62
7
  6
CONTINUOUS
 10
232.8162289736
 20
123.2082222169
 11
232.8162289736
 21
123.6338476969
  0
LINE
  5
5FD
100
AcDbEntity
  8
0
100
AcDbLine
 62
7
  6
CONTINUOUS
 10
233.8750110332
 20
136.857798515
 11
233.8750110332
 21
136.6346601982
  0
LINE
  5
5FE
100
AcDbEntity
  8
0
100
AcDbLine
 62
7
  6
CONTINUOUS
 10
233.8750110332
 20
132.0144604064
 11
233.8750110332
 21
131.9995799743
  0
LINE
  5
5FF
100
AcDbEntity
  8
0
100
AcDbLine
 62
7
  6
CONTINUOUS
 10
233.8750110332
 20
127.1566350299
 11
233.8750110332
 21
127.0854718754
  0
LINE
  5
600
100
AcDbEntity
  8
RUNDUNGEN
100
AcDbLine
 62
7
  6
CONTINUOUS
 10
233.8750110332
 20
57.9150869058
 11
233.8750110332
 21
58.5751299953
  0
LINE
  5
601
100
AcDbEntity
  8
RUNDUNGEN
100
AcDbLine
 62
7
  6
CONTINUOUS
 10
233.8750110332
 20
62.7604297715
 11
233.8750110332
 21
63.9909179283
  0
LINE
  5
602
100
AcDbEntity
  8
RUNDUNGEN
100
AcDbLine
 62
7
  6
CONTINUOUS
 10
233.8750110332
 20
67.6162457837
 11
233.8750110332
 21
68.8390500374
  0
LINE
  5
603
100
AcDbEntity
  8
RUNDUNGEN
100
AcDbLine
 62
7
  6
CONTINUOUS
 10
233.8750110332
 20
73.0482397151
 11
233.8750110332
 21
97.386442711
  0
LINE
  5
604
100
AcDbEntity
  8
0
100
AcDbLine
 62
7
  6
CONTINUOUS
 10
233.8750110332
 20
97.386442711
 11
233.8750110332
 21
119.4672936548
  0
LINE
  5
605
100
AcDbEntity
  8
0
100
AcDbLine
 62
7
  6
CONTINUOUS
 10
233.8750110332
 20
119.7126834032
 11
233.8750110332
 21
121.0602020474
  0
LINE
  5
606
100
AcDbEntity
  8
0
100
AcDbLine
 62
7
  6
CONTINUOUS
 10
233.8750110332
 20
121.3055917731
 11
233.8750110332
 21
121.7292869504
  0
LINE
  5
607
100
AcDbEntity
  8
0
100
AcDbLine
 62
7
  6
CONTINUOUS
 10
233.8750110332
 20
125.9338353834
 11
233.8750110332
 21
126.7889410493
  0
LINE
  5
608
100
AcDbEntity
  8
RUNDUNGEN
100
AcDbLine
 62
7
  6
CONTINUOUS
 10
233.8750110332
 20
125.9338353834
 11
233.8750110332
 21
127.1566396371
  0
LINE
  5
609
100
AcDbEntity
  8
RUNDUNGEN
100
AcDbLine
 62
7
  6
CONTINUOUS
 10
233.8750110332
 20
130.7819674926
 11
233.8750110332
 21
132.0143709792
  0
LINE
  5
60A
100
AcDbEntity
  8
RUNDUNGEN
100
AcDbLine
 62
7
  6
CONTINUOUS
 10
233.8750110332
 20
136.1977554255
 11
233.8750110332
 21
136.857798515
  0
LINE
  5
60B
100
AcDbEntity
  8
0
100
AcDbLine
 62
7
  6
CONTINUOUS
 10
234.1250110332
 20
121.0460172191
 11
234.1250110332
 21
119.7268682315
  0
LINE
  5
60C
100
AcDbEntity
  8
0
100
AcDbLine
 62
7
  6
CONTINUOUS
 10
234.1250110332
 20
87.0704192414
 11
234.1250110332
 21
88.1030602499
  0
LINE
  5
60D
100
AcDbEntity
  8
0
100
AcDbLine
 62
7
  6
CONTINUOUS
 10
234.1250110332
 20
88.1602058528
 11
234.1250110332
 21
88.1653747603
  0
LINE
  5
60E
100
AcDbEntity
  8
0
100
AcDbLine
 62
7
  6
CONTINUOUS
 10
234.1250110332
 20
88.4413391396
 11
234.1250110332
 21
88.8923777386
  0
LINE
  5
60F
100
AcDbEntity
  8
0
100
AcDbLine
 62
7
  6
CONTINUOUS
 10
234.1250110332
 20
89.1831787869
 11
234.1250110332
 21
90.5630008026
  0
LINE
  5
610
100
AcDbEntity
  8
0
100
AcDbLine
 62
7
  6
CONTINUOUS
 10
234.1250110332
 20
90.7380751416
 11
234.1250110332
 21
91.8003896519
  0
LINE
  5
611
100
AcDbEntity
  8
0
100
AcDbLine
 62
7
  6
CONTINUOUS
 10
234.1250110332
 20
91.8152264401
 11
234.1250110332
 21
92.206917648
  0
LINE
  5
612
100
AcDbEntity
  8
0
100
AcDbLine
 62
7
  6
CONTINUOUS
 10
234.1250110332
 20
92.5570663258
 11
234.1250110332
 21
93.0081046864
  0
LINE
  5
613
100
AcDbEntity
  8
0
100
AcDbLine
 62
7
  6
CONTINUOUS
 10
234.1250110332
 20
93.3701223179
 11
234.1250110332
 21
93.8211611554
  0
LINE
  5
614
100
AcDbEntity
  8
0
100
AcDbLine
 62
7
  6
CONTINUOUS
 10
234.1250110332
 20
94.1713093563
 11
234.1250110332
 21
95.5600332066
  0
LINE
  5
615
100
AcDbEntity
  8
0
100
AcDbLine
 62
7
  6
CONTINUOUS
 10
234.1250110332
 20
95.8389648243
 11
234.1250110332
 21
96.9012798115
  0
LINE
  5
616
100
AcDbEntity
  8
0
100
AcDbLine
 62
7
  6
CONTINUOUS
 10
234.1250110332
 20
96.9161161229
 11
234.1250110332
 21
97.3078082844
  0
LINE
  5
617
100
AcDbEntity
  8
0
100
AcDbLine
 62
7
  6
CONTINUOUS
 10
234.1250110332
 20
119.3864427104
 11
234.1250110332
 21
119.7126834032
  0
LINE
  5
618
100
AcDbEntity
  8
0
100
AcDbLine
 62
7
  6
CONTINUOUS
 10
234.1250110332
 20
121.0602020474
 11
234.1250110332
 21
121.3864427104
  0
LWPOLYLINE
  5
619
100
AcDbEntity
  8
RUNDUNGEN
100
AcDbPolyline
 62
7
  6
CONTINUOUS
 90
21
 70
0
 10
224.910421754
 20
78.5182930544
 10
224.9258137285
 20
78.5870570634
 10
224.9626315982
 20
78.71770535
 10
225.0084110893
 20
78.8452222319
 10
225.0620965412
 20
78.9677969704
 10
225.1224465837
 20
79.0839600712
 10
225.1880813949
 20
79.192553535
 10
225.2576899188
 20
79.2929446068
 10
225.3299797372
 20
79.3847515994
 10
225.4034486603
 20
79.4675181806
 10
225.4766613545
 20
79.5410848679
 10
225.548175808
 20
79.6054472468
 10
225.6165425588
 20
79.6607251885
 10
225.6806291961
 20
79.7073759203
 10
225.7393092045
 20
79.7458871439
 10
225.7917099536
 20
79.7769201496
 10
225.8368934821
 20
79.801076072
 10
225.8746299178
 20
79.8192918051
 10
225.9044920621
 20
79.8323123722
 10
225.9269440759
 20
79.8411526768
 10
225.9351563318
 20
79.8440710828
  0
LINE
  5
61A
100
AcDbEntity
  8
0
100
AcDbLine
 62
7
  6
CONTINUOUS
 10
231.2792663638
 20
102.3447762027
 11
227.8750110332
 21
100.2614422336
  0
LINE
  5
61B
100
AcDbEntity
  8
0
100
AcDbLine
 62
7
  6
CONTINUOUS
 10
228.3856492702
 20
100.0114422336
 11
231.8750110332
 21
102.0947762027
  0
LWPOLYLINE
  5
61C
100
AcDbEntity
  8
RUNDUNGEN
100
AcDbPolyline
 62
7
  6
CONTINUOUS
 90
8
 70
0
 10
206.8064616155
 20
71.1293159104
 10
206.5547010139
 20
70.8395112441
 10
206.3364662171
 20
70.5180577119
 10
206.1565249741
 20
70.1698437088
 10
206.0187087247
 20
69.8002502993
 10
205.925924048
 20
69.4152891121
 10
205.880161135
 20
69.0221248749
 10
205.8750473045
 20
68.8390951448
  0
LINE
  5
61D
100
AcDbEntity
  8
0
100
AcDbLine
 62
7
  6
CONTINUOUS
 10
230.0026705925
 20
97.5114427104
 11
229.8324578476
 21
97.386442711
  0
LWPOLYLINE
  5
61E
100
AcDbEntity
  8
RUNDUNGEN
100
AcDbPolyline
 62
7
  6
CONTINUOUS
 90
9
 70
0
 10
207.1254091066
 20
83.8189974751
 10
206.9538742095
 20
83.7309684677
 10
206.6456468856
 20
83.5343429187
 10
206.3813860558
 20
83.3076428901
 10
206.1687598634
 20
83.055655483
 10
206.0120282527
 20
82.7833413073
 10
205.9152248307
 20
82.5024667312
 10
205.876661862
 20
82.2305340798
 10
205.8750686098
 20
82.1665896147
  0
LINE
  5
61F
100
AcDbEntity
  8
0
100
AcDbLine
 62
7
  6
CONTINUOUS
 10
230.4282025759
 20
97.6781092181
 11
230.0026705925
 21
97.5114427104
  0
LINE
  5
620
100
AcDbEntity
  8
0
100
AcDbLine
 62
7
  6
CONTINUOUS
 10
206.6680298048
 20
127.956932519
 11
207.5715164805
 21
127.9648171277
  0
LINE
  5
621
100
AcDbEntity
  8
0
100
AcDbLine
 62
7
  6
CONTINUOUS
 10
232.178505586
 20
127.9648171277
 11
233.0819922616
 21
127.956932519
  0
LINE
  5
622
100
AcDbEntity
  8
0
100
AcDbLine
 62
7
  6
CONTINUOUS
 10
224.8440252999
 20
128.2562467675
 11
221.111078998
 21
129.469154546
  0
LWPOLYLINE
  5
623
100
AcDbEntity
  8
AUSFORMSCHRAEGEN
100
AcDbPolyline
 62
7
  6
CONTINUOUS
 90
5
 70
0
 10
232.8162288608
 20
123.6338524673
 10
232.8143924991
 20
123.6383934362
 10
232.8124698934
 20
123.6430114289
 10
232.8104613544
 20
123.6477056988
 10
232.808367207
 20
123.6524754871
  0
LINE
  5
624
100
AcDbEntity
  8
RUNDUNGEN
100
AcDbLine
 62
7
  6
CONTINUOUS
 10
206.9269666792
 20
71.2463239227
 11
206.8064616155
 21
71.1293159104
  0
LINE
  5
625
100
AcDbEntity
  8
RUNDUNGEN
100
AcDbLine
 62
7
  6
CONTINUOUS
 10
207.707551502
 20
71.9657250271
 11
206.9269539283
 21
71.2463500187
  0
LINE
  5
626
100
AcDbEntity
  8
RUNDUNGEN
100
AcDbLine
 62
7
  6
CONTINUOUS
 10
207.9432672818
 20
72.1804649535
 11
207.7075508279
 21
71.9657255521
  0
LINE
  5
627
100
AcDbEntity
  8
RUNDUNGEN
100
AcDbLine
 62
7
  6
CONTINUOUS
 10
208.006280133
 20
72.2370354905
 11
207.9432672818
 21
72.1804649535
  0
LINE
  5
628
100
AcDbEntity
  8
RUNDUNGEN
100
AcDbLine
 62
7
  6
CONTINUOUS
 10
208.2544770678
 20
84.3571190566
 11
207.1249181113
 21
83.8187866896
  0
LINE
  5
629
100
AcDbEntity
  8
RUNDUNGEN
100
AcDbLine
 62
7
  6
CONTINUOUS
 10
208.3036932072
 20
84.3780804907
 11
208.2547833364
 21
84.3572551863
  0
LINE
  5
62A
100
AcDbEntity
  8
0
100
AcDbLine
 62
7
  6
CONTINUOUS
 10
206.6680298048
 20
132.8144374611
 11
208.0226021783
 21
132.8262586351
  0
LINE
  5
62B
100
AcDbEntity
  8
0
100
AcDbLine
 62
7
  6
CONTINUOUS
 10
231.7274198882
 20
132.8262586351
 11
233.0819922616
 21
132.8144374611
  0
LWPOLYLINE
  5
62C
100
AcDbEntity
  8
RUNDUNGEN
100
AcDbPolyline
 62
7
  6
CONTINUOUS
 90
9
 70
0
 10
206.9506043405
 20
66.2796121911
 10
206.8374268298
 20
66.1784837572
 10
206.5724324713
 20
65.8975485787
 10
206.3457415948
 20
65.5877801669
 10
206.1606489716
 20
65.2538170723
 10
206.0199261866
 20
64.9005101972
 10
205.9257371782
 20
64.5330166596
 10
205.8797881965
 20
64.156868372
 10
205.8750557033
 20
63.9910630295
  0
LINE
  5
62D
100
AcDbEntity
  8
RUNDUNGEN
100
AcDbLine
 62
7
  6
CONTINUOUS
 10
207.5715164805
 20
66.8080682931
 11
206.9506160916
 21
66.2796653856
  0
LINE
  5
62E
100
AcDbEntity
  8
RUNDUNGEN
100
AcDbLine
 62
7
  6
CONTINUOUS
 10
206.6680298048
 20
137.6577680534
 11
219.8401048912
 21
137.7727190113
  0
LINE
  5
62F
100
AcDbEntity
  8
0
100
AcDbLine
 62
7
  6
CONTINUOUS
 10
219.8401048915
 20
137.7727190113
 11
219.9099171752
 21
137.7727190113
  0
LINE
  5
630
100
AcDbEntity
  8
RUNDUNGEN
100
AcDbLine
 62
7
  6
CONTINUOUS
 10
219.9099171752
 20
137.7727190113
 11
233.0819922616
 21
137.6577680534
  0
LINE
  5
631
100
AcDbEntity
  8
0
100
AcDbLine
 62
7
  6
CONTINUOUS
 10
219.9099171752
 20
137.7727190113
 11
233.0819922616
 21
137.6577680534
  0
LINE
  5
632
100
AcDbEntity
  8
RUNDUNGEN
100
AcDbLine
 62
7
  6
CONTINUOUS
 10
208.0369733153
 20
61.9465013707
 11
206.9337930929
 21
60.9531934368
  0
LWPOLYLINE
  5
633
100
AcDbEntity
  8
RUNDUNGEN
100
AcDbPolyline
 62
7
  6
CONTINUOUS
 90
10
 70
0
 10
233.3783022942
 20
80.03644847
 10
233.4519900725
 20
80.0716727223
 10
233.5282973896
 20
80.1185059461
 10
233.6033753082
 20
80.1773201227
 10
233.6747979068
 20
80.2488773204
 10
233.7394669617
 20
80.3329567732
 10
233.7944366044
 20
80.428791822
 10
233.8368367384
 20
80.534710956
 10
233.8643507707
 20
80.6489789219
 10
233.874974785
 20
80.7790421523
  0
ARC
  5
634
100
AcDbEntity
  8
RUNDUNGEN
100
AcDbCircle
 62
7
  6
CONTINUOUS
 10
89.8812895165
 20
69.6962888801
 40
6.919014078
100
AcDbArc
 50
304.0127023945
 51
333.8887091865
  0
ARC
  5
635
100
AcDbEntity
  8
RUNDUNGEN
100
AcDbCircle
 62
7
  6
CONTINUOUS
 10
89.881905752
 20
69.6957724648
 40
6.9187815897
100
AcDbArc
 50
146.3018634161
 51
163.9875081469
  0
ARC
  5
636
100
AcDbEntity
  8
RUNDUNGEN
100
AcDbCircle
 62
7
  6
CONTINUOUS
 10
84.7756643346
 20
70.4336447299
 40
2.689202205
100
AcDbArc
 50
356.8946250259
 51
357.8854777972
  0
ARC
  5
637
100
AcDbEntity
  8
RUNDUNGEN
100
AcDbCircle
 62
7
  6
CONTINUOUS
 10
84.8802387262
 20
70.454563552
 40
2.5877708873
100
AcDbArc
 50
346.4398231727
 51
349.5889964629
  0
ARC
  5
638
100
AcDbEntity
  8
RUNDUNGEN
100
AcDbCircle
 62
7
  6
CONTINUOUS
 10
85.0544788106
 20
70.416452297
 40
2.4098666685
100
AcDbArc
 50
353.3045996773
 51
356.9436765942
  0
ARC
  5
639
100
AcDbEntity
  8
RUNDUNGEN
100
AcDbCircle
 62
7
  6
CONTINUOUS
 10
85.1059899553
 20
70.4142755225
 40
2.3584561691
100
AcDbArc
 50
349.5605654219
 51
353.2112190887
  0
ARC
  5
63A
100
AcDbEntity
  8
RUNDUNGEN
100
AcDbCircle
 62
7
  6
CONTINUOUS
 10
80.5547380088
 20
71.6560342269
 40
1.499983007
100
AcDbArc
 50
5.1815947093
 51
70.3255498962
  0
ARC
  5
63B
100
AcDbEntity
  8
RUNDUNGEN
100
AcDbCircle
 62
7
  6
CONTINUOUS
 10
83.9154533873
 20
67.9006973228
 40
1.1998476865
100
AcDbArc
 50
234.0
 51
311.5
  0
ARC
  5
63C
100
AcDbEntity
  8
RUNDUNGEN
100
AcDbCircle
 62
7
  6
CONTINUOUS
 10
90.0179579051
 20
63.4669682632
 40
1.1998476865
100
AcDbArc
 50
156.5
 51
234.0
  0
ARC
  5
63D
100
AcDbEntity
  8
RUNDUNGEN
100
AcDbCircle
 62
7
  6
CONTINUOUS
 10
90.0179579051
 20
63.4669682632
 40
1.0847444209
100
AcDbArc
 50
156.5
 51
234.0
  0
ARC
  5
63E
100
AcDbEntity
  8
RUNDUNGEN
100
AcDbCircle
 62
7
  6
CONTINUOUS
 10
83.9154533873
 20
67.9006973228
 40
1.0847444209
100
AcDbArc
 50
234.0
 51
311.5
  0
ARC
  5
63F
100
AcDbEntity
  8
AUSFORMSCHRAEGEN
100
AcDbCircle
 62
7
  6
CONTINUOUS
 10
83.6719797644
 20
70.2041974991
 40
1.0465755071
100
AcDbArc
 50
61.0969076496
 51
63.282318697
  0
ARC
  5
640
100
AcDbEntity
  8
RUNDUNGEN
100
AcDbCircle
 62
7
  6
CONTINUOUS
 10
88.5517175304
 20
69.8880895929
 40
0.9999999697
100
AcDbArc
 50
90.0000000073
 51
152.592548268
  0
ARC
  5
641
100
AcDbEntity
  8
RUNDUNGEN
100
AcDbCircle
 62
7
  6
CONTINUOUS
 10
83.1620457625
 20
68.2008664076
 40
0.9998476865
100
AcDbArc
 50
166.7700542547
 51
234.0
  0
ARC
  5
642
100
AcDbEntity
  8
RUNDUNGEN
100
AcDbCircle
 62
7
  6
CONTINUOUS
 10
83.1620457625
 20
68.2008664076
 40
0.8847444209
100
AcDbArc
 50
163.5259415796
 51
234.0
  0
ARC
  5
643
100
AcDbEntity
  8
0
100
AcDbCircle
 62
7
  6
CONTINUOUS
 10
87.0333627776
 20
88.3612932722
 40
9.8901349953
100
AcDbArc
 50
89.9869912313
 51
92.8073694548
  0
ARC
  5
644
100
AcDbEntity
  8
0
100
AcDbCircle
 62
7
  6
CONTINUOUS
 10
87.013162918
 20
85.1000868086
 40
9.0830920704
100
AcDbArc
 50
90.008159267
 51
92.9294406494
  0
ARC
  5
645
100
AcDbEntity
  8
0
100
AcDbCircle
 62
7
  6
CONTINUOUS
 10
87.0131204253
 20
95.4103487425
 40
9.0814348478
100
AcDbArc
 50
90.0078926647
 51
92.9297072517
  0
ARC
  5
646
100
AcDbEntity
  8
RUNDUNGEN
100
AcDbCircle
 62
7
  6
CONTINUOUS
 10
77.4477572237
 20
86.8101188511
 40
6.9190139258
100
AcDbArc
 50
268.0127026419
 51
297.8887381279
  0
ARC
  5
647
100
AcDbEntity
  8
RUNDUNGEN
100
AcDbCircle
 62
7
  6
CONTINUOUS
 10
77.4480730988
 20
86.8091457335
 40
6.9190082846
100
AcDbArc
 50
98.1114881349
 51
127.9873117513
  0
ARC
  5
648
100
AcDbEntity
  8
RUNDUNGEN
100
AcDbCircle
 62
7
  6
CONTINUOUS
 10
82.6496499163
 20
77.5152502188
 40
4.7224930918
100
AcDbArc
 50
181.6739491328
 51
250.3260508672
  0
ARC
  5
649
100
AcDbEntity
  8
RUNDUNGEN
100
AcDbCircle
 62
7
  6
CONTINUOUS
 10
71.0543280032
 20
93.8775957234
 40
1.499983007
100
AcDbArc
 50
337.3246517291
 51
34.3255498962
  0
ARC
  5
64A
100
AcDbEntity
  8
RUNDUNGEN
100
AcDbCircle
 62
7
  6
CONTINUOUS
 10
76.4298611733
 20
77.3334592686
 40
1.4999709869
100
AcDbArc
 50
1.6748027099
 51
58.6771467473
  0
ARC
  5
64B
100
AcDbEntity
  8
RUNDUNGEN
100
AcDbCircle
 62
7
  6
CONTINUOUS
 10
71.565872208
 20
88.8640854117
 40
1.1998476865
100
AcDbArc
 50
198.0
 51
275.5
  0
ARC
  5
64C
100
AcDbEntity
  8
RUNDUNGEN
100
AcDbCircle
 62
7
  6
CONTINUOUS
 10
73.8968215173
 20
81.6901610964
 40
1.1998476865
100
AcDbArc
 50
120.5
 51
198.0
  0
ARC
  5
64D
100
AcDbEntity
  8
RUNDUNGEN
100
AcDbCircle
 62
7
  6
CONTINUOUS
 10
73.8968215173
 20
81.6901610964
 40
1.0847444209
100
AcDbArc
 50
120.5
 51
198.0
  0
ARC
  5
64E
100
AcDbEntity
  8
RUNDUNGEN
100
AcDbCircle
 62
7
  6
CONTINUOUS
 10
71.565872208
 20
88.8640854117
 40
1.0847444209
100
AcDbArc
 50
198.0
 51
275.5
  0
ARC
  5
64F
100
AcDbEntity
  8
RUNDUNGEN
100
AcDbCircle
 62
7
  6
CONTINUOUS
 10
71.1327875971
 20
89.5497691933
 40
0.9998476865
100
AcDbArc
 50
130.7700542547
 51
198.0
  0
ARC
  5
650
100
AcDbEntity
  8
RUNDUNGEN
100
AcDbCircle
 62
7
  6
CONTINUOUS
 10
73.9494835217
 20
80.880870517
 40
0.9998476865
100
AcDbArc
 50
198.0
 51
265.2299455622
  0
ARC
  5
651
100
AcDbEntity
  8
RUNDUNGEN
100
AcDbCircle
 62
7
  6
CONTINUOUS
 10
73.9494835217
 20
80.880870517
 40
0.8847444209
100
AcDbArc
 50
198.0
 51
268.4740584204
  0
ARC
  5
652
100
AcDbEntity
  8
RUNDUNGEN
100
AcDbCircle
 62
7
  6
CONTINUOUS
 10
71.1327875971
 20
89.5497691933
 40
0.8847444209
100
AcDbArc
 50
127.5259415796
 51
198.0
  0
ARC
  5
653
100
AcDbEntity
  8
AUSFORMSCHRAEGEN
100
AcDbCircle
 62
7
  6
CONTINUOUS
 10
94.9258151591
 20
67.2567915268
 40
11.4596564808
100
AcDbArc
 50
159.1554045244
 51
159.4526459557
  0
ARC
  5
654
100
AcDbEntity
  8
RUNDUNGEN
100
AcDbCircle
 62
7
  6
CONTINUOUS
 10
109.9994854548
 20
63.1591563158
 40
6.9190139798
100
AcDbArc
 50
340.012702554
 51
9.8887278499
  0
ARC
  5
655
100
AcDbEntity
  8
RUNDUNGEN
100
AcDbCircle
 62
7
  6
CONTINUOUS
 10
99.5530958722
 20
65.234177862
 40
4.7224930918
100
AcDbArc
 50
217.6739491328
 51
286.3260508672
  0
ARC
  5
656
100
AcDbEntity
  8
RUNDUNGEN
100
AcDbCircle
 62
7
  6
CONTINUOUS
 10
101.3022578321
 20
59.2625907434
 40
1.5
100
AcDbArc
 50
49.3246517291
 51
106.3260508672
  0
ARC
  5
657
100
AcDbEntity
  8
RUNDUNGEN
100
AcDbCircle
 62
7
  6
CONTINUOUS
 10
94.6280351172
 20
61.4312057983
 40
1.4999709869
100
AcDbArc
 50
37.6748027099
 51
102.8204359468
  0
ARC
  5
658
100
AcDbEntity
  8
RUNDUNGEN
100
AcDbCircle
 62
7
  6
CONTINUOUS
 10
106.2284447915
 20
58.1998617883
 40
1.1998476865
100
AcDbArc
 50
270.0
 51
347.5
  0
ARC
  5
659
100
AcDbEntity
  8
RUNDUNGEN
100
AcDbCircle
 62
7
  6
CONTINUOUS
 10
106.2284447915
 20
58.1998617883
 40
1.0847444209
100
AcDbArc
 50
270.0
 51
347.5
  0
ARC
  5
65A
100
AcDbEntity
  8
RUNDUNGEN
100
AcDbCircle
 62
7
  6
CONTINUOUS
 10
90.881405991
 20
69.8880907389
 40
0.9999994498
100
AcDbArc
 50
15.9145809695
 51
90.0000002382
  0
ARC
  5
65B
100
AcDbEntity
  8
RUNDUNGEN
100
AcDbCircle
 62
7
  6
CONTINUOUS
 10
90.536251429
 20
62.8431923806
 40
0.9998476865
100
AcDbArc
 50
234.0
 51
301.2299455621
  0
ARC
  5
65C
100
AcDbEntity
  8
RUNDUNGEN
100
AcDbCircle
 62
7
  6
CONTINUOUS
 10
105.4424902581
 20
57.9998617883
 40
0.9998476865
100
AcDbArc
 50
202.7700542547
 51
270.0
  0
ARC
  5
65D
100
AcDbEntity
  8
RUNDUNGEN
100
AcDbCircle
 62
7
  6
CONTINUOUS
 10
90.536251429
 20
62.8431923806
 40
0.8847444209
100
AcDbArc
 50
234.0
 51
304.4740584204
  0
ARC
  5
65E
100
AcDbEntity
  8
RUNDUNGEN
100
AcDbCircle
 62
7
  6
CONTINUOUS
 10
105.4424902581
 20
57.9998617883
 40
0.8847444209
100
AcDbArc
 50
199.5259415796
 51
270.0
  0
ARC
  5
65F
100
AcDbEntity
  8
0
100
AcDbCircle
 62
7
  6
CONTINUOUS
 10
91.3
 20
78.6864427104
 40
1.0
100
AcDbArc
 50
120.0
 51
330.0
  0
ARC
  5
660
100
AcDbEntity
  8
RUNDUNGEN
100
AcDbCircle
 62
7
  6
CONTINUOUS
 10
77.4480752726
 20
107.9637452652
 40
6.9190140188
100
AcDbArc
 50
232.0127024903
 51
261.8887204275
  0
ARC
  5
661
100
AcDbEntity
  8
RUNDUNGEN
100
AcDbCircle
 62
7
  6
CONTINUOUS
 10
77.4477587496
 20
107.9627723396
 40
6.9190082123
100
AcDbArc
 50
62.1114748902
 51
91.9873116441
  0
ARC
  5
662
100
AcDbEntity
  8
RUNDUNGEN
100
AcDbCircle
 62
7
  6
CONTINUOUS
 10
76.1931080882
 20
97.3864427104
 40
4.7224930918
100
AcDbArc
 50
145.6739491328
 51
214.3260508672
  0
ARC
  5
663
100
AcDbEntity
  8
RUNDUNGEN
100
AcDbCircle
 62
7
  6
CONTINUOUS
 10
71.0543392541
 20
100.8952708378
 40
1.4999709869
100
AcDbArc
 50
325.6748027099
 51
22.6771467473
  0
ARC
  5
664
100
AcDbEntity
  8
RUNDUNGEN
100
AcDbCircle
 62
7
  6
CONTINUOUS
 10
73.8968215173
 20
113.0827243245
 40
1.1998476865
100
AcDbArc
 50
162.0
 51
239.5
  0
ARC
  5
665
100
AcDbEntity
  8
RUNDUNGEN
100
AcDbCircle
 62
7
  6
CONTINUOUS
 10
71.565872208
 20
105.9088000091
 40
1.1998476865
100
AcDbArc
 50
84.5
 51
162.0
  0
ARC
  5
666
100
AcDbEntity
  8
RUNDUNGEN
100
AcDbCircle
 62
7
  6
CONTINUOUS
 10
71.565872208
 20
105.9088000091
 40
1.0847444209
100
AcDbArc
 50
84.5
 51
162.0
  0
ARC
  5
667
100
AcDbEntity
  8
RUNDUNGEN
100
AcDbCircle
 62
7
  6
CONTINUOUS
 10
73.8968215173
 20
113.0827243245
 40
1.0847444209
100
AcDbArc
 50
162.0
 51
239.5
  0
ARC
  5
668
100
AcDbEntity
  8
RUNDUNGEN
100
AcDbCircle
 62
7
  6
CONTINUOUS
 10
73.9494835217
 20
113.8920149038
 40
0.9998476865
100
AcDbArc
 50
94.7700542546
 51
162.0
  0
ARC
  5
669
100
AcDbEntity
  8
RUNDUNGEN
100
AcDbCircle
 62
7
  6
CONTINUOUS
 10
71.1327875971
 20
105.2231162276
 40
0.9998476865
100
AcDbArc
 50
162.0
 51
229.2299455621
  0
ARC
  5
66A
100
AcDbEntity
  8
RUNDUNGEN
100
AcDbCircle
 62
7
  6
CONTINUOUS
 10
71.1327875971
 20
105.2231162276
 40
0.8847444209
100
AcDbArc
 50
162.0
 51
232.4740584204
  0
ARC
  5
66B
100
AcDbEntity
  8
RUNDUNGEN
100
AcDbCircle
 62
7
  6
CONTINUOUS
 10
73.9494835217
 20
113.8920149038
 40
0.8847444209
100
AcDbArc
 50
91.5259415796
 51
162.0
  0
ARC
  5
66C
100
AcDbEntity
  8
RUNDUNGEN
100
AcDbCircle
 62
7
  6
CONTINUOUS
 10
89.8812941705
 20
125.0766003709
 40
6.9190082998
100
AcDbArc
 50
26.1114926347
 51
55.9873118095
  0
ARC
  5
66D
100
AcDbEntity
  8
RUNDUNGEN
100
AcDbCircle
 62
7
  6
CONTINUOUS
 10
89.8820407345
 20
125.0771738031
 40
6.9189281196
100
AcDbArc
 50
196.0126678401
 51
213.6978540307
  0
ARC
  5
66E
100
AcDbEntity
  8
RUNDUNGEN
100
AcDbCircle
 62
7
  6
CONTINUOUS
 10
82.6496499163
 20
117.257635202
 40
4.7224930918
100
AcDbArc
 50
109.6739491328
 51
178.3260508672
  0
ARC
  5
66F
100
AcDbEntity
  8
RUNDUNGEN
100
AcDbCircle
 62
7
  6
CONTINUOUS
 10
84.7520555057
 20
124.3337037696
 40
2.7135069565
100
AcDbArc
 50
1.9540743309
 51
3.1222634442
  0
ARC
  5
670
100
AcDbEntity
  8
RUNDUNGEN
100
AcDbCircle
 62
7
  6
CONTINUOUS
 10
84.8602413028
 20
124.3134153328
 40
2.6083606775
100
AcDbArc
 50
10.2700019032
 51
13.5621256663
  0
ARC
  5
671
100
AcDbEntity
  8
RUNDUNGEN
100
AcDbCircle
 62
7
  6
CONTINUOUS
 10
85.0363279841
 20
124.3510887581
 40
2.4287102769
100
AcDbArc
 50
3.0780121697
 51
6.6044190455
  0
ARC
  5
672
100
AcDbEntity
  8
RUNDUNGEN
100
AcDbCircle
 62
7
  6
CONTINUOUS
 10
85.0850095589
 20
124.3530250403
 40
2.3801318971
100
AcDbArc
 50
6.6929004897
 51
10.2964376457
  0
ARC
  5
673
100
AcDbEntity
  8
RUNDUNGEN
100
AcDbCircle
 62
7
  6
CONTINUOUS
 10
76.4298409857
 20
117.4394175076
 40
1.499983007
100
AcDbArc
 50
301.3246517291
 51
358.3255498962
  0
ARC
  5
674
100
AcDbEntity
  8
RUNDUNGEN
100
AcDbCircle
 62
7
  6
CONTINUOUS
 10
80.5547360255
 20
123.1168293231
 40
1.4999709869
100
AcDbArc
 50
289.6748027099
 51
354.8204359468
  0
ARC
  5
675
100
AcDbEntity
  8
RUNDUNGEN
100
AcDbCircle
 62
7
  6
CONTINUOUS
 10
90.0179579051
 20
131.3059171577
 40
1.1998476865
100
AcDbArc
 50
126.0
 51
203.5
  0
ARC
  5
676
100
AcDbEntity
  8
RUNDUNGEN
100
AcDbCircle
 62
7
  6
CONTINUOUS
 10
83.9154533873
 20
126.8721880981
 40
1.1998476865
100
AcDbArc
 50
48.5
 51
126.0
  0
ARC
  5
677
100
AcDbEntity
  8
RUNDUNGEN
100
AcDbCircle
 62
7
  6
CONTINUOUS
 10
83.9154533873
 20
126.8721880981
 40
1.0847444209
100
AcDbArc
 50
48.5
 51
126.0
  0
ARC
  5
678
100
AcDbEntity
  8
RUNDUNGEN
100
AcDbCircle
 62
7
  6
CONTINUOUS
 10
90.0179579051
 20
131.3059171577
 40
1.0847444209
100
AcDbArc
 50
126.0
 51
203.5
  0
ARC
  5
679
100
AcDbEntity
  8
AUSFORMSCHRAEGEN
100
AcDbCircle
 62
7
  6
CONTINUOUS
 10
83.6719801915
 20
124.5686877755
 40
1.0465776097
100
AcDbArc
 50
296.7176482897
 51
298.9022382243
  0
ARC
  5
67A
100
AcDbEntity
  8
RUNDUNGEN
100
AcDbCircle
 62
7
  6
CONTINUOUS
 10
88.5517229265
 20
124.8847958301
 40
0.9999999707
100
AcDbArc
 50
207.4096325142
 51
269.9999999922
  0
ARC
  5
67B
100
AcDbEntity
  8
RUNDUNGEN
100
AcDbCircle
 62
7
  6
CONTINUOUS
 10
83.1620457625
 20
126.5720190133
 40
0.9998476865
100
AcDbArc
 50
126.0
 51
193.229945562
  0
ARC
  5
67C
100
AcDbEntity
  8
RUNDUNGEN
100
AcDbCircle
 62
7
  6
CONTINUOUS
 10
83.1620457625
 20
126.5720190133
 40
0.8847444209
100
AcDbArc
 50
126.0
 51
196.4740584204
  0
ARC
  5
67D
100
AcDbEntity
  8
0
100
AcDbCircle
 62
7
  6
CONTINUOUS
 10
91.3
 20
116.0864427104
 40
1.0
100
AcDbArc
 50
30.0
 51
240.0
  0
ARC
  5
67E
100
AcDbEntity
  8
AUSFORMSCHRAEGEN
100
AcDbCircle
 62
7
  6
CONTINUOUS
 10
94.6894158242
 20
127.427154832
 40
11.2070813552
100
AcDbArc
 50
200.5457026806
 51
200.8496347431
  0
ARC
  5
67F
100
AcDbEntity
  8
RUNDUNGEN
100
AcDbCircle
 62
7
  6
CONTINUOUS
 10
109.9994914129
 20
131.6137294421
 40
6.9190082654
100
AcDbArc
 50
350.1114828978
 51
19.9873116873
  0
ARC
  5
680
100
AcDbEntity
  8
RUNDUNGEN
100
AcDbCircle
 62
7
  6
CONTINUOUS
 10
99.5530958722
 20
129.5387075588
 40
4.7224930918
100
AcDbArc
 50
73.6739491328
 51
142.3260508672
  0
ARC
  5
681
100
AcDbEntity
  8
RUNDUNGEN
100
AcDbCircle
 62
7
  6
CONTINUOUS
 10
105.6874199111
 20
133.8654355165
 40
2.3934031003
100
AcDbArc
 50
330.1644456405
 51
337.5650431257
  0
ARC
  5
682
100
AcDbEntity
  8
RUNDUNGEN
100
AcDbCircle
 62
7
  6
CONTINUOUS
 10
94.6280137039
 20
133.3416844948
 40
1.499983007
100
AcDbArc
 50
257.1815947093
 51
322.3255498962
  0
ARC
  5
683
100
AcDbEntity
  8
RUNDUNGEN
100
AcDbCircle
 62
7
  6
CONTINUOUS
 10
101.3022228274
 20
135.510254666
 40
1.4999709869
100
AcDbArc
 50
253.6748027099
 51
310.6771467473
  0
ARC
  5
684
100
AcDbEntity
  8
RUNDUNGEN
100
AcDbCircle
 62
7
  6
CONTINUOUS
 10
106.2284447915
 20
136.5730236325
 40
1.1998476865
100
AcDbArc
 50
12.5
 51
90.0
  0
ARC
  5
685
100
AcDbEntity
  8
RUNDUNGEN
100
AcDbCircle
 62
7
  6
CONTINUOUS
 10
106.2284447915
 20
136.5730236325
 40
1.0847444209
100
AcDbArc
 50
12.5
 51
90.0
  0
ARC
  5
686
100
AcDbEntity
  8
RUNDUNGEN
100
AcDbCircle
 62
7
  6
CONTINUOUS
 10
90.882629714
 20
124.8847956485
 40
0.9999998881
100
AcDbArc
 50
269.9999999499
 51
343.988948711
  0
ARC
  5
687
100
AcDbEntity
  8
RUNDUNGEN
100
AcDbCircle
 62
7
  6
CONTINUOUS
 10
90.536251429
 20
131.9296930402
 40
0.9998476865
100
AcDbArc
 50
58.7700542547
 51
126.0
  0
ARC
  5
688
100
AcDbEntity
  8
RUNDUNGEN
100
AcDbCircle
 62
7
  6
CONTINUOUS
 10
105.4424902581
 20
136.7730236325
 40
0.9998476865
100
AcDbArc
 50
90.0
 51
157.229945562
  0
ARC
  5
689
100
AcDbEntity
  8
RUNDUNGEN
100
AcDbCircle
 62
7
  6
CONTINUOUS
 10
90.536251429
 20
131.9296930402
 40
0.8847444209
100
AcDbArc
 50
55.5259415796
 51
126.0
  0
ARC
  5
68A
100
AcDbEntity
  8
RUNDUNGEN
100
AcDbCircle
 62
7
  6
CONTINUOUS
 10
105.4424902581
 20
136.7730236325
 40
0.8847444209
100
AcDbArc
 50
90.0
 51
160.4740584204
  0
ARC
  5
68B
100
AcDbEntity
  8
AUSFORMSCHRAEGEN
100
AcDbCircle
 62
7
  6
CONTINUOUS
 10
125.3075730493
 20
67.3445988288
 40
11.2102981325
100
AcDbArc
 50
20.5457219256
 51
20.8495698692
  0
ARC
  5
68C
100
AcDbEntity
  8
RUNDUNGEN
100
AcDbCircle
 62
7
  6
CONTINUOUS
 10
110.0005085763
 20
63.1591559773
 40
6.9190082547
100
AcDbArc
 50
170.1114826533
 51
199.9873117068
  0
ARC
  5
68D
100
AcDbEntity
  8
RUNDUNGEN
100
AcDbCircle
 62
7
  6
CONTINUOUS
 10
120.4469041278
 20
65.234177862
 40
4.7224930918
100
AcDbArc
 50
253.6739491328
 51
322.3260508672
  0
ARC
  5
68E
100
AcDbEntity
  8
RUNDUNGEN
100
AcDbCircle
 62
7
  6
CONTINUOUS
 10
125.3719862961
 20
61.4312009261
 40
1.499983007
100
AcDbArc
 50
77.1815947093
 51
142.3255498962
  0
ARC
  5
68F
100
AcDbEntity
  8
RUNDUNGEN
100
AcDbCircle
 62
7
  6
CONTINUOUS
 10
118.6977771726
 20
59.2626307549
 40
1.4999709869
100
AcDbArc
 50
73.6748027099
 51
130.6771467473
  0
ARC
  5
690
100
AcDbEntity
  8
RUNDUNGEN
100
AcDbCircle
 62
7
  6
CONTINUOUS
 10
113.7715552085
 20
58.1998617883
 40
1.1998476865
100
AcDbArc
 50
192.5
 51
270.0
  0
ARC
  5
691
100
AcDbEntity
  8
RUNDUNGEN
100
AcDbCircle
 62
7
  6
CONTINUOUS
 10
113.7715552085
 20
58.1998617883
 40
1.0847444209
100
AcDbArc
 50
192.5
 51
270.0
  0
ARC
  5
692
100
AcDbEntity
  8
RUNDUNGEN
100
AcDbCircle
 62
7
  6
CONTINUOUS
 10
129.1180621932
 20
69.8880910715
 40
0.9999992986
100
AcDbArc
 50
89.99999974
 51
164.0446165595
  0
ARC
  5
693
100
AcDbEntity
  8
RUNDUNGEN
100
AcDbCircle
 62
7
  6
CONTINUOUS
 10
114.5575097419
 20
57.9998617883
 40
0.9998476865
100
AcDbArc
 50
270.0
 51
337.229945562
  0
ARC
  5
694
100
AcDbEntity
  8
RUNDUNGEN
100
AcDbCircle
 62
7
  6
CONTINUOUS
 10
129.463748571
 20
62.8431923806
 40
0.9998476865
100
AcDbArc
 50
238.7700542547
 51
306.0
  0
ARC
  5
695
100
AcDbEntity
  8
RUNDUNGEN
100
AcDbCircle
 62
7
  6
CONTINUOUS
 10
114.5575097419
 20
57.9998617883
 40
0.8847444209
100
AcDbArc
 50
270.0
 51
340.4740584204
  0
ARC
  5
696
100
AcDbEntity
  8
RUNDUNGEN
100
AcDbCircle
 62
7
  6
CONTINUOUS
 10
129.463748571
 20
62.8431923806
 40
0.8847444209
100
AcDbArc
 50
235.5259415796
 51
306.0
  0
ARC
  5
697
100
AcDbEntity
  8
0
100
AcDbCircle
 62
7
  6
CONTINUOUS
 10
128.7
 20
78.6864427104
 40
1.0
100
AcDbArc
 50
210.0
 51
60.0
  0
ARC
  5
698
100
AcDbEntity
  8
RUNDUNGEN
100
AcDbCircle
 62
7
  6
CONTINUOUS
 10
130.1187058406
 20
69.6962850645
 40
6.9190083181
100
AcDbArc
 50
206.1114942653
 51
235.987311801
  0
ARC
  5
699
100
AcDbEntity
  8
RUNDUNGEN
100
AcDbCircle
 62
7
  6
CONTINUOUS
 10
130.1179592616
 20
69.6957116167
 40
6.9189281236
100
AcDbArc
 50
16.0126678392
 51
33.6978540099
  0
ARC
  5
69A
100
AcDbEntity
  8
RUNDUNGEN
100
AcDbCircle
 62
7
  6
CONTINUOUS
 10
135.2799010286
 20
70.4455391697
 40
2.7461143762
100
AcDbArc
 50
182.0702103496
 51
183.1797392793
  0
ARC
  5
69B
100
AcDbEntity
  8
RUNDUNGEN
100
AcDbCircle
 62
7
  6
CONTINUOUS
 10
135.1581048673
 20
70.4638689495
 40
2.6272268161
100
AcDbArc
 50
190.271015042
 51
193.5614879691
  0
ARC
  5
69C
100
AcDbEntity
  8
RUNDUNGEN
100
AcDbCircle
 62
7
  6
CONTINUOUS
 10
134.9917248972
 20
70.427612263
 40
2.4573882773
100
AcDbArc
 50
183.1350983505
 51
186.6254961099
  0
ARC
  5
69D
100
AcDbEntity
  8
RUNDUNGEN
100
AcDbCircle
 62
7
  6
CONTINUOUS
 10
134.9376665854
 20
70.4250266545
 40
2.4033954677
100
AcDbArc
 50
186.7129600579
 51
190.2968872993
  0
ARC
  5
69E
100
AcDbEntity
  8
RUNDUNGEN
100
AcDbCircle
 62
7
  6
CONTINUOUS
 10
139.4452639745
 20
71.6560560978
 40
1.4999709869
100
AcDbArc
 50
109.6748027099
 51
174.8204359468
  0
ARC
  5
69F
100
AcDbEntity
  8
RUNDUNGEN
100
AcDbCircle
 62
7
  6
CONTINUOUS
 10
129.9820420949
 20
63.4669682632
 40
1.1998476865
100
AcDbArc
 50
306.0
 51
23.5
  0
ARC
  5
6A0
100
AcDbEntity
  8
RUNDUNGEN
100
AcDbCircle
 62
7
  6
CONTINUOUS
 10
136.0845466127
 20
67.9006973228
 40
1.1998476865
100
AcDbArc
 50
228.5
 51
306.0
  0
ARC
  5
6A1
100
AcDbEntity
  8
RUNDUNGEN
100
AcDbCircle
 62
7
  6
CONTINUOUS
 10
136.0845466127
 20
67.9006973228
 40
1.0847444209
100
AcDbArc
 50
228.5
 51
306.0
  0
ARC
  5
6A2
100
AcDbEntity
  8
RUNDUNGEN
100
AcDbCircle
 62
7
  6
CONTINUOUS
 10
129.9820420949
 20
63.4669682632
 40
1.0847444209
100
AcDbArc
 50
306.0
 51
23.5
  0
ARC
  5
6A3
100
AcDbEntity
  8
AUSFORMSCHRAEGEN
100
AcDbCircle
 62
7
  6
CONTINUOUS
 10
136.3280198111
 20
70.2041976396
 40
1.0465776157
100
AcDbArc
 50
116.7176480984
 51
118.9022382056
  0
ARC
  5
6A4
100
AcDbEntity
  8
RUNDUNGEN
100
AcDbCircle
 62
7
  6
CONTINUOUS
 10
131.4482832504
 20
69.8880898384
 40
0.999999858
100
AcDbArc
 50
27.4094551239
 51
90.0000000146
  0
ARC
  5
6A5
100
AcDbEntity
  8
RUNDUNGEN
100
AcDbCircle
 62
7
  6
CONTINUOUS
 10
136.8379542375
 20
68.2008664076
 40
0.9998476865
100
AcDbArc
 50
306.0
 51
13.229945562
  0
ARC
  5
6A6
100
AcDbEntity
  8
RUNDUNGEN
100
AcDbCircle
 62
7
  6
CONTINUOUS
 10
136.8379542375
 20
68.2008664076
 40
0.8847444209
100
AcDbArc
 50
306.0
 51
16.4740584204
  0
ARC
  5
6A7
100
AcDbEntity
  8
RUNDUNGEN
100
AcDbCircle
 62
7
  6
CONTINUOUS
 10
142.5519247168
 20
86.8091401402
 40
6.9190140375
100
AcDbArc
 50
52.0127024996
 51
81.8887187615
  0
ARC
  5
6A8
100
AcDbEntity
  8
RUNDUNGEN
100
AcDbCircle
 62
7
  6
CONTINUOUS
 10
142.5522412508
 20
86.8101130992
 40
6.9190082303
100
AcDbArc
 50
242.1114764603
 51
271.9873116351
  0
ARC
  5
6A9
100
AcDbEntity
  8
RUNDUNGEN
100
AcDbCircle
 62
7
  6
CONTINUOUS
 10
137.3503500837
 20
77.5152502188
 40
4.7224930918
100
AcDbArc
 50
289.6739491328
 51
358.3260508672
  0
ARC
  5
6AA
100
AcDbEntity
  8
RUNDUNGEN
100
AcDbCircle
 62
7
  6
CONTINUOUS
 10
143.5701590143
 20
77.3334679133
 40
1.499983007
100
AcDbArc
 50
121.3246517291
 51
178.3255498962
  0
ARC
  5
6AB
100
AcDbEntity
  8
RUNDUNGEN
100
AcDbCircle
 62
7
  6
CONTINUOUS
 10
148.9456607459
 20
93.877614583
 40
1.4999709869
100
AcDbArc
 50
145.6748027099
 51
202.6771467473
  0
ARC
  5
6AC
100
AcDbEntity
  8
RUNDUNGEN
100
AcDbCircle
 62
7
  6
CONTINUOUS
 10
146.1031784827
 20
81.6901610964
 40
1.1998476865
100
AcDbArc
 50
342.0
 51
59.5
  0
ARC
  5
6AD
100
AcDbEntity
  8
RUNDUNGEN
100
AcDbCircle
 62
7
  6
CONTINUOUS
 10
148.434127792
 20
88.8640854117
 40
1.1998476865
100
AcDbArc
 50
264.5
 51
342.0
  0
ARC
  5
6AE
100
AcDbEntity
  8
RUNDUNGEN
100
AcDbCircle
 62
7
  6
CONTINUOUS
 10
148.434127792
 20
88.8640854117
 40
1.0847444209
100
AcDbArc
 50
264.5
 51
342.0
  0
ARC
  5
6AF
100
AcDbEntity
  8
RUNDUNGEN
100
AcDbCircle
 62
7
  6
CONTINUOUS
 10
146.1031784827
 20
81.6901610964
 40
1.0847444209
100
AcDbArc
 50
342.0
 51
59.5
  0
ARC
  5
6B0
100
AcDbEntity
  8
RUNDUNGEN
100
AcDbCircle
 62
7
  6
CONTINUOUS
 10
146.0505164783
 20
80.880870517
 40
0.9998476865
100
AcDbArc
 50
274.7700542546
 51
342.0
  0
ARC
  5
6B1
100
AcDbEntity
  8
RUNDUNGEN
100
AcDbCircle
 62
7
  6
CONTINUOUS
 10
148.8672124029
 20
89.5497691933
 40
0.9998476865
100
AcDbArc
 50
342.0
 51
49.2299455621
  0
ARC
  5
6B2
100
AcDbEntity
  8
RUNDUNGEN
100
AcDbCircle
 62
7
  6
CONTINUOUS
 10
148.8672124029
 20
89.5497691933
 40
0.8847444209
100
AcDbArc
 50
342.0
 51
52.4740584204
  0
ARC
  5
6B3
100
AcDbEntity
  8
RUNDUNGEN
100
AcDbCircle
 62
7
  6
CONTINUOUS
 10
146.0505164783
 20
80.880870517
 40
0.8847444209
100
AcDbArc
 50
271.5259415796
 51
342.0
  0
ARC
  5
6B4
100
AcDbEntity
  8
0
100
AcDbCircle
 62
7
  6
CONTINUOUS
 10
128.7
 20
116.0864427104
 40
1.0
100
AcDbArc
 50
300.0
 51
150.0
  0
ARC
  5
6B5
100
AcDbEntity
  8
AUSFORMSCHRAEGEN
100
AcDbCircle
 62
7
  6
CONTINUOUS
 10
125.0728653425
 20
127.516566185
 40
11.4610578529
100
AcDbArc
 50
339.1555361028
 51
339.4527447664
  0
ARC
  5
6B6
100
AcDbEntity
  8
RUNDUNGEN
100
AcDbCircle
 62
7
  6
CONTINUOUS
 10
110.0005145569
 20
131.6137291034
 40
6.9190139913
100
AcDbArc
 50
160.0127025746
 51
189.8887275273
  0
ARC
  5
6B7
100
AcDbEntity
  8
RUNDUNGEN
100
AcDbCircle
 62
7
  6
CONTINUOUS
 10
120.4469041278
 20
129.5387075588
 40
4.7224930918
100
AcDbArc
 50
37.6739491328
 51
106.3260508672
  0
ARC
  5
6B8
100
AcDbEntity
  8
RUNDUNGEN
100
AcDbCircle
 62
7
  6
CONTINUOUS
 10
118.6977421679
 20
135.5102946774
 40
1.5
100
AcDbArc
 50
229.3246517291
 51
286.3260508672
  0
ARC
  5
6B9
100
AcDbEntity
  8
RUNDUNGEN
100
AcDbCircle
 62
7
  6
CONTINUOUS
 10
125.3719648828
 20
133.3416796226
 40
1.4999709869
100
AcDbArc
 50
217.6748027099
 51
282.8204359468
  0
ARC
  5
6BA
100
AcDbEntity
  8
RUNDUNGEN
100
AcDbCircle
 62
7
  6
CONTINUOUS
 10
113.7715552085
 20
136.5730236325
 40
1.1998476865
100
AcDbArc
 50
90.0
 51
167.5
  0
ARC
  5
6BB
100
AcDbEntity
  8
RUNDUNGEN
100
AcDbCircle
 62
7
  6
CONTINUOUS
 10
113.7715552085
 20
136.5730236325
 40
1.0847444209
100
AcDbArc
 50
90.0
 51
167.5
  0
ARC
  5
6BC
100
AcDbEntity
  8
RUNDUNGEN
100
AcDbCircle
 62
7
  6
CONTINUOUS
 10
129.1205229782
 20
124.8847903699
 40
0.9999974903
100
AcDbArc
 50
195.7890562878
 51
270.0000004397
  0
ARC
  5
6BD
100
AcDbEntity
  8
RUNDUNGEN
100
AcDbCircle
 62
7
  6
CONTINUOUS
 10
129.463748571
 20
131.9296930402
 40
0.9998476865
100
AcDbArc
 50
54.0
 51
121.2299455621
  0
ARC
  5
6BE
100
AcDbEntity
  8
RUNDUNGEN
100
AcDbCircle
 62
7
  6
CONTINUOUS
 10
114.5575097419
 20
136.7730236325
 40
0.9998476865
100
AcDbArc
 50
22.7700542547
 51
90.0
  0
ARC
  5
6BF
100
AcDbEntity
  8
RUNDUNGEN
100
AcDbCircle
 62
7
  6
CONTINUOUS
 10
129.463748571
 20
131.9296930402
 40
0.8847444209
100
AcDbArc
 50
54.0
 51
124.4740584204
  0
ARC
  5
6C0
100
AcDbEntity
  8
RUNDUNGEN
100
AcDbCircle
 62
7
  6
CONTINUOUS
 10
114.5575097419
 20
136.7730236325
 40
0.8847444209
100
AcDbArc
 50
19.5259415796
 51
90.0
  0
ARC
  5
6C1
100
AcDbEntity
  8
RUNDUNGEN
100
AcDbCircle
 62
7
  6
CONTINUOUS
 10
142.5522427785
 20
107.9627665583
 40
6.9190139371
100
AcDbArc
 50
88.0127026626
 51
117.888737833
  0
ARC
  5
6C2
100
AcDbEntity
  8
RUNDUNGEN
100
AcDbCircle
 62
7
  6
CONTINUOUS
 10
142.5519268966
 20
107.9637396972
 40
6.9190082953
100
AcDbArc
 50
278.1114883771
 51
307.9873117317
  0
ARC
  5
6C3
100
AcDbEntity
  8
RUNDUNGEN
100
AcDbCircle
 62
7
  6
CONTINUOUS
 10
143.8068919118
 20
97.3864427104
 40
4.7224930918
100
AcDbArc
 50
325.6739491328
 51
34.3260508672
  0
ARC
  5
6C4
100
AcDbEntity
  8
RUNDUNGEN
100
AcDbCircle
 62
7
  6
CONTINUOUS
 10
148.9456719968
 20
100.8952896974
 40
1.499983007
100
AcDbArc
 50
157.3246517291
 51
214.3255498962
  0
ARC
  5
6C5
100
AcDbEntity
  8
RUNDUNGEN
100
AcDbCircle
 62
7
  6
CONTINUOUS
 10
148.434127792
 20
105.9088000091
 40
1.1998476865
100
AcDbArc
 50
18.0
 51
95.5
  0
ARC
  5
6C6
100
AcDbEntity
  8
RUNDUNGEN
100
AcDbCircle
 62
7
  6
CONTINUOUS
 10
146.1031784827
 20
113.0827243245
 40
1.1998476865
100
AcDbArc
 50
300.5
 51
18.0
  0
ARC
  5
6C7
100
AcDbEntity
  8
RUNDUNGEN
100
AcDbCircle
 62
7
  6
CONTINUOUS
 10
146.1031784827
 20
113.0827243245
 40
1.0847444209
100
AcDbArc
 50
300.5
 51
18.0
  0
ARC
  5
6C8
100
AcDbEntity
  8
RUNDUNGEN
100
AcDbCircle
 62
7
  6
CONTINUOUS
 10
148.434127792
 20
105.9088000091
 40
1.0847444209
100
AcDbArc
 50
18.0
 51
95.5
  0
ARC
  5
6C9
100
AcDbEntity
  8
RUNDUNGEN
100
AcDbCircle
 62
7
  6
CONTINUOUS
 10
148.8672124029
 20
105.2231162276
 40
0.9998476865
100
AcDbArc
 50
310.7700542547
 51
18.0
  0
ARC
  5
6CA
100
AcDbEntity
  8
RUNDUNGEN
100
AcDbCircle
 62
7
  6
CONTINUOUS
 10
146.0505164783
 20
113.8920149038
 40
0.9998476865
100
AcDbArc
 50
18.0
 51
85.2299455622
  0
ARC
  5
6CB
100
AcDbEntity
  8
RUNDUNGEN
100
AcDbCircle
 62
7
  6
CONTINUOUS
 10
146.0505164783
 20
113.8920149038
 40
0.8847444209
100
AcDbArc
 50
18.0
 51
88.4740584204
  0
ARC
  5
6CC
100
AcDbEntity
  8
RUNDUNGEN
100
AcDbCircle
 62
7
  6
CONTINUOUS
 10
148.8672124029
 20
105.2231162276
 40
0.8847444209
100
AcDbArc
 50
307.5259415796
 51
18.0
  0
ARC
  5
6CD
100
AcDbEntity
  8
RUNDUNGEN
100
AcDbCircle
 62
7
  6
CONTINUOUS
 10
130.118710492
 20
125.0765965326
 40
6.9190140894
100
AcDbArc
 50
124.0127024152
 51
153.8887088794
  0
ARC
  5
6CE
100
AcDbEntity
  8
RUNDUNGEN
100
AcDbCircle
 62
7
  6
CONTINUOUS
 10
130.1180942615
 20
125.0771129494
 40
6.9187815749
100
AcDbArc
 50
326.3018633785
 51
343.9875081681
  0
ARC
  5
6CF
100
AcDbEntity
  8
RUNDUNGEN
100
AcDbCircle
 62
7
  6
CONTINUOUS
 10
137.3503500837
 20
117.257635202
 40
4.7224930918
100
AcDbArc
 50
1.6739491328
 51
70.3260508672
  0
ARC
  5
6D0
100
AcDbEntity
  8
RUNDUNGEN
100
AcDbCircle
 62
7
  6
CONTINUOUS
 10
139.4452619912
 20
123.1168511939
 40
1.499983007
100
AcDbArc
 50
185.1815947093
 51
250.3255498962
  0
ARC
  5
6D1
100
AcDbEntity
  8
RUNDUNGEN
100
AcDbCircle
 62
7
  6
CONTINUOUS
 10
143.5701388267
 20
117.4394261523
 40
1.4999709869
100
AcDbArc
 50
181.6748027099
 51
238.6771467473
  0
ARC
  5
6D2
100
AcDbEntity
  8
RUNDUNGEN
100
AcDbCircle
 62
7
  6
CONTINUOUS
 10
136.0845466127
 20
126.8721880981
 40
1.1998476865
100
AcDbArc
 50
54.0
 51
131.5
  0
ARC
  5
6D3
100
AcDbEntity
  8
RUNDUNGEN
100
AcDbCircle
 62
7
  6
CONTINUOUS
 10
129.9820420949
 20
131.3059171577
 40
1.1998476865
100
AcDbArc
 50
336.5
 51
54.0
  0
ARC
  5
6D4
100
AcDbEntity
  8
RUNDUNGEN
100
AcDbCircle
 62
7
  6
CONTINUOUS
 10
129.9820420949
 20
131.3059171577
 40
1.0847444209
100
AcDbArc
 50
336.5
 51
54.0
  0
ARC
  5
6D5
100
AcDbEntity
  8
RUNDUNGEN
100
AcDbCircle
 62
7
  6
CONTINUOUS
 10
136.0845466127
 20
126.8721880981
 40
1.0847444209
100
AcDbArc
 50
54.0
 51
131.5
  0
ARC
  5
6D6
100
AcDbEntity
  8
AUSFORMSCHRAEGEN
100
AcDbCircle
 62
7
  6
CONTINUOUS
 10
136.3280202382
 20
124.5686879278
 40
1.046575514
100
AcDbArc
 50
241.0969080002
 51
243.2823188928
  0
ARC
  5
6D7
100
AcDbEntity
  8
RUNDUNGEN
100
AcDbCircle
 62
7
  6
CONTINUOUS
 10
131.4482697474
 20
124.884795823
 40
0.9999999674
100
AcDbArc
 50
270.0000000073
 51
332.5846360045
  0
ARC
  5
6D8
100
AcDbEntity
  8
RUNDUNGEN
100
AcDbCircle
 62
7
  6
CONTINUOUS
 10
136.8379542375
 20
126.5720190133
 40
0.9998476865
100
AcDbArc
 50
346.7700542547
 51
54.0
  0
ARC
  5
6D9
100
AcDbEntity
  8
RUNDUNGEN
100
AcDbCircle
 62
7
  6
CONTINUOUS
 10
136.8379542375
 20
126.5720190133
 40
0.8847444209
100
AcDbArc
 50
343.5259415796
 51
54.0
  0
ARC
  5
6DA
100
AcDbEntity
  8
RUNDUNGEN
100
AcDbCircle
 62
7
  6
CONTINUOUS
 10
209.0750110332
 20
58.5751299953
 40
3.2
100
AcDbArc
 50
132.0
 51
180.0
  0
ARC
  5
6DB
100
AcDbEntity
  8
RUNDUNGEN
100
AcDbCircle
 62
7
  6
CONTINUOUS
 10
207.3750110332
 20
73.0435984704
 40
1.5
100
AcDbArc
 50
180.0
 51
258.3
  0
ARC
  5
6DC
100
AcDbEntity
  8
RUNDUNGEN
100
AcDbCircle
 62
7
  6
CONTINUOUS
 10
219.2250110332
 20
61.6116847702
 40
1.1
100
AcDbArc
 50
190.38106066
 51
270.0
  0
ARC
  5
6DD
100
AcDbEntity
  8
RUNDUNGEN
100
AcDbCircle
 62
7
  6
CONTINUOUS
 10
206.6750110332
 20
88.5793105292
 40
0.8
100
AcDbArc
 50
180.0
 51
269.4999999958
  0
ARC
  5
6DE
100
AcDbEntity
  8
RUNDUNGEN
100
AcDbCircle
 62
7
  6
CONTINUOUS
 10
206.6750110332
 20
62.7584174982
 40
0.8
100
AcDbArc
 50
180.0
 51
269.5
  0
ARC
  5
6DF
100
AcDbEntity
  8
RUNDUNGEN
100
AcDbCircle
 62
7
  6
CONTINUOUS
 10
206.6750110332
 20
67.6159224403
 40
0.8
100
AcDbArc
 50
180.0
 51
269.5
  0
ARC
  5
6E0
100
AcDbEntity
  8
RUNDUNGEN
100
AcDbCircle
 62
7
  6
CONTINUOUS
 10
206.6750110332
 20
57.9150869058
 40
0.8
100
AcDbArc
 50
180.0
 51
269.5
  0
ARC
  5
6E1
100
AcDbEntity
  8
RUNDUNGEN
100
AcDbCircle
 62
7
  6
CONTINUOUS
 10
209.0750110332
 20
136.1977554255
 40
3.2
100
AcDbArc
 50
180.0
 51
228.0
  0
ARC
  5
6E2
100
AcDbEntity
  8
0
100
AcDbCircle
 62
7
  6
CONTINUOUS
 10
211.6750110332
 20
125.5200205821
 40
3.2
100
AcDbArc
 50
0.0
 51
29.5936361967
  0
ARC
  5
6E3
100
AcDbEntity
  8
RUNDUNGEN
100
AcDbCircle
 62
7
  6
CONTINUOUS
 10
211.6750110332
 20
125.2446554409
 40
3.2
100
AcDbArc
 50
4.9223812167
 51
48.0
  0
ARC
  5
6E4
100
AcDbEntity
  8
0
100
AcDbCircle
 62
7
  6
CONTINUOUS
 10
207.3750110332
 20
121.7292869504
 40
1.5
100
AcDbArc
 50
93.0
 51
180.0
  0
ARC
  5
6E5
100
AcDbEntity
  8
0
100
AcDbCircle
 62
7
  6
CONTINUOUS
 10
213.8750110332
 20
124.5733683807
 40
1.0
100
AcDbArc
 50
273.0
 51
360.0
  0
ARC
  5
6E6
100
AcDbEntity
  8
0
100
AcDbCircle
 62
7
  6
CONTINUOUS
 10
206.6750110332
 20
132.0144679227
 40
0.8
100
AcDbArc
 50
90.5
 51
180.0
  0
ARC
  5
6E7
100
AcDbEntity
  8
0
100
AcDbCircle
 62
7
  6
CONTINUOUS
 10
206.6750110332
 20
127.1569629805
 40
0.8
100
AcDbArc
 50
90.5
 51
180.0
  0
ARC
  5
6E8
100
AcDbEntity
  8
RUNDUNGEN
100
AcDbCircle
 62
7
  6
CONTINUOUS
 10
206.6750110332
 20
136.857798515
 40
0.8
100
AcDbArc
 50
90.5
 51
180.0
  0
ARC
  5
6E9
100
AcDbEntity
  8
0
100
AcDbCircle
 62
7
  6
CONTINUOUS
 10
215.1532100234
 20
127.4954019217
 40
0.8
100
AcDbArc
 50
107.9999819034
 51
209.5936524921
  0
ARC
  5
6EA
100
AcDbEntity
  8
RUNDUNGEN
100
AcDbCircle
 62
7
  6
CONTINUOUS
 10
219.8750110332
 20
61.0000141018
 40
4.0
100
AcDbArc
 50
269.5
 51
270.5
  0
ARC
  5
6EB
100
AcDbEntity
  8
RUNDUNGEN
100
AcDbCircle
 62
7
  6
CONTINUOUS
 10
230.6750110332
 20
58.5751299953
 40
3.2
100
AcDbArc
 50
0.0
 51
48.0
  0
ARC
  5
6EC
100
AcDbEntity
  8
RUNDUNGEN
100
AcDbCircle
 62
7
  6
CONTINUOUS
 10
232.3750110332
 20
73.0435984704
 40
1.5
100
AcDbArc
 50
281.7
 51
360.0
  0
ARC
  5
6ED
100
AcDbEntity
  8
RUNDUNGEN
100
AcDbCircle
 62
7
  6
CONTINUOUS
 10
220.5250110332
 20
61.6116847702
 40
1.1
100
AcDbArc
 50
270.0
 51
349.6185497244
  0
ARC
  5
6EE
100
AcDbEntity
  8
RUNDUNGEN
100
AcDbCircle
 62
7
  6
CONTINUOUS
 10
233.0750110332
 20
88.5793105292
 40
0.8
100
AcDbArc
 50
270.5000000042
 51
360.0
  0
ARC
  5
6EF
100
AcDbEntity
  8
RUNDUNGEN
100
AcDbCircle
 62
7
  6
CONTINUOUS
 10
233.0750110332
 20
62.7584174982
 40
0.8
100
AcDbArc
 50
270.5
 51
360.0
  0
ARC
  5
6F0
100
AcDbEntity
  8
RUNDUNGEN
100
AcDbCircle
 62
7
  6
CONTINUOUS
 10
233.0750110332
 20
67.6159224403
 40
0.8
100
AcDbArc
 50
270.5
 51
360.0
  0
ARC
  5
6F1
100
AcDbEntity
  8
RUNDUNGEN
100
AcDbCircle
 62
7
  6
CONTINUOUS
 10
233.0750110332
 20
57.9150869058
 40
0.8
100
AcDbArc
 50
270.5
 51
360.0
  0
ARC
  5
6F2
100
AcDbEntity
  8
RUNDUNGEN
100
AcDbCircle
 62
7
  6
CONTINUOUS
 10
219.8750110332
 20
133.772871319
 40
4.0
100
AcDbArc
 50
89.5
 51
90.4999999969
  0
ARC
  5
6F3
100
AcDbEntity
  8
0
100
AcDbCircle
 62
7
  6
CONTINUOUS
 10
219.8750110332
 20
125.6649285202
 40
3.9999999532
100
AcDbArc
 50
71.9999999998
 51
107.9999992921
  0
ARC
  5
6F4
100
AcDbEntity
  8
RUNDUNGEN
100
AcDbCircle
 62
7
  6
CONTINUOUS
 10
230.6750110332
 20
136.1977554255
 40
3.2
100
AcDbArc
 50
312.0
 51
360.0
  0
ARC
  5
6F5
100
AcDbEntity
  8
0
100
AcDbCircle
 62
7
  6
CONTINUOUS
 10
228.0750110332
 20
125.520019618
 40
3.2
100
AcDbArc
 50
150.4063393947
 51
180.0000000037
  0
ARC
  5
6F6
100
AcDbEntity
  8
RUNDUNGEN
100
AcDbCircle
 62
7
  6
CONTINUOUS
 10
228.0750110332
 20
125.2446561778
 40
3.1999995625
100
AcDbArc
 50
132.000008829
 51
175.0776491295
  0
ARC
  5
6F7
100
AcDbEntity
  8
0
100
AcDbCircle
 62
7
  6
CONTINUOUS
 10
232.3750110332
 20
121.7292869504
 40
1.5
100
AcDbArc
 50
0.0
 51
87.0
  0
ARC
  5
6F8
100
AcDbEntity
  8
0
100
AcDbCircle
 62
7
  6
CONTINUOUS
 10
225.8750110332
 20
124.5733683807
 40
1.0
100
AcDbArc
 50
180.0
 51
267.0
  0
ARC
  5
6F9
100
AcDbEntity
  8
0
100
AcDbCircle
 62
7
  6
CONTINUOUS
 10
228.251210282
 20
124.4488370549
 40
0.9999895033
100
AcDbArc
 50
132.4155602828
 51
239.5887553377
  0
ARC
  5
6FA
100
AcDbEntity
  8
0
100
AcDbCircle
 62
7
  6
CONTINUOUS
 10
233.0750110332
 20
132.0144679227
 40
0.8
100
AcDbArc
 50
0.0
 51
89.5
  0
ARC
  5
6FB
100
AcDbEntity
  8
0
100
AcDbCircle
 62
7
  6
CONTINUOUS
 10
233.0750110332
 20
127.1569629805
 40
0.8
100
AcDbArc
 50
0.0
 51
89.5
  0
ARC
  5
6FC
100
AcDbEntity
  8
0
100
AcDbCircle
 62
7
  6
CONTINUOUS
 10
233.0750110332
 20
136.857798515
 40
0.8
100
AcDbArc
 50
0.0
 51
89.4999999938
  0
ARC
  5
6FD
100
AcDbEntity
  8
0
100
AcDbCircle
 62
7
  6
CONTINUOUS
 10
224.596813092
 20
127.4954028662
 40
0.8
100
AcDbArc
 50
330.4062890538
 51
72.0000652311
  0
ARC
  5
6FE
100
AcDbEntity
  8
RUNDUNGEN
100
AcDbCircle
 62
7
  6
CONTINUOUS
 10
233.0750110332
 20
136.857798515
 40
0.8
100
AcDbArc
 50
0.0
 51
89.5
  0
SPLINE
  5
6FF
100
AcDbEntity
  8
RUNDUNGEN
100
AcDbSpline
 62
7
  6
CONTINUOUS
 70
0
 71
3
 72
30
 73
26
 74
0
 42
0.0000001
 43
0.0000001
 44
0.0000000001
 40
0.0
 40
0.0
 40
0.0
 40
0.0
 40
0.0345797987
 40
0.0663254791
 40
0.0956315192
 40
0.1233154006
 40
0.1755287204
 40
0.2248565229
 40
0.2731340145
 40
0.3218842558
 40
0.3732422758
 40
0.4291246625
 40
0.4921629803
 40
0.5273017019
 40
0.5651507908
 40
0.6050764743
 40
0.6457811455
 40
0.686890432
 40
0.7279890088
 40
0.7686692918
 40
0.8085454767
 40
0.8463046826
 40
0.8813523396
 40
0.9442321989
 40
1.0
 40
1.0
 40
1.0
 40
1.0
 10
107.76359393
 20
132.6746879179
 30
0.0
 10
107.706957703
 20
132.5759848357
 30
0.0
 10
107.5839455011
 20
132.3950079287
 30
0.0
 10
107.3911893397
 20
132.1463695009
 30
0.0
 10
107.2232334698
 20
131.9071542194
 30
0.0
 10
107.0406458113
 20
131.5972841638
 30
0.0
 10
106.8750840972
 20
131.2021847665
 30
0.0
 10
106.7865872967
 20
130.7130753275
 30
0.0
 10
106.8099704073
 20
130.2275037379
 30
0.0
 10
106.9515706736
 20
129.7552425485
 30
0.0
 10
107.2132538156
 20
129.3078836667
 30
0.0
 10
107.6080070153
 20
128.9026617601
 30
0.0
 10
108.0427241298
 20
128.6315371253
 30
0.0
 10
108.4598881188
 20
128.466248002
 30
0.0
 10
108.8209971765
 20
128.3753159376
 30
0.0
 10
109.2055347557
 20
128.3097669864
 30
0.0
 10
109.6040536706
 20
128.2658751486
 30
0.0
 10
110.0086668949
 20
128.2510894439
 30
0.0
 10
110.4131501187
 20
128.2672048651
 30
0.0
 10
110.8112465711
 20
128.3122583047
 30
0.0
 10
111.1951326944
 20
128.3785129433
 30
0.0
 10
111.5550853066
 20
128.4709080724
 30
0.0
 10
111.970631658
 20
128.6372993226
 30
0.0
 10
112.4030176598
 20
128.9094707436
 30
0.0
 10
112.6772867677
 20
129.1934266958
 30
0.0
 10
112.7870588208
 20
129.3405033084
 30
0.0
  0
LINE
  5
700
100
AcDbEntity
  8
AUSFORMSCHRAEGEN
100
AcDbLine
 62
7
  6
CONTINUOUS
 10
135.7634498791
 20
71.3876790557
 11
135.7837995959
 21
71.3345188237
  0
LINE
  5
701
100
AcDbEntity
  8
AUSFORMSCHRAEGEN
100
AcDbLine
 62
7
  6
CONTINUOUS
 10
135.8048113161
 20
71.2789060094
 11
135.8265883079
 21
71.2209349944
  0
LINE
  5
702
100
AcDbEntity
  8
AUSFORMSCHRAEGEN
100
AcDbLine
 62
7
  6
CONTINUOUS
 10
84.1734163008
 20
71.2209474098
 11
84.1951941928
 21
71.2789178721
  0
LINE
  5
703
100
AcDbEntity
  8
AUSFORMSCHRAEGEN
100
AcDbLine
 62
7
  6
CONTINUOUS
 10
84.2162046539
 20
71.3345322598
 11
84.2365487296
 21
71.3876979373
  0
LINE
  5
704
100
AcDbEntity
  8
AUSFORMSCHRAEGEN
100
AcDbLine
 62
7
  6
CONTINUOUS
 10
84.2365496518
 20
123.3852079002
 11
84.2161999306
 21
123.43836788
  0
LINE
  5
705
100
AcDbEntity
  8
AUSFORMSCHRAEGEN
100
AcDbLine
 62
7
  6
CONTINUOUS
 10
84.1951884022
 20
123.4939801196
 11
84.1734117812
 21
123.5519501855
  0
LINE
  5
706
100
AcDbEntity
  8
AUSFORMSCHRAEGEN
100
AcDbLine
 62
7
  6
CONTINUOUS
 10
135.8265837714
 20
123.5519382147
 11
135.8048054662
 21
123.4939664921
  0
LINE
  5
707
100
AcDbEntity
  8
AUSFORMSCHRAEGEN
100
AcDbLine
 62
7
  6
CONTINUOUS
 10
135.7837948641
 20
123.4383513929
 11
135.7634508392
 21
123.3851855998
  0
SPLINE
  5
708
100
AcDbEntity
  8
0
100
AcDbSpline
 62
7
  6
CONTINUOUS
 70
0
 71
3
 72
8
 73
4
 74
0
 42
0.0000001
 43
0.0000001
 44
0.0000000001
 40
0.0
 40
0.0
 40
0.0
 40
0.0
 40
1.0
 40
1.0
 40
1.0
 40
1.0
 10
87.1632047296
 20
106.6876300618
 30
0.0
 10
87.1068249345
 20
106.7173026844
 30
0.0
 10
87.0474777222
 20
106.7529109761
 30
0.0
 10
86.9881305695
 20
106.7914871022
 30
0.0
  0
SPLINE
  5
709
100
AcDbEntity
  8
0
100
AcDbSpline
 62
7
  6
CONTINUOUS
 70
0
 71
3
 72
8
 73
4
 74
0
 42
0.0000001
 43
0.0000001
 44
0.0000000001
 40
0.0
 40
0.0
 40
0.0
 40
0.0
 40
1.0
 40
1.0
 40
1.0
 40
1.0
 10
88.0
 20
107.5036529347
 30
0.0
 10
88.0
 20
107.2395595356
 30
0.0
 10
87.916913949
 20
107.1030601307
 30
0.0
 10
87.6884272993
 20
106.9635947987
 30
0.0
  0
SPLINE
  5
70A
100
AcDbEntity
  8
0
100
AcDbSpline
 62
7
  6
CONTINUOUS
 70
0
 71
3
 72
8
 73
4
 74
0
 42
0.0000001
 43
0.0000001
 44
0.0000000001
 40
0.0
 40
0.0
 40
0.0
 40
0.0
 40
1.0
 40
1.0
 40
1.0
 40
1.0
 10
86.516320467
 20
105.3493503376
 30
0.0
 10
86.516320467
 20
105.5244258686
 30
0.0
 10
86.5786349773
 20
105.6579555317
 30
0.0
 10
86.703497883
 20
105.7496274935
 30
0.0
  0
SPLINE
  5
70B
100
AcDbEntity
  8
0
100
AcDbSpline
 62
7
  6
CONTINUOUS
 70
0
 71
3
 72
8
 73
4
 74
0
 42
0.0000001
 43
0.0000001
 44
0.0000000001
 40
0.0
 40
0.0
 40
0.0
 40
0.0
 40
1.0
 40
1.0
 40
1.0
 40
1.0
 10
86.7507418394
 20
104.9012798115
 30
0.0
 10
86.5934717655
 20
104.9992030903
 30
0.0
 10
86.516320467
 20
105.1475700184
 30
0.0
 10
86.516320467
 20
105.3493503376
 30
0.0
  0
SPLINE
  5
70C
100
AcDbEntity
  8
0
100
AcDbSpline
 62
7
  6
CONTINUOUS
 70
0
 71
3
 72
8
 73
4
 74
0
 42
0.0000001
 43
0.0000001
 44
0.0000000001
 40
0.0
 40
0.0
 40
0.0
 40
0.0
 40
1.0
 40
1.0
 40
1.0
 40
1.0
 10
86.8813056946
 20
105.189113979
 30
0.0
 10
86.8813056946
 20
105.0348113819
 30
0.0
 10
87.0089020729
 20
104.9428218647
 30
0.0
 10
87.1632047296
 20
104.9428218647
 30
0.0
  0
SPLINE
  5
70D
100
AcDbEntity
  8
0
100
AcDbSpline
 62
7
  6
CONTINUOUS
 70
0
 71
3
 72
8
 73
4
 74
0
 42
0.0000001
 43
0.0000001
 44
0.0000000001
 40
0.0
 40
0.0
 40
0.0
 40
0.0
 40
1.0
 40
1.0
 40
1.0
 40
1.0
 10
87.1958457232
 20
105.4176009938
 30
0.0
 10
86.9851632118
 20
105.4176009938
 30
0.0
 10
86.8813056946
 20
105.3404487416
 30
0.0
 10
86.8813056946
 20
105.189113979
 30
0.0
  0
SPLINE
  5
70E
100
AcDbEntity
  8
0
100
AcDbSpline
 62
7
  6
CONTINUOUS
 70
0
 71
3
 72
8
 73
4
 74
0
 42
0.0000001
 43
0.0000001
 44
0.0000000001
 40
0.0
 40
0.0
 40
0.0
 40
0.0
 40
1.0
 40
1.0
 40
1.0
 40
1.0
 10
88.0
 20
105.729172115
 30
0.0
 10
88.0
 20
105.5600341603
 30
0.0
 10
87.857566759
 20
105.4176009938
 30
0.0
 10
87.6884272993
 20
105.4176009938
 30
0.0
  0
SPLINE
  5
70F
100
AcDbEntity
  8
0
100
AcDbSpline
 62
7
  6
CONTINUOUS
 70
0
 71
3
 72
8
 73
4
 74
0
 42
0.0000001
 43
0.0000001
 44
0.0000000001
 40
0.0
 40
0.0
 40
0.0
 40
0.0
 40
1.0
 40
1.0
 40
1.0
 40
1.0
 10
86.703497883
 20
105.7496274935
 30
0.0
 10
86.8130563498
 20
105.8300632283
 30
0.0
 10
86.9584569931
 20
105.8686393544
 30
0.0
 10
87.1424332261
 20
105.8686393544
 30
0.0
  0
SPLINE
  5
710
100
AcDbEntity
  8
0
100
AcDbSpline
 62
7
  6
CONTINUOUS
 70
0
 71
3
 72
8
 73
4
 74
0
 42
0.0000001
 43
0.0000001
 44
0.0000000001
 40
0.0
 40
0.0
 40
0.0
 40
0.0
 40
1.0
 40
1.0
 40
1.0
 40
1.0
 10
86.2047477961
 20
103.6787284657
 30
0.0
 10
86.0296735764
 20
103.6787284657
 30
0.0
 10
85.8931751251
 20
103.8152259632
 30
0.0
 10
85.8931751251
 20
103.9903014943
 30
0.0
  0
SPLINE
  5
711
100
AcDbEntity
  8
0
100
AcDbSpline
 62
7
  6
CONTINUOUS
 70
0
 71
3
 72
8
 73
4
 74
0
 42
0.0000001
 43
0.0000001
 44
0.0000000001
 40
0.0
 40
0.0
 40
0.0
 40
0.0
 40
1.0
 40
1.0
 40
1.0
 40
1.0
 10
88.0
 20
103.1772445485
 30
0.0
 10
88.0
 20
103.0021709248
 30
0.0
 10
87.8635014892
 20
102.8656715199
 30
0.0
 10
87.6884272993
 20
102.8656715199
 30
0.0
  0
SPLINE
  5
712
100
AcDbEntity
  8
0
100
AcDbSpline
 62
7
  6
CONTINUOUS
 70
0
 71
3
 72
8
 73
4
 74
0
 42
0.0000001
 43
0.0000001
 44
0.0000000001
 40
0.0
 40
0.0
 40
0.0
 40
0.0
 40
1.0
 40
1.0
 40
1.0
 40
1.0
 10
87.7091988027
 20
101.8300632283
 30
0.0
 10
87.7091988027
 20
101.9339202687
 30
0.0
 10
87.6587537229
 20
102.0081046864
 30
0.0
 10
87.5578633147
 20
102.0585498651
 30
0.0
  0
SPLINE
  5
713
100
AcDbEntity
  8
0
100
AcDbSpline
 62
7
  6
CONTINUOUS
 70
0
 71
3
 72
8
 73
4
 74
0
 42
0.0000001
 43
0.0000001
 44
0.0000000001
 40
0.0
 40
0.0
 40
0.0
 40
0.0
 40
1.0
 40
1.0
 40
1.0
 40
1.0
 10
87.5642163135
 20
101.5948554972
 30
0.0
 10
87.6617210805
 20
101.6460870549
 30
0.0
 10
87.7091988027
 20
101.7262052342
 30
0.0
 10
87.7091988027
 20
101.8300632283
 30
0.0
  0
SPLINE
  5
714
100
AcDbEntity
  8
0
100
AcDbSpline
 62
7
  6
CONTINUOUS
 70
0
 71
3
 72
8
 73
4
 74
0
 42
0.0000001
 43
0.0000001
 44
0.0000000001
 40
0.0
 40
0.0
 40
0.0
 40
0.0
 40
1.0
 40
1.0
 40
1.0
 40
1.0
 10
87.2759643793
 20
101.5333274647
 30
0.0
 10
87.3916913867
 20
101.5333274647
 30
0.0
 10
87.4866468906
 20
101.5540984913
 30
0.0
 10
87.5642163135
 20
101.5948554972
 30
0.0
  0
SPLINE
  5
715
100
AcDbEntity
  8
0
100
AcDbSpline
 62
7
  6
CONTINUOUS
 70
0
 71
3
 72
8
 73
4
 74
0
 42
0.0000001
 43
0.0000001
 44
0.0000000001
 40
0.0
 40
0.0
 40
0.0
 40
0.0
 40
1.0
 40
1.0
 40
1.0
 40
1.0
 10
86.9877196726
 20
101.5948517379
 30
0.0
 10
87.0652819276
 20
101.5540984913
 30
0.0
 10
87.1602373719
 20
101.5333274647
 30
0.0
 10
87.2759643793
 20
101.5333274647
 30
0.0
  0
SPLINE
  5
716
100
AcDbEntity
  8
0
100
AcDbSpline
 62
7
  6
CONTINUOUS
 70
0
 71
3
 72
8
 73
4
 74
0
 42
0.0000001
 43
0.0000001
 44
0.0000000001
 40
0.0
 40
0.0
 40
0.0
 40
0.0
 40
1.0
 40
1.0
 40
1.0
 40
1.0
 10
86.8397625685
 20
101.8300632283
 30
0.0
 10
86.8397625685
 20
101.7262052342
 30
0.0
 10
86.8902077675
 20
101.6460870549
 30
0.0
 10
86.9877196726
 20
101.5948517379
 30
0.0
  0
SPLINE
  5
717
100
AcDbEntity
  8
0
100
AcDbSpline
 62
7
  6
CONTINUOUS
 70
0
 71
3
 72
8
 73
4
 74
0
 42
0.0000001
 43
0.0000001
 44
0.0000000001
 40
0.0
 40
0.0
 40
0.0
 40
0.0
 40
1.0
 40
1.0
 40
1.0
 40
1.0
 10
86.988715375
 20
102.0573584736
 30
0.0
 10
86.8902077675
 20
102.0081046864
 30
0.0
 10
86.8397625685
 20
101.9309533879
 30
0.0
 10
86.8397625685
 20
101.8300632283
 30
0.0
  0
SPLINE
  5
718
100
AcDbEntity
  8
0
100
AcDbSpline
 62
7
  6
CONTINUOUS
 70
0
 71
3
 72
8
 73
4
 74
0
 42
0.0000001
 43
0.0000001
 44
0.0000000001
 40
0.0
 40
0.0
 40
0.0
 40
0.0
 40
1.0
 40
1.0
 40
1.0
 40
1.0
 10
87.2729970217
 20
102.1178973957
 30
0.0
 10
87.1632047296
 20
102.1178973957
 30
0.0
 10
87.0682492852
 20
102.0971254155
 30
0.0
 10
86.988715375
 20
102.0573584736
 30
0.0
  0
SPLINE
  5
719
100
AcDbEntity
  8
0
100
AcDbSpline
 62
7
  6
CONTINUOUS
 70
0
 71
3
 72
8
 73
4
 74
0
 42
0.0000001
 43
0.0000001
 44
0.0000000001
 40
0.0
 40
0.0
 40
0.0
 40
0.0
 40
1.0
 40
1.0
 40
1.0
 40
1.0
 10
87.5578633147
 20
102.0585498651
 30
0.0
 10
87.4807121754
 20
102.0971254155
 30
0.0
 10
87.3857566714
 20
102.1178973957
 30
0.0
 10
87.2729970217
 20
102.1178973957
 30
0.0
  0
SPLINE
  5
71A
100
AcDbEntity
  8
0
100
AcDbSpline
 62
7
  6
CONTINUOUS
 70
0
 71
3
 72
8
 73
4
 74
0
 42
0.0000001
 43
0.0000001
 44
0.0000000001
 40
0.0
 40
0.0
 40
0.0
 40
0.0
 40
1.0
 40
1.0
 40
1.0
 40
1.0
 10
86.516320467
 20
101.8478673741
 30
0.0
 10
86.516320467
 20
102.0674518391
 30
0.0
 10
86.5845696926
 20
102.2454932972
 30
0.0
 10
86.7233037551
 20
102.3827355363
 30
0.0
  0
SPLINE
  5
71B
100
AcDbEntity
  8
0
100
AcDbSpline
 62
7
  6
CONTINUOUS
 70
0
 71
3
 72
8
 73
4
 74
0
 42
0.0000001
 43
0.0000001
 44
0.0000000001
 40
0.0
 40
0.0
 40
0.0
 40
0.0
 40
1.0
 40
1.0
 40
1.0
 40
1.0
 10
86.7247755654
 20
101.2818376309
 30
0.0
 10
86.5845696926
 20
101.4235347554
 30
0.0
 10
86.516320467
 20
101.613445644
 30
0.0
 10
86.516320467
 20
101.8478673741
 30
0.0
  0
SPLINE
  5
71C
100
AcDbEntity
  8
0
100
AcDbSpline
 62
7
  6
CONTINUOUS
 70
0
 71
3
 72
8
 73
4
 74
0
 42
0.0000001
 43
0.0000001
 44
0.0000000001
 40
0.0
 40
0.0
 40
0.0
 40
0.0
 40
1.0
 40
1.0
 40
1.0
 40
1.0
 10
87.2848664522
 20
101.0704196736
 30
0.0
 10
87.0504450798
 20
101.0704196736
 30
0.0
 10
86.8635014296
 20
101.1416362568
 30
0.0
 10
86.7247755654
 20
101.2818376309
 30
0.0
  0
SPLINE
  5
71D
100
AcDbEntity
  8
0
100
AcDbSpline
 62
7
  6
CONTINUOUS
 70
0
 71
3
 72
8
 73
4
 74
0
 42
0.0000001
 43
0.0000001
 44
0.0000000001
 40
0.0
 40
0.0
 40
0.0
 40
0.0
 40
1.0
 40
1.0
 40
1.0
 40
1.0
 10
87.8271416327
 20
101.2788742415
 30
0.0
 10
87.6884272993
 20
101.1386684224
 30
0.0
 10
87.5074183941
 20
101.0704196736
 30
0.0
 10
87.2848664522
 20
101.0704196736
 30
0.0
  0
SPLINE
  5
71E
100
AcDbEntity
  8
0
100
AcDbSpline
 62
7
  6
CONTINUOUS
 70
0
 71
3
 72
8
 73
4
 74
0
 42
0.0000001
 43
0.0000001
 44
0.0000000001
 40
0.0
 40
0.0
 40
0.0
 40
0.0
 40
1.0
 40
1.0
 40
1.0
 40
1.0
 10
88.0326409489
 20
101.8211606785
 30
0.0
 10
88.0326409489
 20
101.5986093327
 30
0.0
 10
87.9643916897
 20
101.4176000401
 30
0.0
 10
87.8271416327
 20
101.2788742415
 30
0.0
  0
SPLINE
  5
71F
100
AcDbEntity
  8
0
100
AcDbSpline
 62
7
  6
CONTINUOUS
 70
0
 71
3
 72
8
 73
4
 74
0
 42
0.0000001
 43
0.0000001
 44
0.0000000001
 40
0.0
 40
0.0
 40
0.0
 40
0.0
 40
1.0
 40
1.0
 40
1.0
 40
1.0
 10
87.8212266449
 20
102.3753135591
 30
0.0
 10
87.9614243321
 20
102.2365917012
 30
0.0
 10
88.0326409489
 20
102.0526155278
 30
0.0
 10
88.0326409489
 20
101.8211606785
 30
0.0
  0
SPLINE
  5
720
100
AcDbEntity
  8
0
100
AcDbSpline
 62
7
  6
CONTINUOUS
 70
0
 71
3
 72
8
 73
4
 74
0
 42
0.0000001
 43
0.0000001
 44
0.0000000001
 40
0.0
 40
0.0
 40
0.0
 40
0.0
 40
1.0
 40
1.0
 40
1.0
 40
1.0
 10
87.2611275911
 20
102.5867399022
 30
0.0
 10
87.4925816059
 20
102.5867399022
 30
0.0
 10
87.6795252264
 20
102.5155233189
 30
0.0
 10
87.8212266449
 20
102.3753135591
 30
0.0
  0
SPLINE
  5
721
100
AcDbEntity
  8
0
100
AcDbSpline
 62
7
  6
CONTINUOUS
 70
0
 71
3
 72
8
 73
4
 74
0
 42
0.0000001
 43
0.0000001
 44
0.0000000001
 40
0.0
 40
0.0
 40
0.0
 40
0.0
 40
1.0
 40
1.0
 40
1.0
 40
1.0
 10
86.7233037551
 20
102.3827355363
 30
0.0
 10
86.8605340719
 20
102.5184901997
 30
0.0
 10
87.0385756493
 20
102.5867399022
 30
0.0
 10
87.2611275911
 20
102.5867399022
 30
0.0
  0
SPLINE
  5
722
100
AcDbEntity
  8
0
100
AcDbSpline
 62
7
  6
CONTINUOUS
 70
0
 71
3
 72
8
 73
4
 74
0
 42
0.0000001
 43
0.0000001
 44
0.0000000001
 40
0.0
 40
0.0
 40
0.0
 40
0.0
 40
1.0
 40
1.0
 40
1.0
 40
1.0
 10
86.818991065
 20
100.4324373051
 30
0.0
 10
86.6409496069
 20
100.4947513386
 30
0.0
 10
86.516320467
 20
100.6431192204
 30
0.0
 10
86.516320467
 20
100.824128513
 30
0.0
  0
SPLINE
  5
723
100
AcDbEntity
  8
0
100
AcDbSpline
 62
7
  6
CONTINUOUS
 70
0
 71
3
 72
8
 73
4
 74
0
 42
0.0000001
 43
0.0000001
 44
0.0000000001
 40
0.0
 40
0.0
 40
0.0
 40
0.0
 40
1.0
 40
1.0
 40
1.0
 40
1.0
 10
87.0267062187
 20
100.0259088322
 30
0.0
 10
86.7922848463
 20
100.0259088322
 30
0.0
 10
86.632047534
 20
100.0229419514
 30
0.0
 10
86.548961401
 20
100.0170072361
 30
0.0
  0
SPLINE
  5
724
100
AcDbEntity
  8
0
100
AcDbSpline
 62
7
  6
CONTINUOUS
 70
0
 71
3
 72
8
 73
4
 74
0
 42
0.0000001
 43
0.0000001
 44
0.0000000001
 40
0.0
 40
0.0
 40
0.0
 40
0.0
 40
1.0
 40
1.0
 40
1.0
 40
1.0
 10
86.9376854897
 20
100.7944549366
 30
0.0
 10
86.9376854897
 20
100.5837720677
 30
0.0
 10
87.0474777222
 20
100.4769471928
 30
0.0
 10
87.2670623064
 20
100.4769471928
 30
0.0
  0
SPLINE
  5
725
100
AcDbEntity
  8
0
100
AcDbSpline
 62
7
  6
CONTINUOUS
 70
0
 71
3
 72
8
 73
4
 74
0
 42
0.0000001
 43
0.0000001
 44
0.0000000001
 40
0.0
 40
0.0
 40
0.0
 40
0.0
 40
1.0
 40
1.0
 40
1.0
 40
1.0
 10
86.9495549202
 20
100.9190839573
 30
0.0
 10
86.9406528473
 20
100.8686384007
 30
0.0
 10
86.9376854897
 20
100.8270953938
 30
0.0
 10
86.9376854897
 20
100.7944549366
 30
0.0
  0
SPLINE
  5
726
100
AcDbEntity
  8
0
100
AcDbSpline
 62
7
  6
CONTINUOUS
 70
0
 71
3
 72
8
 73
4
 74
0
 42
0.0000001
 43
0.0000001
 44
0.0000000001
 40
0.0
 40
0.0
 40
0.0
 40
0.0
 40
1.0
 40
1.0
 40
1.0
 40
1.0
 10
86.516320467
 20
100.824128513
 30
0.0
 10
86.516320467
 20
100.8567689701
 30
0.0
 10
86.5192878246
 20
100.8864425465
 30
0.0
 10
86.5252225399
 20
100.9190839573
 30
0.0
  0
SPLINE
  5
727
100
AcDbEntity
  8
0
100
AcDbSpline
 62
7
  6
CONTINUOUS
 70
0
 71
3
 72
8
 73
4
 74
0
 42
0.0000001
 43
0.0000001
 44
0.0000000001
 40
0.0
 40
0.0
 40
0.0
 40
0.0
 40
1.0
 40
1.0
 40
1.0
 40
1.0
 10
87.6854599416
 20
98.9754642292
 30
0.0
 10
87.6854599416
 20
99.0822891041
 30
0.0
 10
87.6409495473
 20
99.1624072834
 30
0.0
 10
87.5538906313
 20
99.2172221361
 30
0.0
  0
SPLINE
  5
728
100
AcDbEntity
  8
0
100
AcDbSpline
 62
7
  6
CONTINUOUS
 70
0
 71
3
 72
8
 73
4
 74
0
 42
0.0000001
 43
0.0000001
 44
0.0000000001
 40
0.0
 40
0.0
 40
0.0
 40
0.0
 40
1.0
 40
1.0
 40
1.0
 40
1.0
 10
87.6231015092
 20
98.8063606021
 30
0.0
 10
87.6646884382
 20
98.8567689701
 30
0.0
 10
87.6854599416
 20
98.9131492421
 30
0.0
 10
87.6854599416
 20
98.9754642292
 30
0.0
  0
SPLINE
  5
729
100
AcDbEntity
  8
0
100
AcDbSpline
 62
7
  6
CONTINUOUS
 70
0
 71
3
 72
8
 73
4
 74
0
 42
0.0000001
 43
0.0000001
 44
0.0000000001
 40
0.0
 40
0.0
 40
0.0
 40
0.0
 40
1.0
 40
1.0
 40
1.0
 40
1.0
 10
87.3768545985
 20
98.7024663731
 30
0.0
 10
87.4866468906
 20
98.7024663731
 30
0.0
 10
87.5667655766
 20
98.7380746647
 30
0.0
 10
87.6231015092
 20
98.8063606021
 30
0.0
  0
SPLINE
  5
72A
100
AcDbEntity
  8
0
100
AcDbSpline
 62
7
  6
CONTINUOUS
 70
0
 71
3
 72
8
 73
4
 74
0
 42
0.0000001
 43
0.0000001
 44
0.0000000001
 40
0.0
 40
0.0
 40
0.0
 40
0.0
 40
1.0
 40
1.0
 40
1.0
 40
1.0
 10
86.8694361448
 20
98.9813989445
 30
0.0
 10
86.8694361448
 20
98.8181937977
 30
0.0
 10
87.0118694305
 20
98.7024663731
 30
0.0
 10
87.1780415177
 20
98.7024663731
 30
0.0
  0
SPLINE
  5
72B
100
AcDbEntity
  8
0
100
AcDbSpline
 62
7
  6
CONTINUOUS
 70
0
 71
3
 72
8
 73
4
 74
0
 42
0.0000001
 43
0.0000001
 44
0.0000000001
 40
0.0
 40
0.0
 40
0.0
 40
0.0
 40
1.0
 40
1.0
 40
1.0
 40
1.0
 10
87.0003644326
 20
99.2181857214
 30
0.0
 10
86.9139466286
 20
99.1653751179
 30
0.0
 10
86.8694361448
 20
99.0852559849
 30
0.0
 10
86.8694361448
 20
98.9813989445
 30
0.0
  0
SPLINE
  5
72C
100
AcDbEntity
  8
0
100
AcDbSpline
 62
7
  6
CONTINUOUS
 70
0
 71
3
 72
8
 73
4
 74
0
 42
0.0000001
 43
0.0000001
 44
0.0000000001
 40
0.0
 40
0.0
 40
0.0
 40
0.0
 40
1.0
 40
1.0
 40
1.0
 40
1.0
 10
87.2759643793
 20
99.2870363041
 30
0.0
 10
87.1661720872
 20
99.2870363041
 30
0.0
 10
87.0741840005
 20
99.263297443
 30
0.0
 10
87.0003644326
 20
99.2181857214
 30
0.0
  0
SPLINE
  5
72D
100
AcDbEntity
  8
0
100
AcDbSpline
 62
7
  6
CONTINUOUS
 70
0
 71
3
 72
8
 73
4
 74
0
 42
0.0000001
 43
0.0000001
 44
0.0000000001
 40
0.0
 40
0.0
 40
0.0
 40
0.0
 40
1.0
 40
1.0
 40
1.0
 40
1.0
 10
87.5538906313
 20
99.2172221361
 30
0.0
 10
87.4807121754
 20
99.263297443
 30
0.0
 10
87.3887240291
 20
99.2870363041
 30
0.0
 10
87.2759643793
 20
99.2870363041
 30
0.0
  0
SPLINE
  5
72E
100
AcDbEntity
  8
0
100
AcDbSpline
 62
7
  6
CONTINUOUS
 70
0
 71
3
 72
8
 73
4
 74
0
 42
0.0000001
 43
0.0000001
 44
0.0000000001
 40
0.0
 40
0.0
 40
0.0
 40
0.0
 40
1.0
 40
1.0
 40
1.0
 40
1.0
 10
86.516320467
 20
99.1416362568
 30
0.0
 10
86.516320467
 20
99.3315471455
 30
0.0
 10
86.5934717655
 20
99.4828819081
 30
0.0
 10
86.7498644308
 20
99.5939208625
 30
0.0
  0
SPLINE
  5
72F
100
AcDbEntity
  8
0
100
AcDbSpline
 62
7
  6
CONTINUOUS
 70
0
 71
3
 72
8
 73
4
 74
0
 42
0.0000001
 43
0.0000001
 44
0.0000000001
 40
0.0
 40
0.0
 40
0.0
 40
0.0
 40
1.0
 40
1.0
 40
1.0
 40
1.0
 10
86.7507418394
 20
98.6579564854
 30
0.0
 10
86.5934717655
 20
98.7677482411
 30
0.0
 10
86.516320467
 20
98.9309533879
 30
0.0
 10
86.516320467
 20
99.1416362568
 30
0.0
  0
SPLINE
  5
730
100
AcDbEntity
  8
0
100
AcDbSpline
 62
7
  6
CONTINUOUS
 70
0
 71
3
 72
8
 73
4
 74
0
 42
0.0000001
 43
0.0000001
 44
0.0000000001
 40
0.0
 40
0.0
 40
0.0
 40
0.0
 40
1.0
 40
1.0
 40
1.0
 40
1.0
 10
88.5875371099
 20
98.5630010411
 30
0.0
 10
88.5875371099
 20
98.3879264637
 30
0.0
 10
88.4510385692
 20
98.2514280125
 30
0.0
 10
88.2759643793
 20
98.2514280125
 30
0.0
  0
SPLINE
  5
731
100
AcDbEntity
  8
0
100
AcDbSpline
 62
7
  6
CONTINUOUS
 70
0
 71
3
 72
8
 73
4
 74
0
 42
0.0000001
 43
0.0000001
 44
0.0000000001
 40
0.0
 40
0.0
 40
0.0
 40
0.0
 40
1.0
 40
1.0
 40
1.0
 40
1.0
 10
88.0326409489
 20
99.0852559849
 30
0.0
 10
88.0326409489
 20
98.9101814076
 30
0.0
 10
87.9762611277
 20
98.7855523869
 30
0.0
 10
87.8664688468
 20
98.7024663731
 30
0.0
  0
SPLINE
  5
732
100
AcDbEntity
  8
0
100
AcDbSpline
 62
7
  6
CONTINUOUS
 70
0
 71
3
 72
8
 73
4
 74
0
 42
0.0000001
 43
0.0000001
 44
0.0000000001
 40
0.0
 40
0.0
 40
0.0
 40
0.0
 40
1.0
 40
1.0
 40
1.0
 40
1.0
 10
87.7945813192
 20
99.5769544668
 30
0.0
 10
87.9525222555
 20
99.4561761662
 30
0.0
 10
88.0326409489
 20
99.2929710194
 30
0.0
 10
88.0326409489
 20
99.0852559849
 30
0.0
  0
SPLINE
  5
733
100
AcDbEntity
  8
0
100
AcDbSpline
 62
7
  6
CONTINUOUS
 70
0
 71
3
 72
8
 73
4
 74
0
 42
0.0000001
 43
0.0000001
 44
0.0000000001
 40
0.0
 40
0.0
 40
0.0
 40
0.0
 40
1.0
 40
1.0
 40
1.0
 40
1.0
 10
87.2551928759
 20
99.74400938
 30
0.0
 10
87.4718101025
 20
99.74400938
 30
0.0
 10
87.6498516202
 20
99.6876300618
 30
0.0
 10
87.7945813192
 20
99.5769544668
 30
0.0
  0
SPLINE
  5
734
100
AcDbEntity
  8
0
100
AcDbSpline
 62
7
  6
CONTINUOUS
 70
0
 71
3
 72
8
 73
4
 74
0
 42
0.0000001
 43
0.0000001
 44
0.0000000001
 40
0.0
 40
0.0
 40
0.0
 40
0.0
 40
1.0
 40
1.0
 40
1.0
 40
1.0
 10
86.7498644308
 20
99.5939208625
 30
0.0
 10
86.8902077675
 20
99.693564777
 30
0.0
 10
87.0563797951
 20
99.74400938
 30
0.0
 10
87.2551928759
 20
99.74400938
 30
0.0
  0
SPLINE
  5
735
100
AcDbEntity
  8
0
100
AcDbSpline
 62
7
  6
CONTINUOUS
 70
0
 71
3
 72
8
 73
4
 74
0
 42
0.0000001
 43
0.0000001
 44
0.0000000001
 40
0.0
 40
0.0
 40
0.0
 40
0.0
 40
1.0
 40
1.0
 40
1.0
 40
1.0
 10
87.5308490286
 20
96.3646770125
 30
0.0
 10
87.6142433286
 20
96.4176000401
 30
0.0
 10
87.6557863355
 20
96.4917844578
 30
0.0
 10
87.6557863355
 20
96.589706783
 30
0.0
  0
SPLINE
  5
736
100
AcDbEntity
  8
0
100
AcDbSpline
 62
7
  6
CONTINUOUS
 70
0
 71
3
 72
8
 73
4
 74
0
 42
0.0000001
 43
0.0000001
 44
0.0000000001
 40
0.0
 40
0.0
 40
0.0
 40
0.0
 40
1.0
 40
1.0
 40
1.0
 40
1.0
 10
87.270029664
 20
96.2959388539
 30
0.0
 10
87.3738872409
 20
96.2959388539
 30
0.0
 10
87.4599406719
 20
96.319677715
 30
0.0
 10
87.5308490286
 20
96.3646770125
 30
0.0
  0
SPLINE
  5
737
100
AcDbEntity
  8
0
100
AcDbSpline
 62
7
  6
CONTINUOUS
 70
0
 71
3
 72
8
 73
4
 74
0
 42
0.0000001
 43
0.0000001
 44
0.0000000001
 40
0.0
 40
0.0
 40
0.0
 40
0.0
 40
1.0
 40
1.0
 40
1.0
 40
1.0
 10
86.9941329744
 20
96.3613374691
 30
0.0
 10
87.0712166429
 20
96.3167098805
 30
0.0
 10
87.1632047296
 20
96.2959388539
 30
0.0
 10
87.270029664
 20
96.2959388539
 30
0.0
  0
SPLINE
  5
738
100
AcDbEntity
  8
0
100
AcDbSpline
 62
7
  6
CONTINUOUS
 70
0
 71
3
 72
8
 73
4
 74
0
 42
0.0000001
 43
0.0000001
 44
0.0000000001
 40
0.0
 40
0.0
 40
0.0
 40
0.0
 40
1.0
 40
1.0
 40
1.0
 40
1.0
 10
86.8575667143
 20
96.5926746174
 30
0.0
 10
86.8575667143
 20
96.4917844578
 30
0.0
 10
86.902077198
 20
96.4146331593
 30
0.0
 10
86.9941329744
 20
96.3613374691
 30
0.0
  0
SPLINE
  5
739
100
AcDbEntity
  8
0
100
AcDbSpline
 62
7
  6
CONTINUOUS
 70
0
 71
3
 72
8
 73
4
 74
0
 42
0.0000001
 43
0.0000001
 44
0.0000000001
 40
0.0
 40
0.0
 40
0.0
 40
0.0
 40
1.0
 40
1.0
 40
1.0
 40
1.0
 10
87.1394658685
 20
96.8448995396
 30
0.0
 10
86.9821958542
 20
96.8448995396
 30
0.0
 10
86.8575667143
 20
96.7469772145
 30
0.0
 10
86.8575667143
 20
96.5926746174
 30
0.0
  0
SPLINE
  5
73A
100
AcDbEntity
  8
0
100
AcDbSpline
 62
7
  6
CONTINUOUS
 70
0
 71
3
 72
8
 73
4
 74
0
 42
0.0000001
 43
0.0000001
 44
0.0000000001
 40
0.0
 40
0.0
 40
0.0
 40
0.0
 40
1.0
 40
1.0
 40
1.0
 40
1.0
 10
87.6557863355
 20
96.589706783
 30
0.0
 10
87.6557863355
 20
96.758846645
 30
0.0
 10
87.5548961461
 20
96.8448995396
 30
0.0
 10
87.3531157374
 20
96.8448995396
 30
0.0
  0
SPLINE
  5
73B
100
AcDbEntity
  8
0
100
AcDbSpline
 62
7
  6
CONTINUOUS
 70
0
 71
3
 72
8
 73
4
 74
0
 42
0.0000001
 43
0.0000001
 44
0.0000000001
 40
0.0
 40
0.0
 40
0.0
 40
0.0
 40
1.0
 40
1.0
 40
1.0
 40
1.0
 10
86.516320467
 20
96.4977191731
 30
0.0
 10
86.516320467
 20
96.678727512
 30
0.0
 10
86.5845696926
 20
96.809291248
 30
0.0
 10
86.7210682631
 20
96.9012798115
 30
0.0
  0
SPLINE
  5
73C
100
AcDbEntity
  8
0
100
AcDbSpline
 62
7
  6
CONTINUOUS
 70
0
 71
3
 72
8
 73
4
 74
0
 42
0.0000001
 43
0.0000001
 44
0.0000000001
 40
0.0
 40
0.0
 40
0.0
 40
0.0
 40
1.0
 40
1.0
 40
1.0
 40
1.0
 10
86.7543286137
 20
96.0088989101
 30
0.0
 10
86.5964391232
 20
96.1327337071
 30
0.0
 10
86.516320467
 20
96.2959388539
 30
0.0
 10
86.516320467
 20
96.4977191731
 30
0.0
  0
SPLINE
  5
73D
100
AcDbEntity
  8
0
100
AcDbSpline
 62
7
  6
CONTINUOUS
 70
0
 71
3
 72
8
 73
4
 74
0
 42
0.0000001
 43
0.0000001
 44
0.0000000001
 40
0.0
 40
0.0
 40
0.0
 40
0.0
 40
1.0
 40
1.0
 40
1.0
 40
1.0
 10
87.2818990946
 20
95.8389648243
 30
0.0
 10
87.0741840005
 20
95.8389648243
 30
0.0
 10
86.8991098404
 20
95.8953450962
 30
0.0
 10
86.7543286137
 20
96.0088989101
 30
0.0
  0
SPLINE
  5
73E
100
AcDbEntity
  8
0
100
AcDbSpline
 62
7
  6
CONTINUOUS
 70
0
 71
3
 72
8
 73
4
 74
0
 42
0.0000001
 43
0.0000001
 44
0.0000000001
 40
0.0
 40
0.0
 40
0.0
 40
0.0
 40
1.0
 40
1.0
 40
1.0
 40
1.0
 10
87.7740146955
 20
95.9968264255
 30
0.0
 10
87.6409495473
 20
95.8923772618
 30
0.0
 10
87.4777448177
 20
95.8389648243
 30
0.0
 10
87.2818990946
 20
95.8389648243
 30
0.0
  0
SPLINE
  5
73F
100
AcDbEntity
  8
0
100
AcDbSpline
 62
7
  6
CONTINUOUS
 70
0
 71
3
 72
8
 73
4
 74
0
 42
0.0000001
 43
0.0000001
 44
0.0000000001
 40
0.0
 40
0.0
 40
0.0
 40
0.0
 40
1.0
 40
1.0
 40
1.0
 40
1.0
 10
87.9881305639
 20
96.4532083317
 30
0.0
 10
87.9881305639
 20
96.2603305622
 30
0.0
 10
87.916913949
 20
96.108994846
 30
0.0
 10
87.7740146955
 20
95.9968264255
 30
0.0
  0
SPLINE
  5
740
100
AcDbEntity
  8
0
100
AcDbSpline
 62
7
  6
CONTINUOUS
 70
0
 71
3
 72
8
 73
4
 74
0
 42
0.0000001
 43
0.0000001
 44
0.0000000001
 40
0.0
 40
0.0
 40
0.0
 40
0.0
 40
1.0
 40
1.0
 40
1.0
 40
1.0
 10
87.801186949
 20
96.8448995396
 30
0.0
 10
87.9258160219
 20
96.7529119297
 30
0.0
 10
87.9881305639
 20
96.6223481938
 30
0.0
 10
87.9881305639
 20
96.4532083317
 30
0.0
  0
SPLINE
  5
741
100
AcDbEntity
  8
0
100
AcDbSpline
 62
7
  6
CONTINUOUS
 70
0
 71
3
 72
8
 73
4
 74
0
 42
0.0000001
 43
0.0000001
 44
0.0000000001
 40
0.0
 40
0.0
 40
0.0
 40
0.0
 40
1.0
 40
1.0
 40
1.0
 40
1.0
 10
88.2759643793
 20
96.473980312
 30
0.0
 10
88.2759643793
 20
96.7262052342
 30
0.0
 10
88.1483679563
 20
96.8508342549
 30
0.0
 10
87.893175073
 20
96.8508342549
 30
0.0
  0
SPLINE
  5
742
100
AcDbEntity
  8
0
100
AcDbSpline
 62
7
  6
CONTINUOUS
 70
0
 71
3
 72
8
 73
4
 74
0
 42
0.0000001
 43
0.0000001
 44
0.0000000001
 40
0.0
 40
0.0
 40
0.0
 40
0.0
 40
1.0
 40
1.0
 40
1.0
 40
1.0
 10
88.1661721021
 20
96.0526155278
 30
0.0
 10
88.2403560877
 20
96.1802114293
 30
0.0
 10
88.2759643793
 20
96.319677715
 30
0.0
 10
88.2759643793
 20
96.473980312
 30
0.0
  0
SPLINE
  5
743
100
AcDbEntity
  8
0
100
AcDbSpline
 62
7
  6
CONTINUOUS
 70
0
 71
3
 72
8
 73
4
 74
0
 42
0.0000001
 43
0.0000001
 44
0.0000000001
 40
0.0
 40
0.0
 40
0.0
 40
0.0
 40
1.0
 40
1.0
 40
1.0
 40
1.0
 10
88.6201780438
 20
96.4858497425
 30
0.0
 10
88.6201780438
 20
96.2721999928
 30
0.0
 10
88.5845697522
 20
96.0971254155
 30
0.0
 10
88.5103857517
 20
95.963593845
 30
0.0
  0
SPLINE
  5
744
100
AcDbEntity
  8
0
100
AcDbSpline
 62
7
  6
CONTINUOUS
 70
0
 71
3
 72
8
 73
4
 74
0
 42
0.0000001
 43
0.0000001
 44
0.0000000001
 40
0.0
 40
0.0
 40
0.0
 40
0.0
 40
1.0
 40
1.0
 40
1.0
 40
1.0
 10
87.7893175036
 20
97.2959388539
 30
0.0
 10
88.3501483798
 20
97.2959388539
 30
0.0
 10
88.6201780438
 20
97.043712978
 30
0.0
 10
88.6201780438
 20
96.4858497425
 30
0.0
  0
SPLINE
  5
745
100
AcDbEntity
  8
0
100
AcDbSpline
 62
7
  6
CONTINUOUS
 70
0
 71
3
 72
8
 73
4
 74
0
 42
0.0000001
 43
0.0000001
 44
0.0000000001
 40
0.0
 40
0.0
 40
0.0
 40
0.0
 40
1.0
 40
1.0
 40
1.0
 40
1.0
 10
86.548961401
 20
97.3078082844
 30
0.0
 10
86.6765578985
 20
97.2989057347
 30
0.0
 10
86.818991065
 20
97.2959388539
 30
0.0
 10
86.9821958542
 20
97.2959388539
 30
0.0
  0
SPLINE
  5
746
100
AcDbEntity
  8
0
100
AcDbSpline
 62
7
  6
CONTINUOUS
 70
0
 71
3
 72
8
 73
4
 74
0
 42
0.0000001
 43
0.0000001
 44
0.0000000001
 40
0.0
 40
0.0
 40
0.0
 40
0.0
 40
1.0
 40
1.0
 40
1.0
 40
1.0
 10
86.516320467
 20
95.0407460972
 30
0.0
 10
86.516320467
 20
95.2158197209
 30
0.0
 10
86.5786349773
 20
95.3493512913
 30
0.0
 10
86.7034972123
 20
95.4410222527
 30
0.0
  0
SPLINE
  5
747
100
AcDbEntity
  8
0
100
AcDbSpline
 62
7
  6
CONTINUOUS
 70
0
 71
3
 72
8
 73
4
 74
0
 42
0.0000001
 43
0.0000001
 44
0.0000000001
 40
0.0
 40
0.0
 40
0.0
 40
0.0
 40
1.0
 40
1.0
 40
1.0
 40
1.0
 10
86.7507418394
 20
94.5926746174
 30
0.0
 10
86.5934717655
 20
94.6905974194
 30
0.0
 10
86.516320467
 20
94.8389653012
 30
0.0
 10
86.516320467
 20
95.0407460972
 30
0.0
  0
SPLINE
  5
748
100
AcDbEntity
  8
0
100
AcDbSpline
 62
7
  6
CONTINUOUS
 70
0
 71
3
 72
8
 73
4
 74
0
 42
0.0000001
 43
0.0000001
 44
0.0000000001
 40
0.0
 40
0.0
 40
0.0
 40
0.0
 40
1.0
 40
1.0
 40
1.0
 40
1.0
 10
86.8813056946
 20
94.8805083081
 30
0.0
 10
86.8813056946
 20
94.726205711
 30
0.0
 10
87.0089020729
 20
94.6342176243
 30
0.0
 10
87.1632047296
 20
94.6342176243
 30
0.0
  0
SPLINE
  5
749
100
AcDbEntity
  8
0
100
AcDbSpline
 62
7
  6
CONTINUOUS
 70
0
 71
3
 72
8
 73
4
 74
0
 42
0.0000001
 43
0.0000001
 44
0.0000000001
 40
0.0
 40
0.0
 40
0.0
 40
0.0
 40
1.0
 40
1.0
 40
1.0
 40
1.0
 10
87.1958457232
 20
95.108994846
 30
0.0
 10
86.9851632118
 20
95.108994846
 30
0.0
 10
86.8813056946
 20
95.0318435475
 30
0.0
 10
86.8813056946
 20
94.8805083081
 30
0.0
  0
SPLINE
  5
74A
100
AcDbEntity
  8
0
100
AcDbSpline
 62
7
  6
CONTINUOUS
 70
0
 71
3
 72
8
 73
4
 74
0
 42
0.0000001
 43
0.0000001
 44
0.0000000001
 40
0.0
 40
0.0
 40
0.0
 40
0.0
 40
1.0
 40
1.0
 40
1.0
 40
1.0
 10
88.0
 20
95.4205678746
 30
0.0
 10
88.0
 20
95.2514280125
 30
0.0
 10
87.857566759
 20
95.108994846
 30
0.0
 10
87.6884272993
 20
95.108994846
 30
0.0
  0
SPLINE
  5
74B
100
AcDbEntity
  8
0
100
AcDbSpline
 62
7
  6
CONTINUOUS
 70
0
 71
3
 72
8
 73
4
 74
0
 42
0.0000001
 43
0.0000001
 44
0.0000000001
 40
0.0
 40
0.0
 40
0.0
 40
0.0
 40
1.0
 40
1.0
 40
1.0
 40
1.0
 10
86.7034972123
 20
95.4410222527
 30
0.0
 10
86.8130563498
 20
95.5214580342
 30
0.0
 10
86.9584569931
 20
95.5600332066
 30
0.0
 10
87.1424332261
 20
95.5600332066
 30
0.0
  0
SPLINE
  5
74C
100
AcDbEntity
  8
0
100
AcDbSpline
 62
7
  6
CONTINUOUS
 70
0
 71
3
 72
8
 73
4
 74
0
 42
0.0000001
 43
0.0000001
 44
0.0000000001
 40
0.0
 40
0.0
 40
0.0
 40
0.0
 40
1.0
 40
1.0
 40
1.0
 40
1.0
 10
86.2047477961
 20
93.3701223179
 30
0.0
 10
86.0296735764
 20
93.3701223179
 30
0.0
 10
85.8931751251
 20
93.506621246
 30
0.0
 10
85.8931751251
 20
93.6816953465
 30
0.0
  0
SPLINE
  5
74D
100
AcDbEntity
  8
0
100
AcDbSpline
 62
7
  6
CONTINUOUS
 70
0
 71
3
 72
8
 73
4
 74
0
 42
0.0000001
 43
0.0000001
 44
0.0000000001
 40
0.0
 40
0.0
 40
0.0
 40
0.0
 40
1.0
 40
1.0
 40
1.0
 40
1.0
 10
88.0
 20
92.8686388775
 30
0.0
 10
88.0
 20
92.693564777
 30
0.0
 10
87.8635014892
 20
92.5570663258
 30
0.0
 10
87.6884272993
 20
92.5570663258
 30
0.0
  0
SPLINE
  5
74E
100
AcDbEntity
  8
0
100
AcDbSpline
 62
7
  6
CONTINUOUS
 70
0
 71
3
 72
8
 73
4
 74
0
 42
0.0000001
 43
0.0000001
 44
0.0000000001
 40
0.0
 40
0.0
 40
0.0
 40
0.0
 40
1.0
 40
1.0
 40
1.0
 40
1.0
 10
87.5308491429
 20
91.2637866677
 30
0.0
 10
87.6142433286
 20
91.3167098805
 30
0.0
 10
87.6557863355
 20
91.3908938214
 30
0.0
 10
87.6557863355
 20
91.4888171002
 30
0.0
  0
SPLINE
  5
74F
100
AcDbEntity
  8
0
100
AcDbSpline
 62
7
  6
CONTINUOUS
 70
0
 71
3
 72
8
 73
4
 74
0
 42
0.0000001
 43
0.0000001
 44
0.0000000001
 40
0.0
 40
0.0
 40
0.0
 40
0.0
 40
1.0
 40
1.0
 40
1.0
 40
1.0
 10
87.270029664
 20
91.1950482174
 30
0.0
 10
87.3738872409
 20
91.1950482174
 30
0.0
 10
87.4599406719
 20
91.2187870785
 30
0.0
 10
87.5308491429
 20
91.2637866677
 30
0.0
  0
SPLINE
  5
750
100
AcDbEntity
  8
0
100
AcDbSpline
 62
7
  6
CONTINUOUS
 70
0
 71
3
 72
8
 73
4
 74
0
 42
0.0000001
 43
0.0000001
 44
0.0000000001
 40
0.0
 40
0.0
 40
0.0
 40
0.0
 40
1.0
 40
1.0
 40
1.0
 40
1.0
 10
86.994133087
 20
91.260447027
 30
0.0
 10
87.0712166429
 20
91.2158197209
 30
0.0
 10
87.1632047296
 20
91.1950482174
 30
0.0
 10
87.270029664
 20
91.1950482174
 30
0.0
  0
SPLINE
  5
751
100
AcDbEntity
  8
0
100
AcDbSpline
 62
7
  6
CONTINUOUS
 70
0
 71
3
 72
8
 73
4
 74
0
 42
0.0000001
 43
0.0000001
 44
0.0000000001
 40
0.0
 40
0.0
 40
0.0
 40
0.0
 40
1.0
 40
1.0
 40
1.0
 40
1.0
 10
86.8575667143
 20
91.4917844578
 30
0.0
 10
86.8575667143
 20
91.3908938214
 30
0.0
 10
86.902077198
 20
91.3137425228
 30
0.0
 10
86.994133087
 20
91.260447027
 30
0.0
  0
SPLINE
  5
752
100
AcDbEntity
  8
0
100
AcDbSpline
 62
7
  6
CONTINUOUS
 70
0
 71
3
 72
8
 73
4
 74
0
 42
0.0000001
 43
0.0000001
 44
0.0000000001
 40
0.0
 40
0.0
 40
0.0
 40
0.0
 40
1.0
 40
1.0
 40
1.0
 40
1.0
 10
87.1394658685
 20
91.7440098568
 30
0.0
 10
86.9821958542
 20
91.7440098568
 30
0.0
 10
86.8575667143
 20
91.6460870549
 30
0.0
 10
86.8575667143
 20
91.4917844578
 30
0.0
  0
SPLINE
  5
753
100
AcDbEntity
  8
0
100
AcDbSpline
 62
7
  6
CONTINUOUS
 70
0
 71
3
 72
8
 73
4
 74
0
 42
0.0000001
 43
0.0000001
 44
0.0000000001
 40
0.0
 40
0.0
 40
0.0
 40
0.0
 40
1.0
 40
1.0
 40
1.0
 40
1.0
 10
87.6557863355
 20
91.4888171002
 30
0.0
 10
87.6557863355
 20
91.6579564854
 30
0.0
 10
87.5548961461
 20
91.7440098568
 30
0.0
 10
87.3531157374
 20
91.7440098568
 30
0.0
  0
SPLINE
  5
754
100
AcDbEntity
  8
0
100
AcDbSpline
 62
7
  6
CONTINUOUS
 70
0
 71
3
 72
8
 73
4
 74
0
 42
0.0000001
 43
0.0000001
 44
0.0000000001
 40
0.0
 40
0.0
 40
0.0
 40
0.0
 40
1.0
 40
1.0
 40
1.0
 40
1.0
 10
86.516320467
 20
91.3968285366
 30
0.0
 10
86.516320467
 20
91.5778378292
 30
0.0
 10
86.5845696926
 20
91.7084015652
 30
0.0
 10
86.7210682631
 20
91.8003896519
 30
0.0
  0
SPLINE
  5
755
100
AcDbEntity
  8
0
100
AcDbSpline
 62
7
  6
CONTINUOUS
 70
0
 71
3
 72
8
 73
4
 74
0
 42
0.0000001
 43
0.0000001
 44
0.0000000001
 40
0.0
 40
0.0
 40
0.0
 40
0.0
 40
1.0
 40
1.0
 40
1.0
 40
1.0
 10
86.7543286137
 20
90.9080087505
 30
0.0
 10
86.5964391232
 20
91.0318435475
 30
0.0
 10
86.516320467
 20
91.1950482174
 30
0.0
 10
86.516320467
 20
91.3968285366
 30
0.0
  0
SPLINE
  5
756
100
AcDbEntity
  8
0
100
AcDbSpline
 62
7
  6
CONTINUOUS
 70
0
 71
3
 72
8
 73
4
 74
0
 42
0.0000001
 43
0.0000001
 44
0.0000000001
 40
0.0
 40
0.0
 40
0.0
 40
0.0
 40
1.0
 40
1.0
 40
1.0
 40
1.0
 10
87.2818990946
 20
90.7380751416
 30
0.0
 10
87.0741840005
 20
90.7380751416
 30
0.0
 10
86.8991098404
 20
90.7944549366
 30
0.0
 10
86.7543286137
 20
90.9080087505
 30
0.0
  0
SPLINE
  5
757
100
AcDbEntity
  8
0
100
AcDbSpline
 62
7
  6
CONTINUOUS
 70
0
 71
3
 72
8
 73
4
 74
0
 42
0.0000001
 43
0.0000001
 44
0.0000000001
 40
0.0
 40
0.0
 40
0.0
 40
0.0
 40
1.0
 40
1.0
 40
1.0
 40
1.0
 10
87.7740145756
 20
90.8959364186
 30
0.0
 10
87.6409495473
 20
90.791487579
 30
0.0
 10
87.4777448177
 20
90.7380751416
 30
0.0
 10
87.2818990946
 20
90.7380751416
 30
0.0
  0
SPLINE
  5
758
100
AcDbEntity
  8
0
100
AcDbSpline
 62
7
  6
CONTINUOUS
 70
0
 71
3
 72
8
 73
4
 74
0
 42
0.0000001
 43
0.0000001
 44
0.0000000001
 40
0.0
 40
0.0
 40
0.0
 40
0.0
 40
1.0
 40
1.0
 40
1.0
 40
1.0
 10
87.9881305639
 20
91.3523181721
 30
0.0
 10
87.9881305639
 20
91.1594399258
 30
0.0
 10
87.916913949
 20
91.0081046864
 30
0.0
 10
87.7740145756
 20
90.8959364186
 30
0.0
  0
SPLINE
  5
759
100
AcDbEntity
  8
0
100
AcDbSpline
 62
7
  6
CONTINUOUS
 70
0
 71
3
 72
8
 73
4
 74
0
 42
0.0000001
 43
0.0000001
 44
0.0000000001
 40
0.0
 40
0.0
 40
0.0
 40
0.0
 40
1.0
 40
1.0
 40
1.0
 40
1.0
 10
87.801186949
 20
91.7440098568
 30
0.0
 10
87.9258160219
 20
91.6520217701
 30
0.0
 10
87.9881305639
 20
91.5214580342
 30
0.0
 10
87.9881305639
 20
91.3523181721
 30
0.0
  0
SPLINE
  5
75A
100
AcDbEntity
  8
0
100
AcDbSpline
 62
7
  6
CONTINUOUS
 70
0
 71
3
 72
8
 73
4
 74
0
 42
0.0000001
 43
0.0000001
 44
0.0000000001
 40
0.0
 40
0.0
 40
0.0
 40
0.0
 40
1.0
 40
1.0
 40
1.0
 40
1.0
 10
88.2759643793
 20
91.3730896756
 30
0.0
 10
88.2759643793
 20
91.6253155514
 30
0.0
 10
88.1483679563
 20
91.7499445721
 30
0.0
 10
87.893175073
 20
91.7499445721
 30
0.0
  0
SPLINE
  5
75B
100
AcDbEntity
  8
0
100
AcDbSpline
 62
7
  6
CONTINUOUS
 70
0
 71
3
 72
8
 73
4
 74
0
 42
0.0000001
 43
0.0000001
 44
0.0000000001
 40
0.0
 40
0.0
 40
0.0
 40
0.0
 40
1.0
 40
1.0
 40
1.0
 40
1.0
 10
88.1661721021
 20
90.9517248913
 30
0.0
 10
88.2403560877
 20
91.0793212696
 30
0.0
 10
88.2759643793
 20
91.2187870785
 30
0.0
 10
88.2759643793
 20
91.3730896756
 30
0.0
  0
SPLINE
  5
75C
100
AcDbEntity
  8
0
100
AcDbSpline
 62
7
  6
CONTINUOUS
 70
0
 71
3
 72
8
 73
4
 74
0
 42
0.0000001
 43
0.0000001
 44
0.0000000001
 40
0.0
 40
0.0
 40
0.0
 40
0.0
 40
1.0
 40
1.0
 40
1.0
 40
1.0
 10
88.6201780438
 20
91.3849591061
 30
0.0
 10
88.6201780438
 20
91.1713093563
 30
0.0
 10
88.5845697522
 20
90.9962352559
 30
0.0
 10
88.5103857517
 20
90.8627041623
 30
0.0
  0
SPLINE
  5
75D
100
AcDbEntity
  8
0
100
AcDbSpline
 62
7
  6
CONTINUOUS
 70
0
 71
3
 72
8
 73
4
 74
0
 42
0.0000001
 43
0.0000001
 44
0.0000000001
 40
0.0
 40
0.0
 40
0.0
 40
0.0
 40
1.0
 40
1.0
 40
1.0
 40
1.0
 10
87.7893175036
 20
92.1950482174
 30
0.0
 10
88.3501483798
 20
92.1950482174
 30
0.0
 10
88.6201780438
 20
91.9428228184
 30
0.0
 10
88.6201780438
 20
91.3849591061
 30
0.0
  0
SPLINE
  5
75E
100
AcDbEntity
  8
0
100
AcDbSpline
 62
7
  6
CONTINUOUS
 70
0
 71
3
 72
8
 73
4
 74
0
 42
0.0000001
 43
0.0000001
 44
0.0000000001
 40
0.0
 40
0.0
 40
0.0
 40
0.0
 40
1.0
 40
1.0
 40
1.0
 40
1.0
 10
86.548961401
 20
92.206917648
 30
0.0
 10
86.6765578985
 20
92.1980155751
 30
0.0
 10
86.818991065
 20
92.1950482174
 30
0.0
 10
86.9821958542
 20
92.1950482174
 30
0.0
  0
SPLINE
  5
75F
100
AcDbEntity
  8
0
100
AcDbSpline
 62
7
  6
CONTINUOUS
 70
0
 71
3
 72
8
 73
4
 74
0
 42
0.0000001
 43
0.0000001
 44
0.0000000001
 40
0.0
 40
0.0
 40
0.0
 40
0.0
 40
1.0
 40
1.0
 40
1.0
 40
1.0
 10
87.1068249345
 20
90.1446031376
 30
0.0
 10
86.9406528473
 20
90.1446031376
 30
0.0
 10
86.8130563498
 20
90.0555824086
 30
0.0
 10
86.8130563498
 20
89.8923777386
 30
0.0
  0
SPLINE
  5
760
100
AcDbEntity
  8
0
100
AcDbSpline
 62
7
  6
CONTINUOUS
 70
0
 71
3
 72
8
 73
4
 74
0
 42
0.0000001
 43
0.0000001
 44
0.0000000001
 40
0.0
 40
0.0
 40
0.0
 40
0.0
 40
1.0
 40
1.0
 40
1.0
 40
1.0
 10
86.8130563498
 20
89.8923777386
 30
0.0
 10
86.8130563498
 20
89.7291730687
 30
0.0
 10
86.9406528473
 20
89.6312500283
 30
0.0
 10
87.1068249345
 20
89.6104785248
 30
0.0
  0
SPLINE
  5
761
100
AcDbEntity
  8
0
100
AcDbSpline
 62
7
  6
CONTINUOUS
 70
0
 71
3
 72
8
 73
4
 74
0
 42
0.0000001
 43
0.0000001
 44
0.0000000001
 40
0.0
 40
0.0
 40
0.0
 40
0.0
 40
1.0
 40
1.0
 40
1.0
 40
1.0
 10
86.5133531094
 20
89.9161165997
 30
0.0
 10
86.5133531094
 20
90.1238316342
 30
0.0
 10
86.5845696926
 20
90.2840691849
 30
0.0
 10
86.7236673053
 20
90.4002385684
 30
0.0
  0
SPLINE
  5
762
100
AcDbEntity
  8
0
100
AcDbSpline
 62
7
  6
CONTINUOUS
 70
0
 71
3
 72
8
 73
4
 74
0
 42
0.0000001
 43
0.0000001
 44
0.0000000001
 40
0.0
 40
0.0
 40
0.0
 40
0.0
 40
1.0
 40
1.0
 40
1.0
 40
1.0
 10
86.7352318372
 20
89.3842225589
 30
0.0
 10
86.5875370502
 20
89.5184904381
 30
0.0
 10
86.5133531094
 20
89.6965318962
 30
0.0
 10
86.5133531094
 20
89.9161165997
 30
0.0
  0
SPLINE
  5
763
100
AcDbEntity
  8
0
100
AcDbSpline
 62
7
  6
CONTINUOUS
 70
0
 71
3
 72
8
 73
4
 74
0
 42
0.0000001
 43
0.0000001
 44
0.0000000001
 40
0.0
 40
0.0
 40
0.0
 40
0.0
 40
1.0
 40
1.0
 40
1.0
 40
1.0
 10
87.2878338099
 20
89.1831787869
 30
0.0
 10
87.0652819276
 20
89.1831787869
 30
0.0
 10
86.8813056946
 20
89.2514282509
 30
0.0
 10
86.7352318372
 20
89.3842225589
 30
0.0
  0
SPLINE
  5
764
100
AcDbEntity
  8
0
100
AcDbSpline
 62
7
  6
CONTINUOUS
 70
0
 71
3
 72
8
 73
4
 74
0
 42
0.0000001
 43
0.0000001
 44
0.0000000001
 40
0.0
 40
0.0
 40
0.0
 40
0.0
 40
1.0
 40
1.0
 40
1.0
 40
1.0
 10
88.0296735913
 20
89.9576596066
 30
0.0
 10
88.0296735913
 20
89.4799147889
 30
0.0
 10
87.76261127
 20
89.1831787869
 30
0.0
 10
87.2878338099
 20
89.1831787869
 30
0.0
  0
SPLINE
  5
765
100
AcDbEntity
  8
0
100
AcDbSpline
 62
7
  6
CONTINUOUS
 70
0
 71
3
 72
8
 73
4
 74
0
 42
0.0000001
 43
0.0000001
 44
0.0000000001
 40
0.0
 40
0.0
 40
0.0
 40
0.0
 40
1.0
 40
1.0
 40
1.0
 40
1.0
 10
87.9376854599
 20
90.4828821465
 30
0.0
 10
88.0
 20
90.3374816224
 30
0.0
 10
88.0296735913
 20
90.1624072834
 30
0.0
 10
88.0296735913
 20
89.9576596066
 30
0.0
  0
SPLINE
  5
766
100
AcDbEntity
  8
0
100
AcDbSpline
 62
7
  6
CONTINUOUS
 70
0
 71
3
 72
8
 73
4
 74
0
 42
0.0000001
 43
0.0000001
 44
0.0000000001
 40
0.0
 40
0.0
 40
0.0
 40
0.0
 40
1.0
 40
1.0
 40
1.0
 40
1.0
 10
87.6943620145
 20
90.0229414746
 30
0.0
 10
87.6943620145
 20
90.1683419987
 30
0.0
 10
87.6735905111
 20
90.3018733307
 30
0.0
 10
87.6320474744
 20
90.4235349938
 30
0.0
  0
SPLINE
  5
767
100
AcDbEntity
  8
0
100
AcDbSpline
 62
7
  6
CONTINUOUS
 70
0
 71
3
 72
8
 73
4
 74
0
 42
0.0000001
 43
0.0000001
 44
0.0000000001
 40
0.0
 40
0.0
 40
0.0
 40
0.0
 40
1.0
 40
1.0
 40
1.0
 40
1.0
 10
87.6330122589
 20
89.7570223146
 30
0.0
 10
87.6735905111
 20
89.8300632283
 30
0.0
 10
87.6943620145
 20
89.9190839573
 30
0.0
 10
87.6943620145
 20
90.0229414746
 30
0.0
  0
SPLINE
  5
768
100
AcDbEntity
  8
0
100
AcDbSpline
 62
7
  6
CONTINUOUS
 70
0
 71
3
 72
8
 73
4
 74
0
 42
0.0000001
 43
0.0000001
 44
0.0000000001
 40
0.0
 40
0.0
 40
0.0
 40
0.0
 40
1.0
 40
1.0
 40
1.0
 40
1.0
 10
87.4154302478
 20
89.6134458825
 30
0.0
 10
87.5133531094
 20
89.6223479554
 30
0.0
 10
87.5845697224
 20
89.6698256775
 30
0.0
 10
87.6330122589
 20
89.7570223146
 30
0.0
  0
SPLINE
  5
769
100
AcDbEntity
  8
0
100
AcDbSpline
 62
7
  6
CONTINUOUS
 70
0
 71
3
 72
8
 73
4
 74
0
 42
0.0000001
 43
0.0000001
 44
0.0000000001
 40
0.0
 40
0.0
 40
0.0
 40
0.0
 40
1.0
 40
1.0
 40
1.0
 40
1.0
 10
87.23738873
 20
90.5630008026
 30
0.0
 10
87.2967358828
 20
90.5630008026
 30
0.0
 10
87.3560830951
 20
90.5570660874
 30
0.0
 10
87.4154302478
 20
90.5481640145
 30
0.0
  0
SPLINE
  5
76A
100
AcDbEntity
  8
0
100
AcDbSpline
 62
7
  6
CONTINUOUS
 70
0
 71
3
 72
8
 73
4
 74
0
 42
0.0000001
 43
0.0000001
 44
0.0000000001
 40
0.0
 40
0.0
 40
0.0
 40
0.0
 40
1.0
 40
1.0
 40
1.0
 40
1.0
 10
86.7236673053
 20
90.4002385684
 30
0.0
 10
86.8545993567
 20
90.5095883652
 30
0.0
 10
87.0267062187
 20
90.5630008026
 30
0.0
 10
87.23738873
 20
90.5630008026
 30
0.0
  0
SPLINE
  5
76B
100
AcDbEntity
  8
0
100
AcDbSpline
 62
7
  6
CONTINUOUS
 70
0
 71
3
 72
8
 73
4
 74
0
 42
0.0000001
 43
0.0000001
 44
0.0000000001
 40
0.0
 40
0.0
 40
0.0
 40
0.0
 40
1.0
 40
1.0
 40
1.0
 40
1.0
 10
86.2047477961
 20
88.4413391396
 30
0.0
 10
86.0296735764
 20
88.4413391396
 30
0.0
 10
85.8931751251
 20
88.5778375908
 30
0.0
 10
85.8931751251
 20
88.7529118105
 30
0.0
  0
SPLINE
  5
76C
100
AcDbEntity
  8
0
100
AcDbSpline
 62
7
  6
CONTINUOUS
 70
0
 71
3
 72
8
 73
4
 74
0
 42
0.0000001
 43
0.0000001
 44
0.0000000001
 40
0.0
 40
0.0
 40
0.0
 40
0.0
 40
1.0
 40
1.0
 40
1.0
 40
1.0
 10
87.089557174
 20
87.7022477484
 30
0.0
 10
87.1543026567
 20
87.859736745
 30
0.0
 10
87.2017804384
 20
87.9576596066
 30
0.0
 10
87.2343470141
 20
88.0022244052
 30
0.0
  0
SPLINE
  5
76D
100
AcDbEntity
  8
0
100
AcDbSpline
 62
7
  6
CONTINUOUS
 70
0
 71
3
 72
8
 73
4
 74
0
 42
0.0000001
 43
0.0000001
 44
0.0000000001
 40
0.0
 40
0.0
 40
0.0
 40
0.0
 40
1.0
 40
1.0
 40
1.0
 40
1.0
 10
86.9465875626
 20
87.5392620012
 30
0.0
 10
86.9970326424
 20
87.5392620012
 30
0.0
 10
87.0445103645
 20
87.5926744386
 30
0.0
 10
87.089557174
 20
87.7022477484
 30
0.0
  0
SPLINE
  5
76E
100
AcDbEntity
  8
0
100
AcDbSpline
 62
7
  6
CONTINUOUS
 70
0
 71
3
 72
8
 73
4
 74
0
 42
0.0000001
 43
0.0000001
 44
0.0000000001
 40
0.0
 40
0.0
 40
0.0
 40
0.0
 40
1.0
 40
1.0
 40
1.0
 40
1.0
 10
86.8308604956
 20
87.7113688036
 30
0.0
 10
86.8308604956
 20
87.5956417962
 30
0.0
 10
86.8694361448
 20
87.5392620012
 30
0.0
 10
86.9465875626
 20
87.5392620012
 30
0.0
  0
SPLINE
  5
76F
100
AcDbEntity
  8
0
100
AcDbSpline
 62
7
  6
CONTINUOUS
 70
0
 71
3
 72
8
 73
4
 74
0
 42
0.0000001
 43
0.0000001
 44
0.0000000001
 40
0.0
 40
0.0
 40
0.0
 40
0.0
 40
1.0
 40
1.0
 40
1.0
 40
1.0
 10
86.9109792709
 20
88.0259088322
 30
0.0
 10
86.8575667143
 20
87.9190839573
 30
0.0
 10
86.8308604956
 20
87.8152263805
 30
0.0
 10
86.8308604956
 20
87.7113688036
 30
0.0
  0
SPLINE
  5
770
100
AcDbEntity
  8
0
100
AcDbSpline
 62
7
  6
CONTINUOUS
 70
0
 71
3
 72
8
 73
4
 74
0
 42
0.0000001
 43
0.0000001
 44
0.0000000001
 40
0.0
 40
0.0
 40
0.0
 40
0.0
 40
1.0
 40
1.0
 40
1.0
 40
1.0
 10
86.516320467
 20
87.6965320155
 30
0.0
 10
86.516320467
 20
87.8538020297
 30
0.0
 10
86.5459940434
 20
87.9873331829
 30
0.0
 10
86.6023738384
 20
88.1030602499
 30
0.0
  0
SPLINE
  5
771
100
AcDbEntity
  8
0
100
AcDbSpline
 62
7
  6
CONTINUOUS
 70
0
 71
3
 72
8
 73
4
 74
0
 42
0.0000001
 43
0.0000001
 44
0.0000000001
 40
0.0
 40
0.0
 40
0.0
 40
0.0
 40
1.0
 40
1.0
 40
1.0
 40
1.0
 10
86.632496912
 20
87.2932909322
 30
0.0
 10
86.5548961163
 20
87.4027634605
 30
0.0
 10
86.516320467
 20
87.5392620012
 30
0.0
 10
86.516320467
 20
87.6965320155
 30
0.0
  0
SPLINE
  5
772
100
AcDbEntity
  8
0
100
AcDbSpline
 62
7
  6
CONTINUOUS
 70
0
 71
3
 72
8
 73
4
 74
0
 42
0.0000001
 43
0.0000001
 44
0.0000000001
 40
0.0
 40
0.0
 40
0.0
 40
0.0
 40
1.0
 40
1.0
 40
1.0
 40
1.0
 10
86.9940652847
 20
87.106027548
 30
0.0
 10
86.8427299261
 20
87.106027548
 30
0.0
 10
86.7210682631
 20
87.1683420881
 30
0.0
 10
86.632496912
 20
87.2932909322
 30
0.0
  0
SPLINE
  5
773
100
AcDbEntity
  8
0
100
AcDbSpline
 62
7
  6
CONTINUOUS
 70
0
 71
3
 72
8
 73
4
 74
0
 42
0.0000001
 43
0.0000001
 44
0.0000000001
 40
0.0
 40
0.0
 40
0.0
 40
0.0
 40
1.0
 40
1.0
 40
1.0
 40
1.0
 10
87.3035441505
 20
87.2686145302
 30
0.0
 10
87.2284866571
 20
87.1594400152
 30
0.0
 10
87.1246290803
 20
87.106027548
 30
0.0
 10
86.9940652847
 20
87.106027548
 30
0.0
  0
SPLINE
  5
774
100
AcDbEntity
  8
0
100
AcDbSpline
 62
7
  6
CONTINUOUS
 70
0
 71
3
 72
8
 73
4
 74
0
 42
0.0000001
 43
0.0000001
 44
0.0000000001
 40
0.0
 40
0.0
 40
0.0
 40
0.0
 40
1.0
 40
1.0
 40
1.0
 40
1.0
 10
87.4437981212
 20
87.5694740255
 30
0.0
 10
87.3738872409
 20
87.4027634605
 30
0.0
 10
87.3264095187
 20
87.3018732413
 30
0.0
 10
87.3035441505
 20
87.2686145302
 30
0.0
  0
SPLINE
  5
775
100
AcDbEntity
  8
0
100
AcDbSpline
 62
7
  6
CONTINUOUS
 70
0
 71
3
 72
8
 73
4
 74
0
 42
0.0000001
 43
0.0000001
 44
0.0000000001
 40
0.0
 40
0.0
 40
0.0
 40
0.0
 40
1.0
 40
1.0
 40
1.0
 40
1.0
 10
87.5964391828
 20
87.7321403071
 30
0.0
 10
87.5400593579
 20
87.7321403071
 30
0.0
 10
87.4896142483
 20
87.6787278696
 30
0.0
 10
87.4437981212
 20
87.5694740255
 30
0.0
  0
SPLINE
  5
776
100
AcDbEntity
  8
0
100
AcDbSpline
 62
7
  6
CONTINUOUS
 70
0
 71
3
 72
8
 73
4
 74
0
 42
0.0000001
 43
0.0000001
 44
0.0000000001
 40
0.0
 40
0.0
 40
0.0
 40
0.0
 40
1.0
 40
1.0
 40
1.0
 40
1.0
 10
87.715133518
 20
87.5392620012
 30
0.0
 10
87.715133518
 20
87.6668584391
 30
0.0
 10
87.6765578687
 20
87.7321403071
 30
0.0
 10
87.5964391828
 20
87.7321403071
 30
0.0
  0
SPLINE
  5
777
100
AcDbEntity
  8
0
100
AcDbSpline
 62
7
  6
CONTINUOUS
 70
0
 71
3
 72
8
 73
4
 74
0
 42
0.0000001
 43
0.0000001
 44
0.0000000001
 40
0.0
 40
0.0
 40
0.0
 40
0.0
 40
1.0
 40
1.0
 40
1.0
 40
1.0
 10
87.6083086133
 20
87.1505379423
 30
0.0
 10
87.6795252264
 20
87.2662649497
 30
0.0
 10
87.715133518
 20
87.3968287453
 30
0.0
 10
87.715133518
 20
87.5392620012
 30
0.0
  0
SPLINE
  5
778
100
AcDbEntity
  8
0
100
AcDbSpline
 62
7
  6
CONTINUOUS
 70
0
 71
3
 72
8
 73
4
 74
0
 42
0.0000001
 43
0.0000001
 44
0.0000000001
 40
0.0
 40
0.0
 40
0.0
 40
0.0
 40
1.0
 40
1.0
 40
1.0
 40
1.0
 10
88.0326409489
 20
87.5392620012
 30
0.0
 10
88.0326409489
 20
87.3552857086
 30
0.0
 10
87.997032641
 20
87.1980156794
 30
0.0
 10
87.9287833795
 20
87.0704192414
 30
0.0
  0
SPLINE
  5
779
100
AcDbEntity
  8
0
100
AcDbSpline
 62
7
  6
CONTINUOUS
 70
0
 71
3
 72
8
 73
4
 74
0
 42
0.0000001
 43
0.0000001
 44
0.0000000001
 40
0.0
 40
0.0
 40
0.0
 40
0.0
 40
1.0
 40
1.0
 40
1.0
 40
1.0
 10
87.9297351166
 20
87.9671373541
 30
0.0
 10
87.997032641
 20
87.8567693874
 30
0.0
 10
88.0326409489
 20
87.7143361613
 30
0.0
 10
88.0326409489
 20
87.5392620012
 30
0.0
  0
SPLINE
  5
77A
100
AcDbEntity
  8
0
100
AcDbSpline
 62
7
  6
CONTINUOUS
 70
0
 71
3
 72
8
 73
4
 74
0
 42
0.0000001
 43
0.0000001
 44
0.0000000001
 40
0.0
 40
0.0
 40
0.0
 40
0.0
 40
1.0
 40
1.0
 40
1.0
 40
1.0
 10
87.5608308613
 20
88.1653747603
 30
0.0
 10
87.7240356207
 20
88.1653747603
 30
0.0
 10
87.8486646861
 20
88.1000928923
 30
0.0
 10
87.9297351166
 20
87.9671373541
 30
0.0
  0
SPLINE
  5
77B
100
AcDbEntity
  8
0
100
AcDbSpline
 62
7
  6
CONTINUOUS
 70
0
 71
3
 72
8
 73
4
 74
0
 42
0.0000001
 43
0.0000001
 44
0.0000000001
 40
0.0
 40
0.0
 40
0.0
 40
0.0
 40
1.0
 40
1.0
 40
1.0
 40
1.0
 10
87.2343470141
 20
88.0022244052
 30
0.0
 10
87.3145400882
 20
88.1119623228
 30
0.0
 10
87.4243323207
 20
88.1653747603
 30
0.0
 10
87.5608308613
 20
88.1653747603
 30
0.0
  0
LINE
  5
77C
100
AcDbEntity
  8
RUNDUNGEN
100
AcDbLine
 62
7
  6
CONTINUOUS
 10
135.8418823434
 20
123.2283250538
 11
135.8380093231
 21
123.3085632135
  0
LINE
  5
77D
100
AcDbEntity
  8
RUNDUNGEN
100
AcDbLine
 62
7
  6
CONTINUOUS
 10
135.8380093231
 20
123.3085632135
 11
135.8342087125
 21
123.3890201717
  0
LINE
  5
77E
100
AcDbEntity
  8
RUNDUNGEN
100
AcDbLine
 62
7
  6
CONTINUOUS
 10
135.8342087125
 20
123.3890201717
 11
135.8304978879
 21
123.4699887845
  0
LINE
  5
77F
100
AcDbEntity
  8
RUNDUNGEN
100
AcDbLine
 62
7
  6
CONTINUOUS
 10
135.8304978879
 20
123.4699887845
 11
135.8268396048
 21
123.5508506234
  0
LINE
  5
780
100
AcDbEntity
  8
RUNDUNGEN
100
AcDbLine
 62
7
  6
CONTINUOUS
 10
135.8418823434
 20
71.544560367
 11
135.8380091431
 21
71.464318363
  0
LINE
  5
781
100
AcDbEntity
  8
RUNDUNGEN
100
AcDbLine
 62
7
  6
CONTINUOUS
 10
135.8380091431
 20
71.464318363
 11
135.8342083531
 21
71.3838575951
  0
LINE
  5
782
100
AcDbEntity
  8
RUNDUNGEN
100
AcDbLine
 62
7
  6
CONTINUOUS
 10
135.8342083531
 20
71.3838575951
 11
135.8304973435
 21
71.3028853113
  0
LINE
  5
783
100
AcDbEntity
  8
RUNDUNGEN
100
AcDbLine
 62
7
  6
CONTINUOUS
 10
135.8304973435
 20
71.3028853113
 11
135.8268388843
 21
71.2220197038
  0
LINE
  5
784
100
AcDbEntity
  8
RUNDUNGEN
100
AcDbLine
 62
7
  6
CONTINUOUS
 10
84.1581176566
 20
71.544560367
 11
84.1619906736
 21
71.4643222772
  0
LINE
  5
785
100
AcDbEntity
  8
RUNDUNGEN
100
AcDbLine
 62
7
  6
CONTINUOUS
 10
84.1619906736
 20
71.4643222772
 11
84.165791281
 21
71.383865388
  0
LINE
  5
786
100
AcDbEntity
  8
RUNDUNGEN
100
AcDbLine
 62
7
  6
CONTINUOUS
 10
84.165791281
 20
71.383865388
 11
84.1695021023
 21
71.3028968416
  0
LINE
  5
787
100
AcDbEntity
  8
RUNDUNGEN
100
AcDbLine
 62
7
  6
CONTINUOUS
 10
84.1695021023
 20
71.3028968416
 11
84.1731603823
 21
71.2220350701
  0
LINE
  5
788
100
AcDbEntity
  8
RUNDUNGEN
100
AcDbLine
 62
7
  6
CONTINUOUS
 10
84.1581176566
 20
123.2283250538
 11
84.1619908533
 21
123.3085669801
  0
LINE
  5
789
100
AcDbEntity
  8
RUNDUNGEN
100
AcDbLine
 62
7
  6
CONTINUOUS
 10
84.1619908533
 20
123.3085669801
 11
84.1657916397
 21
123.3890276713
  0
LINE
  5
78A
100
AcDbEntity
  8
RUNDUNGEN
100
AcDbLine
 62
7
  6
CONTINUOUS
 10
84.1657916397
 20
123.3890276713
 11
84.1695026455
 21
123.4699998813
  0
LINE
  5
78B
100
AcDbEntity
  8
RUNDUNGEN
100
AcDbLine
 62
7
  6
CONTINUOUS
 10
84.1695026455
 20
123.4699998813
 11
84.1731611013
 21
123.5508654138
  0
SPLINE
  5
78C
100
AcDbEntity
  8
RUNDUNGEN
100
AcDbSpline
 62
7
  6
CONTINUOUS
 70
0
 71
3
 72
15
 73
11
 74
0
 42
0.0000001
 43
0.0000001
 44
0.0000000001
 40
0.0
 40
0.0
 40
0.0
 40
0.0
 40
0.2301736614
 40
0.4532803465
 40
0.5714530552
 40
0.6980829226
 40
0.7664665355
 40
0.8403995501
 40
0.9203647334
 40
1.0
 40
1.0
 40
1.0
 40
1.0
 10
112.7870588208
 20
129.3405033084
 30
0.0
 10
112.9694826846
 20
129.584921475
 30
0.0
 10
113.2311381942
 20
130.1522777309
 30
0.0
 10
113.2075334453
 20
130.9339627856
 30
0.0
 10
113.0027378695
 20
131.5223935467
 30
0.0
 10
112.7961494398
 20
131.8847710437
 30
0.0
 10
112.5882469556
 20
132.1742840291
 30
0.0
 10
112.4078329039
 20
132.407086258
 30
0.0
 10
112.2343147512
 20
132.6639961816
 30
0.0
 10
112.1406679325
 20
132.8545268752
 30
0.0
 10
112.1003256137
 20
132.9520306022
 30
0.0
  0
ENDSEC
  0
SECTION
  2
OBJECTS
  0
DICTIONARY
  5
C
100
AcDbDictionary
280
0
281
1
  3
ACAD_GROUP
350
D
  3
ACAD_MLINESTYLE
350
17
  3
ACAD_LAYOUT
350
1A
  3
ACAD_PLOTSETTINGS
350
19
  3
ACAD_PLOTSTYLENAME
350
E
  0
DICTIONARY
  5
D
102
{ACAD_REACTORS
330
C
102
}
100
AcDbDictionary
280
0
281
1
  0
ACDBDICTIONARYWDFLT
  5
E
102
{ACAD_REACTORS
330
C
102
}
100
AcDbDictionary
281
1
  3
Normal
350
F
100
AcDbDictionaryWithDefault
340
F
  0
DICTIONARY
  5
17
102
{ACAD_REACTORS
330
C
102
}
100
AcDbDictionary
280
0
281
1
  3
Standard
350
18
  0
DICTIONARY
  5
19
102
{ACAD_REACTORS
330
C
102
}
100
AcDbDictionary
281
1
  0
DICTIONARY
  5
1A
102
{ACAD_REACTORS
330
C
102
}
100
AcDbDictionary
281
1
  3
Model
350
78D
  3
Layout1
350
78E
  0
ACDBPLACEHOLDER
  5
F
102
{ACAD_REACTORS
330
E
102
}
  0
MLINESTYLE
  5
18
102
{ACAD_REACTORS
330
17
102
}
100
AcDbMlineStyle
  2
STANDARD
 70
0
  3

 62
256
 51
90.0
 52
90.0
 71
2
 49
0.5
 62
256
  6
BYLAYER
 49
-0.5
 62
256
  6
BYLAYER
  0
LAYOUT
  5
78D
102
{ACAD_REACTORS
330
1A
102
}
100
AcDbPlotSettings
  1

  2
none_device
  4
ISO_A4_(297.00_x_210.00_MM)
  6

 40
0.0
 41
0.0
 42
0.0
 43
0.0
 44
297.0
 45
210.0
 46
0.0
 47
0.0
 48
0.0
 49
0.0
140
0.0
141
0.0
142
1.0
143
1.0
 70
1024
 72
1
 73
0
 74
0
  7

 75
0
147
1.0
148
0.0
149
0.0
100
AcDbLayout
  1
Model
 70
0
 71
0
 10
0.0
 20
0.0
 11
297.0
 21
210.0
 12
0.0
 22
0.0
 32
0.0
 14
0.0
 24
0.0
 34
0.0
 15
0.0
 25
0.0
 35
0.0
146
0.0
 13
0.0
 23
0.0
 33
0.0
 16
1.0
 26
0.0
 36
0.0
 17
0.0
 27
1.0
 37
0.0
 76
0
330
212
345
0
346
0
  0
LAYOUT
  5
78E
102
{ACAD_REACTORS
330
1A
102
}
100
AcDbPlotSettings
  1

  2
none_device
  4
ISO_A4_(297.00_x_210.00_MM)
  6

 40
0.0
 41
0.0
 42
0.0
 43
0.0
 44
297.0
 45
210.0
 46
0.0
 47
0.0
 48
0.0
 49
0.0
140
0.0
141
0.0
142
1.0
143
1.0
 70
0
 72
1
 73
0
 74
0
  7

 75
0
147
1.0
148
0.0
149
0.0
100
AcDbLayout
  1
Layout1
 70
0
 71
1
 10
0.0
 20
0.0
 11
297.0
 21
210.0
 12
0.0
 22
0.0
 32
0.0
 14
0.0
 24
0.0
 34
0.0
 15
0.0
 25
0.0
 35
0.0
146
0.0
 13
0.0
 23
0.0
 33
0.0
 16
1.0
 26
0.0
 36
0.0
 17
0.0
 27
1.0
 37
0.0
 76
0
330
213
345
0
346
0
  0
ENDSEC
  0
EOF
