999
DXF file: vorlage_xmx-tv-s10.dxf
999
Pro/ENGINEER 2008490 by Parametric Technology Corporation
  0
SECTION
  2
HEADER
  9
$ACADVER
  1
AC1021
  9
$DWGCODEPAGE
  3
ANSI_1252
  9
$EXTMAX
 10
297.0
 20
210.0
 30
0.0
  9
$EXTMIN
 10
0.0
 20
0.0
 30
0.0
  9
$LIMMIN
 10
0.0
 20
0.0
  9
$LIMMAX
 10
297.0
 20
210.0
  9
$VIEWCTR
 10
148.5
 20
105.0
  9
$VIEWSIZE
 40
210.0
  9
$CLAYER
  8
0
  9
$LTSCALE
 40
16.335
  9
$CELTYPE
  6
BYLAYER
  9
$DIMSCALE
 40
1.0
  9
$DIMASZ
 40
3.5
  9
$DIMEXO
 40
1.85625
  9
$DIMDLI
 40
11.286
  9
$DIMEXE
 40
5.346
  9
$DIMCEN
 40
2.673
  9
$DIMLFAC
 40
1.0
  9
$DIMBLK
  1
_FILLED
  9
$DIMTXT
 40
3.5
  9
$DIMTOL
 70
1
  9
$DIMLIM
 70
0
  9
$DIMTFAC
 40
1.0
  9
$DIMTP
 40
0.005
  9
$DIMTM
 40
0.005
  9
$PDMODE
 70
3
  9
$PDSIZE
 40
0.3125
  9
$HANDSEED
  5
524
  9
$TILEMODE
 70
1
  9
$MEASUREMENT
 70
1
  9
$INSUNITS
 70
4
  0
ENDSEC
  0
SECTION
  2
CLASSES
  0
CLASS
  1
ACDBDICTIONARYWDFLT
  2
AcDbDictionaryWithDefault
  3
AutoCAD 2000
 90
0
 91
1
280
0
281
0
  0
CLASS
  1
ACDBPLACEHOLDER
  2
AcDbPlaceHolder
  3
AutoCAD 2000
 90
0
 91
1
280
0
281
0
  0
CLASS
  1
LAYOUT
  2
AcDbLayout
  3
AutoCAD 2000
 90
0
 91
0
280
0
281
0
  0
ENDSEC
  0
SECTION
  2
TABLES
  0
TABLE
  2
VPORT
  5
8
100
AcDbSymbolTable
 70
2
  0
VPORT
  5
1F4
100
AcDbSymbolTableRecord
100
AcDbViewportTableRecord
  2
*ACTIVE
 70
0
 10
0.0
 20
0.0
 11
1.0
 21
1.0
 12
148.5
 22
105.0
 13
0.0
 23
0.0
 14
1.0
 24
1.0
 15
0.0
 25
0.0
 16
0.0
 26
0.0
 36
1.0
 17
0.0
 27
0.0
 37
0.0
 40
210.0
 41
1.4142857143
 42
50.0
 43
0.0
 44
0.0
 50
0.0
 51
0.0
 71
0
 72
100
 73
1
 74
1
 75
0
 76
0
 77
0
 78
0
  0
ENDTAB
  0
TABLE
  2
LTYPE
  5
5
100
AcDbSymbolTable
 70
6
  0
LTYPE
  5
14
100
AcDbSymbolTableRecord
100
AcDbLinetypeTableRecord
  2
BYBLOCK
 70
0
  3

 72
65
 73
0
 40
0.0
  0
LTYPE
  5
15
100
AcDbSymbolTableRecord
100
AcDbLinetypeTableRecord
  2
BYLAYER
 70
0
  3

 72
65
 73
0
 40
0.0
  0
LTYPE
  5
16
100
AcDbSymbolTableRecord
100
AcDbLinetypeTableRecord
  2
CONTINUOUS
 70
64
  3
Solid line
 72
65
 73
0
 40
0.0
  0
LTYPE
  5
1F5
100
AcDbSymbolTableRecord
100
AcDbLinetypeTableRecord
  2
CENTER
 70
64
  3
____ _ ____ _ ____ _ ____ _ ____ _ ____ _ ____
 72
65
 73
4
 40
0.6
 49
0.375
 74
0
 49
-0.075
 74
0
 49
0.075
 74
0
 49
-0.075
 74
0
  0
LTYPE
  5
1F6
100
AcDbSymbolTableRecord
100
AcDbLinetypeTableRecord
  2
HIDDEN
 70
64
  3
- - - - - - - - - - - - - - - - - - - -
 72
65
 73
2
 40
0.2
 49
0.1
 74
0
 49
-0.1
 74
0
  0
LTYPE
  5
1F7
100
AcDbSymbolTableRecord
100
AcDbLinetypeTableRecord
  2
PHANTOM
 70
64
  3
_____ _ _ _____ _ _ _____ _ _ _____
 72
65
 73
6
 40
0.8
 49
0.45
 74
0
 49
-0.05
 74
0
 49
0.1
 74
0
 49
-0.05
 74
0
 49
0.1
 74
0
 49
-0.05
 74
0
  0
LTYPE
  5
1F8
100
AcDbSymbolTableRecord
100
AcDbLinetypeTableRecord
  2
DOT
 70
64
  3
. . . . . . . . . . . . . . . . . . . .
 72
65
 73
2
 40
0.2
 49
0.1
 74
0
 49
-0.1
 74
0
  0
LTYPE
  5
1F9
100
AcDbSymbolTableRecord
100
AcDbLinetypeTableRecord
  2
DASHED
 70
64
  3
- - - - - - - - - - - - - - - - - - - -
 72
65
 73
2
 40
0.2
 49
0.1
 74
0
 49
-0.1
 74
0
  0
ENDTAB
  0
TABLE
  2
LAYER
  5
2
100
AcDbSymbolTable
 70
36
  0
LAYER
  5
10
100
AcDbSymbolTableRecord
100
AcDbLayerTableRecord
  2
0
 70
0
 62
7
  6
CONTINUOUS
370
-3
390
F
  0
LAYER
  5
1FA
100
AcDbSymbolTableRecord
100
AcDbLayerTableRecord
  2
DEFAULT_1
 70
0
 62
7
  6
CENTER
370
-3
390
F
  0
LAYER
  5
1FB
100
AcDbSymbolTableRecord
100
AcDbLayerTableRecord
  2
DEFAULT_2
 70
0
 62
8
  6
HIDDEN
370
-3
390
F
  0
LAYER
  5
1FC
100
AcDbSymbolTableRecord
100
AcDbLayerTableRecord
  2
DEFAULT_3
 70
0
 62
7
  6
PHANTOM
370
-3
390
F
  0
LAYER
  5
1FD
100
AcDbSymbolTableRecord
100
AcDbLayerTableRecord
  2
01___PRT_ALL_DTM_PLN
 70
0
 62
7
  6
CONTINUOUS
370
-3
390
F
  0
LAYER
  5
1FE
100
AcDbSymbolTableRecord
100
AcDbLayerTableRecord
  2
01___PRT_DEF_DTM_PLN
 70
0
 62
7
  6
CONTINUOUS
370
-3
390
F
  0
LAYER
  5
1FF
100
AcDbSymbolTableRecord
100
AcDbLayerTableRecord
  2
02___PRT_ALL_AXES
 70
0
 62
7
  6
CONTINUOUS
370
-3
390
F
  0
LAYER
  5
200
100
AcDbSymbolTableRecord
100
AcDbLayerTableRecord
  2
03___PRT_ALL_CURVES
 70
0
 62
7
  6
CONTINUOUS
370
-3
390
F
  0
LAYER
  5
201
100
AcDbSymbolTableRecord
100
AcDbLayerTableRecord
  2
04___PRT_ALL_DTM_PNT
 70
0
 62
7
  6
CONTINUOUS
370
-3
390
F
  0
LAYER
  5
202
100
AcDbSymbolTableRecord
100
AcDbLayerTableRecord
  2
05___PRT_ALL_DTM_CSYS
 70
0
 62
7
  6
CONTINUOUS
370
-3
390
F
  0
LAYER
  5
203
100
AcDbSymbolTableRecord
100
AcDbLayerTableRecord
  2
05___PRT_DEF_DTM_CSYS
 70
0
 62
7
  6
CONTINUOUS
370
-3
390
F
  0
LAYER
  5
204
100
AcDbSymbolTableRecord
100
AcDbLayerTableRecord
  2
06___PRT_ALL_SURFS
 70
0
 62
7
  6
CONTINUOUS
370
-3
390
F
  0
LAYER
  5
205
100
AcDbSymbolTableRecord
100
AcDbLayerTableRecord
  2
ALLE
 70
0
 62
7
  6
CONTINUOUS
370
-3
390
F
  0
LAYER
  5
206
100
AcDbSymbolTableRecord
100
AcDbLayerTableRecord
  2
AUSFORMSCHRAEGEN
 70
0
 62
7
  6
CONTINUOUS
370
-3
390
F
  0
LAYER
  5
207
100
AcDbSymbolTableRecord
100
AcDbLayerTableRecord
  2
BEZUGSACHSEN
 70
0
 62
7
  6
CONTINUOUS
370
-3
390
F
  0
LAYER
  5
208
100
AcDbSymbolTableRecord
100
AcDbLayerTableRecord
  2
BEZUGSEBENE
 70
0
 62
7
  6
CONTINUOUS
370
-3
390
F
  0
LAYER
  5
209
100
AcDbSymbolTableRecord
100
AcDbLayerTableRecord
  2
BEZUGSEBENEN
 70
0
 62
7
  6
CONTINUOUS
370
-3
390
F
  0
LAYER
  5
20A
100
AcDbSymbolTableRecord
100
AcDbLayerTableRecord
  2
BEZUGSEBENEN-KES
 70
0
 62
7
  6
CONTINUOUS
370
-3
390
F
  0
LAYER
  5
20B
100
AcDbSymbolTableRecord
100
AcDbLayerTableRecord
  2
BOHRUNGEN
 70
0
 62
7
  6
CONTINUOUS
370
-3
390
F
  0
LAYER
  5
20C
100
AcDbSymbolTableRecord
100
AcDbLayerTableRecord
  2
FLAECHEN
 70
0
 62
7
  6
CONTINUOUS
370
-3
390
F
  0
LAYER
  5
20D
100
AcDbSymbolTableRecord
100
AcDbLayerTableRecord
  2
GEOMETRISCHE_TOLERANZEN
 70
0
 62
7
  6
CONTINUOUS
370
-3
390
F
  0
LAYER
  5
20E
100
AcDbSymbolTableRecord
100
AcDbLayerTableRecord
  2
GESTEUERTE
 70
0
 62
7
  6
CONTINUOUS
370
-3
390
F
  0
LAYER
  5
20F
100
AcDbSymbolTableRecord
100
AcDbLayerTableRecord
  2
KURVEN
 70
0
 62
7
  6
CONTINUOUS
370
-3
390
F
  0
LAYER
  5
210
100
AcDbSymbolTableRecord
100
AcDbLayerTableRecord
  2
RUNDUNGEN
 70
0
 62
7
  6
CONTINUOUS
370
-3
390
F
  0
LAYER
  5
211
100
AcDbSymbolTableRecord
100
AcDbLayerTableRecord
  2
SAMMELFLÄCHEN
 70
0
 62
7
  6
CONTINUOUS
370
-3
390
F
  0
LAYER
  5
212
100
AcDbSymbolTableRecord
100
AcDbLayerTableRecord
  2
ZEICHNUNGSBEMASSUNGEN
 70
0
 62
7
  6
CONTINUOUS
370
-3
390
F
  0
LAYER
  5
213
100
AcDbSymbolTableRecord
100
AcDbLayerTableRecord
  2
ZEICHNUNGSNOTIZEN
 70
0
 62
7
  6
CONTINUOUS
370
-3
390
F
  0
ENDTAB
  0
TABLE
  2
STYLE
  5
3
100
AcDbSymbolTable
 70
1
  0
STYLE
  5
11
100
AcDbSymbolTableRecord
100
AcDbTextStyleTableRecord
  2
STANDARD
 70
0
 40
0.0
 41
0.7
 50
0.0
 71
0
 42
0.2
  3
txt
  4

  0
STYLE
  5
214
100
AcDbSymbolTableRecord
100
AcDbTextStyleTableRecord
  2
TEXTSTYLE_1
 70
0
 40
0.0
 41
0.8
 50
0.0
 71
0
 42
0.2
  3
gdt
  4

  0
ENDTAB
  0
TABLE
  2
VIEW
  5
6
100
AcDbSymbolTable
 70
0
  0
ENDTAB
  0
TABLE
  2
UCS
  5
7
100
AcDbSymbolTable
 70
0
  0
ENDTAB
  0
TABLE
  2
APPID
  5
9
100
AcDbSymbolTable
 70
1
  0
APPID
  5
215
100
AcDbSymbolTableRecord
100
AcDbRegAppTableRecord
  2
ACAD
 70
0
  0
ENDTAB
  0
TABLE
  2
BLOCK_RECORD
  5
1
100
AcDbSymbolTable
 70
0
  0
BLOCK_RECORD
  5
216
100
AcDbSymbolTableRecord
100
AcDbBlockTableRecord
  2
*Model_Space
  0
BLOCK_RECORD
  5
217
100
AcDbSymbolTableRecord
100
AcDbBlockTableRecord
  2
*Paper_Space
  0
ENDTAB
  0
TABLE
  2
DIMSTYLE
  5
A
100
AcDbSymbolTable
 70
1
100
AcDbDimStyleTable
 71
0
  0
DIMSTYLE
105
218
100
AcDbSymbolTableRecord
100
AcDbDimStyleTableRecord
  2
STANDARD
 70
0
  3

  4

 40
1.0
 41
3.5
 42
0.0625
 43
0.38
 44
0.18
 45
0.0
 46
0.0
 47
0.005
 48
0.005
140
3.5
141
0.09
142
0.0
143
25.4
144
1.0
145
0.0
146
1.0
147
0.09
 71
1.0
 72
0.0
 73
0
 74
0
 75
0
 76
0
 77
1
 78
8
170
0
171
2
172
0
173
0
174
0
175
0
176
0
177
0
178
5
270
2
271
3
272
3
273
2
274
2
275
0
280
0
281
0
282
0
283
1
284
8
285
0
286
0
287
3
288
0
340
11
  0
ENDTAB
  0
ENDSEC
  0
SECTION
  2
BLOCKS
  0
BLOCK
  5
20
100
AcDbEntity
  8
0
100
AcDbBlockBegin
  2
*Model_Space
 70
0
 10
0.0
 20
0.0
 30
0.0
  3
*Model_Space
  1

  0
ENDBLK
  5
21
100
AcDbEntity
  8
0
100
AcDbBlockEnd
  0
BLOCK
  5
1C
100
AcDbEntity
  8
0
100
AcDbBlockBegin
  2
*Paper_Space
 70
0
 10
0.0
 20
0.0
 30
0.0
  3
*Paper_Space
  1

  0
ENDBLK
  5
1D
100
AcDbEntity
  8
0
100
AcDbBlockEnd
  0
ENDSEC
  0
SECTION
  2
ENTITIES
  0
LINE
  5
219
100
AcDbEntity
  8
0
100
AcDbLine
 62
7
  6
CONTINUOUS
 10
0.0
 20
0.0
 11
0.0
 21
210.0
  0
LINE
  5
21A
100
AcDbEntity
  8
0
100
AcDbLine
 62
7
  6
CONTINUOUS
 10
0.0
 20
0.0
 11
297.0
 21
0.0
  0
LINE
  5
21B
100
AcDbEntity
  8
0
100
AcDbLine
 62
7
  6
CONTINUOUS
 10
0.0
 20
210.0
 11
297.0
 21
210.0
  0
LINE
  5
21C
100
AcDbEntity
  8
0
100
AcDbLine
 62
7
  6
CONTINUOUS
 10
297.0
 20
0.0
 11
297.0
 21
210.0
  0
LINE
  5
21D
100
AcDbEntity
  8
RUNDUNGEN
100
AcDbLine
 62
7
  6
CONTINUOUS
 10
89.0184655471
 20
72.9238949327
 11
89.0192760126
 21
72.6902618226
  0
LINE
  5
21E
100
AcDbEntity
  8
RUNDUNGEN
100
AcDbLine
 62
7
  6
CONTINUOUS
 10
88.9005684126
 20
95.3385686555
 11
88.9005684126
 21
78.2647762701
  0
LINE
  5
21F
100
AcDbEntity
  8
RUNDUNGEN
100
AcDbLine
 62
7
  6
CONTINUOUS
 10
89.0184655471
 20
72.9238949327
 11
89.0184490711
 21
74.7550450435
  0
LINE
  5
220
100
AcDbEntity
  8
RUNDUNGEN
100
AcDbLine
 62
7
  6
CONTINUOUS
 10
90.3479148026
 20
90.6173073652
 11
90.3479148026
 21
93.3173073652
  0
LINE
  5
221
100
AcDbEntity
  8
RUNDUNGEN
100
AcDbLine
 62
7
  6
CONTINUOUS
 10
90.3479448026
 20
80.1073073652
 11
90.3479448026
 21
82.8073073652
  0
LINE
  5
222
100
AcDbEntity
  8
RUNDUNGEN
100
AcDbLine
 62
7
  6
CONTINUOUS
 10
92.9606146297
 20
93.3173073652
 11
92.9606146297
 21
90.6173073652
  0
LINE
  5
223
100
AcDbEntity
  8
RUNDUNGEN
100
AcDbLine
 62
7
  6
CONTINUOUS
 10
92.9606446297
 20
82.8073073652
 11
92.9606446297
 21
80.1073073652
  0
LWPOLYLINE
  5
224
100
AcDbEntity
  8
0
100
AcDbPolyline
 62
7
  6
CONTINUOUS
 90
12
 70
0
 10
90.9399562016
 20
69.6869358384
 10
90.9633972813
 20
69.6713949997
 10
90.9876751379
 20
69.6571967575
 10
91.0127129654
 20
69.644386039
 10
91.0384315343
 20
69.6330033905
 10
91.0647494579
 20
69.6230848382
 10
91.0915834743
 20
69.6146617661
 10
91.1188486842
 20
69.6077608294
 10
91.1464588188
 20
69.6024038689
 10
91.1743265184
 20
69.59860784
 10
91.2023636079
 20
69.596384759
 10
91.2278506747
 20
69.5957347448
  0
LINE
  5
225
100
AcDbEntity
  8
RUNDUNGEN
100
AcDbLine
 62
7
  6
CONTINUOUS
 10
94.3479148026
 20
90.6173073652
 11
94.3479148026
 21
93.3173073652
  0
LINE
  5
226
100
AcDbEntity
  8
RUNDUNGEN
100
AcDbLine
 62
7
  6
CONTINUOUS
 10
94.3479448026
 20
80.1073073652
 11
94.3479448026
 21
82.8073073652
  0
LINE
  5
227
100
AcDbEntity
  8
RUNDUNGEN
100
AcDbLine
 62
7
  6
CONTINUOUS
 10
96.9606146297
 20
93.3173073652
 11
96.9606146297
 21
90.6173073652
  0
LINE
  5
228
100
AcDbEntity
  8
RUNDUNGEN
100
AcDbLine
 62
7
  6
CONTINUOUS
 10
96.9606446297
 20
82.8073073652
 11
96.9606446297
 21
80.1073073652
  0
LINE
  5
229
100
AcDbEntity
  8
RUNDUNGEN
100
AcDbLine
 62
7
  6
CONTINUOUS
 10
98.2896995392
 20
72.7776020459
 11
98.2900803611
 21
74.7550450435
  0
LINE
  5
22A
100
AcDbEntity
  8
RUNDUNGEN
100
AcDbLine
 62
7
  6
CONTINUOUS
 10
98.5438338727
 20
100.6479740916
 11
98.5434490711
 21
98.6695696869
  0
LINE
  5
22B
100
AcDbEntity
  8
RUNDUNGEN
100
AcDbLine
 62
7
  6
CONTINUOUS
 10
98.2892534197
 20
72.6902618193
 11
98.2896995392
 21
72.7776020459
  0
LINE
  5
22C
100
AcDbEntity
  8
RUNDUNGEN
100
AcDbLine
 62
7
  6
CONTINUOUS
 10
98.5442760121
 20
100.7343529102
 11
98.5438338727
 21
100.6479740916
  0
LINE
  5
22D
100
AcDbEntity
  8
0
100
AcDbLine
 62
7
  6
CONTINUOUS
 10
98.0790529547
 20
75.1870956038
 11
97.3622629018
 21
75.9038856567
  0
LINE
  5
22E
100
AcDbEntity
  8
RUNDUNGEN
100
AcDbLine
 62
7
  6
CONTINUOUS
 10
99.8728848026
 20
90.6173073652
 11
99.8728848026
 21
93.3173073652
  0
LINE
  5
22F
100
AcDbEntity
  8
RUNDUNGEN
100
AcDbLine
 62
7
  6
CONTINUOUS
 10
99.8729148026
 20
80.1073073652
 11
99.8729148026
 21
82.8073073652
  0
LINE
  5
230
100
AcDbEntity
  8
RUNDUNGEN
100
AcDbLine
 62
7
  6
CONTINUOUS
 10
102.4855846297
 20
93.3173073652
 11
102.4855846297
 21
90.6173073652
  0
LINE
  5
231
100
AcDbEntity
  8
RUNDUNGEN
100
AcDbLine
 62
7
  6
CONTINUOUS
 10
102.4856146297
 20
82.8073073652
 11
102.4856146297
 21
80.1073073652
  0
LINE
  5
232
100
AcDbEntity
  8
RUNDUNGEN
100
AcDbLine
 62
7
  6
CONTINUOUS
 10
103.8728848026
 20
90.6173073652
 11
103.8728848026
 21
93.3173073652
  0
LINE
  5
233
100
AcDbEntity
  8
RUNDUNGEN
100
AcDbLine
 62
7
  6
CONTINUOUS
 10
103.8729148026
 20
80.1073073652
 11
103.8729148026
 21
82.8073073652
  0
LWPOLYLINE
  5
234
100
AcDbEntity
  8
0
100
AcDbPolyline
 62
7
  6
CONTINUOUS
 90
12
 70
0
 10
109.9899562016
 20
69.6869358384
 10
110.0133972813
 20
69.6713949997
 10
110.0376751379
 20
69.6571967575
 10
110.0627129654
 20
69.644386039
 10
110.0884315343
 20
69.6330033905
 10
110.1147494579
 20
69.6230848382
 10
110.1415834743
 20
69.6146617661
 10
110.1688486842
 20
69.6077608294
 10
110.1964588188
 20
69.6024038689
 10
110.2243265184
 20
69.59860784
 10
110.2523636079
 20
69.596384759
 10
110.2778506747
 20
69.5957347448
  0
LINE
  5
235
100
AcDbEntity
  8
RUNDUNGEN
100
AcDbLine
 62
7
  6
CONTINUOUS
 10
106.4855846297
 20
93.3173073652
 11
106.4855846297
 21
90.6173073652
  0
LINE
  5
236
100
AcDbEntity
  8
RUNDUNGEN
100
AcDbLine
 62
7
  6
CONTINUOUS
 10
106.4856146297
 20
82.8073073652
 11
106.4856146297
 21
80.1073073652
  0
LINE
  5
237
100
AcDbEntity
  8
0
100
AcDbLine
 62
7
  6
CONTINUOUS
 10
106.8872629018
 20
97.5207290738
 11
107.6040529547
 21
98.2375191267
  0
LINE
  5
238
100
AcDbEntity
  8
RUNDUNGEN
100
AcDbLine
 62
7
  6
CONTINUOUS
 10
107.8150638851
 20
100.5007197964
 11
107.8142534197
 21
100.7343529079
  0
LINE
  5
239
100
AcDbEntity
  8
RUNDUNGEN
100
AcDbLine
 62
7
  6
CONTINUOUS
 10
108.0684655471
 20
72.9238949341
 11
108.0692760126
 21
72.6902618226
  0
LINE
  5
23A
100
AcDbEntity
  8
RUNDUNGEN
100
AcDbLine
 62
7
  6
CONTINUOUS
 10
107.8150638851
 20
100.5007197964
 11
107.8150803611
 21
98.6695696869
  0
LINE
  5
23B
100
AcDbEntity
  8
RUNDUNGEN
100
AcDbLine
 62
7
  6
CONTINUOUS
 10
108.0684655471
 20
72.9238949341
 11
108.0684490711
 21
74.7550450435
  0
LINE
  5
23C
100
AcDbEntity
  8
RUNDUNGEN
100
AcDbLine
 62
7
  6
CONTINUOUS
 10
109.3979148026
 20
90.6173073652
 11
109.3979148026
 21
93.3173073652
  0
LINE
  5
23D
100
AcDbEntity
  8
RUNDUNGEN
100
AcDbLine
 62
7
  6
CONTINUOUS
 10
109.3979448026
 20
80.1073073652
 11
109.3979448026
 21
82.8073073652
  0
LINE
  5
23E
100
AcDbEntity
  8
RUNDUNGEN
100
AcDbLine
 62
7
  6
CONTINUOUS
 10
89.9462665304
 20
75.9038856567
 11
89.2294764776
 21
75.1870956038
  0
LWPOLYLINE
  5
23F
100
AcDbEntity
  8
0
100
AcDbPolyline
 62
7
  6
CONTINUOUS
 90
12
 70
0
 10
153.2306787593
 20
69.5957347453
 10
153.2561634579
 20
69.5963846386
 10
153.2841999683
 20
69.5986075231
 10
153.3120671052
 20
69.6024032904
 10
153.3396766992
 20
69.6077599252
 10
153.3669413959
 20
69.614660474
 10
153.3937749316
 20
69.6230830982
 10
153.4200924123
 20
69.633001145
 10
153.4458105809
 20
69.6443832334
 10
153.4708480554
 20
69.6571933407
 10
153.4951256109
 20
69.6713909239
 10
153.5185664454
 20
69.68693106
  0
LWPOLYLINE
  5
240
100
AcDbEntity
  8
0
100
AcDbPolyline
 62
7
  6
CONTINUOUS
 90
12
 70
0
 10
134.1806787593
 20
69.5957347453
 10
134.2061634579
 20
69.5963846386
 10
134.2341999683
 20
69.5986075231
 10
134.2620671053
 20
69.6024032904
 10
134.2896766992
 20
69.6077599252
 10
134.3169413959
 20
69.614660474
 10
134.3437749316
 20
69.6230830982
 10
134.3700924123
 20
69.633001145
 10
134.3958105809
 20
69.6443832334
 10
134.4208480554
 20
69.6571933407
 10
134.4451256109
 20
69.6713909239
 10
134.4685664454
 20
69.68693106
  0
LWPOLYLINE
  5
241
100
AcDbEntity
  8
0
100
AcDbPolyline
 62
7
  6
CONTINUOUS
 90
12
 70
0
 10
115.1306787593
 20
69.5957347453
 10
115.1561634579
 20
69.5963846386
 10
115.1841999683
 20
69.5986075231
 10
115.2120671052
 20
69.6024032904
 10
115.2396766992
 20
69.6077599252
 10
115.2669413959
 20
69.614660474
 10
115.2937749316
 20
69.6230830982
 10
115.3200924123
 20
69.633001145
 10
115.3458105809
 20
69.6443832334
 10
115.3708480554
 20
69.6571933407
 10
115.3951256109
 20
69.6713909239
 10
115.4185664454
 20
69.68693106
  0
LINE
  5
242
100
AcDbEntity
  8
02___PRT_ALL_AXES
100
AcDbLine
 62
7
  6
CONTINUOUS
 10
153.2308302226
 20
69.5957343452
 11
148.3776992096
 21
69.5957343452
  0
LINE
  5
243
100
AcDbEntity
  8
02___PRT_ALL_AXES
100
AcDbLine
 62
7
  6
CONTINUOUS
 10
134.1808302226
 20
69.5957343452
 11
129.3276992096
 21
69.5957343452
  0
LINE
  5
244
100
AcDbEntity
  8
02___PRT_ALL_AXES
100
AcDbLine
 62
7
  6
CONTINUOUS
 10
115.1308302226
 20
69.5957343452
 11
110.2776992096
 21
69.5957343452
  0
LINE
  5
245
100
AcDbEntity
  8
02___PRT_ALL_AXES
100
AcDbLine
 62
7
  6
CONTINUOUS
 10
96.080830222
 20
69.5957343452
 11
91.2276992102
 21
69.5957343452
  0
LINE
  5
246
100
AcDbEntity
  8
RUNDUNGEN
100
AcDbLine
 62
7
  6
CONTINUOUS
 10
112.0106146297
 20
93.3173073652
 11
112.0106146297
 21
90.6173073652
  0
LINE
  5
247
100
AcDbEntity
  8
RUNDUNGEN
100
AcDbLine
 62
7
  6
CONTINUOUS
 10
112.0106446297
 20
82.8073073652
 11
112.0106446297
 21
80.1073073652
  0
LWPOLYLINE
  5
248
100
AcDbEntity
  8
0
100
AcDbPolyline
 62
7
  6
CONTINUOUS
 90
12
 70
0
 10
96.0806787593
 20
69.5957347453
 10
96.1061634578
 20
69.5963846386
 10
96.1341999683
 20
69.5986075231
 10
96.1620671052
 20
69.6024032904
 10
96.1896766992
 20
69.6077599252
 10
96.2169413959
 20
69.614660474
 10
96.2437749316
 20
69.6230830982
 10
96.2700924123
 20
69.633001145
 10
96.2958105809
 20
69.6443832334
 10
96.3208480554
 20
69.6571933407
 10
96.3451256109
 20
69.6713909239
 10
96.3685664454
 20
69.68693106
  0
LINE
  5
249
100
AcDbEntity
  8
0
100
AcDbLine
 62
7
  6
CONTINUOUS
 10
117.1290529547
 20
75.1870956038
 11
116.4122629018
 21
75.9038856567
  0
LINE
  5
24A
100
AcDbEntity
  8
RUNDUNGEN
100
AcDbLine
 62
7
  6
CONTINUOUS
 10
113.3979148026
 20
90.6173073652
 11
113.3979148026
 21
93.3173073652
  0
LINE
  5
24B
100
AcDbEntity
  8
RUNDUNGEN
100
AcDbLine
 62
7
  6
CONTINUOUS
 10
113.3979448026
 20
80.1073073652
 11
113.3979448026
 21
82.8073073652
  0
LINE
  5
24C
100
AcDbEntity
  8
RUNDUNGEN
100
AcDbLine
 62
7
  6
CONTINUOUS
 10
116.0106146297
 20
93.3173073652
 11
116.0106146297
 21
90.6173073652
  0
LINE
  5
24D
100
AcDbEntity
  8
RUNDUNGEN
100
AcDbLine
 62
7
  6
CONTINUOUS
 10
116.0106446297
 20
82.8073073652
 11
116.0106446297
 21
80.1073073652
  0
LINE
  5
24E
100
AcDbEntity
  8
02___PRT_ALL_AXES
100
AcDbLine
 62
7
  6
CENTER
 10
87.7467817142
 20
74.3073073652
 11
99.5617477181
 21
74.3073073652
  0
LWPOLYLINE
  5
24F
100
AcDbEntity
  8
0
100
AcDbPolyline
 62
7
  6
CONTINUOUS
 90
12
 70
0
 10
129.0399562016
 20
69.6869358384
 10
129.0633972813
 20
69.6713949997
 10
129.0876751379
 20
69.6571967575
 10
129.1127129654
 20
69.644386039
 10
129.1384315343
 20
69.6330033905
 10
129.1647494579
 20
69.6230848382
 10
129.1915834743
 20
69.6146617661
 10
129.2188486842
 20
69.6077608294
 10
129.2464588188
 20
69.6024038689
 10
129.2743265184
 20
69.59860784
 10
129.3023636079
 20
69.596384759
 10
129.3278506747
 20
69.5957347448
  0
LINE
  5
250
100
AcDbEntity
  8
0
100
AcDbLine
 62
7
  6
CONTINUOUS
 10
98.7544764776
 20
98.2375191267
 11
99.4712665304
 21
97.5207290738
  0
LINE
  5
251
100
AcDbEntity
  8
RUNDUNGEN
100
AcDbLine
 62
7
  6
CONTINUOUS
 10
117.3396995392
 20
72.7776020436
 11
117.3400803611
 21
74.7550450435
  0
LINE
  5
252
100
AcDbEntity
  8
RUNDUNGEN
100
AcDbLine
 62
7
  6
CONTINUOUS
 10
117.593829893
 20
100.6470126868
 11
117.5934490711
 21
98.6695696869
  0
LINE
  5
253
100
AcDbEntity
  8
RUNDUNGEN
100
AcDbLine
 62
7
  6
CONTINUOUS
 10
117.3392534197
 20
72.6902618193
 11
117.3396995392
 21
72.7776020436
  0
LINE
  5
254
100
AcDbEntity
  8
RUNDUNGEN
100
AcDbLine
 62
7
  6
CONTINUOUS
 10
117.5942760126
 20
100.7343529111
 11
117.593829893
 21
100.6470126868
  0
LINE
  5
255
100
AcDbEntity
  8
0
100
AcDbLine
 62
7
  6
CONTINUOUS
 10
125.9372629018
 20
97.5207290738
 11
126.6540529547
 21
98.2375191267
  0
LINE
  5
256
100
AcDbEntity
  8
RUNDUNGEN
100
AcDbLine
 62
7
  6
CONTINUOUS
 10
145.4773544318
 20
77.5860460749
 11
137.0811750004
 21
77.5860460749
  0
LINE
  5
257
100
AcDbEntity
  8
RUNDUNGEN
100
AcDbLine
 62
7
  6
CONTINUOUS
 10
126.4273544318
 20
77.5860460749
 11
118.0311750004
 21
77.5860460749
  0
LINE
  5
258
100
AcDbEntity
  8
RUNDUNGEN
100
AcDbLine
 62
7
  6
CONTINUOUS
 10
107.3773544318
 20
77.5860460749
 11
98.9811750004
 21
77.5860460749
  0
LINE
  5
259
100
AcDbEntity
  8
RUNDUNGEN
100
AcDbLine
 62
7
  6
CONTINUOUS
 10
156.1311750004
 20
77.5860460749
 11
164.5829610196
 21
77.5860460749
  0
LINE
  5
25A
100
AcDbEntity
  8
RUNDUNGEN
100
AcDbLine
 62
7
  6
CONTINUOUS
 10
118.9228848026
 20
90.6173073652
 11
118.9228848026
 21
93.3173073652
  0
LINE
  5
25B
100
AcDbEntity
  8
RUNDUNGEN
100
AcDbLine
 62
7
  6
CONTINUOUS
 10
118.9229148026
 20
80.1073073652
 11
118.9229148026
 21
82.8073073652
  0
LINE
  5
25C
100
AcDbEntity
  8
RUNDUNGEN
100
AcDbLine
 62
7
  6
CONTINUOUS
 10
121.5355846297
 20
93.3173073652
 11
121.5355846297
 21
90.6173073652
  0
LINE
  5
25D
100
AcDbEntity
  8
RUNDUNGEN
100
AcDbLine
 62
7
  6
CONTINUOUS
 10
121.5356146297
 20
82.8073073652
 11
121.5356146297
 21
80.1073073652
  0
LINE
  5
25E
100
AcDbEntity
  8
RUNDUNGEN
100
AcDbLine
 62
7
  6
CONTINUOUS
 10
122.9228848026
 20
90.6173073652
 11
122.9228848026
 21
93.3173073652
  0
LINE
  5
25F
100
AcDbEntity
  8
RUNDUNGEN
100
AcDbLine
 62
7
  6
CONTINUOUS
 10
122.9229148026
 20
80.1073073652
 11
122.9229148026
 21
82.8073073652
  0
LINE
  5
260
100
AcDbEntity
  8
0
100
AcDbLine
 62
7
  6
CONTINUOUS
 10
108.9962665304
 20
75.9038856567
 11
108.2794764776
 21
75.1870956038
  0
LINE
  5
261
100
AcDbEntity
  8
0
100
AcDbLine
 62
7
  6
CONTINUOUS
 10
165.0829610196
 20
83.7748073652
 11
165.099355435
 21
83.7748073652
  0
LWPOLYLINE
  5
262
100
AcDbEntity
  8
0
100
AcDbPolyline
 62
7
  6
CONTINUOUS
 90
12
 70
0
 10
148.0899562016
 20
69.6869358384
 10
148.1133972813
 20
69.6713949997
 10
148.1376751379
 20
69.6571967575
 10
148.1627129654
 20
69.644386039
 10
148.1884315343
 20
69.6330033905
 10
148.2147494579
 20
69.6230848382
 10
148.2415834743
 20
69.6146617661
 10
148.2688486842
 20
69.6077608294
 10
148.2964588188
 20
69.6024038689
 10
148.3243265184
 20
69.59860784
 10
148.3523636079
 20
69.596384759
 10
148.3778506747
 20
69.5957347448
  0
LINE
  5
263
100
AcDbEntity
  8
RUNDUNGEN
100
AcDbLine
 62
7
  6
CONTINUOUS
 10
126.8650638851
 20
100.5007197964
 11
126.8642534197
 21
100.7343529079
  0
LINE
  5
264
100
AcDbEntity
  8
RUNDUNGEN
100
AcDbLine
 62
7
  6
CONTINUOUS
 10
127.1184655471
 20
72.9238949341
 11
127.1192760126
 21
72.6902618226
  0
LINE
  5
265
100
AcDbEntity
  8
RUNDUNGEN
100
AcDbLine
 62
7
  6
CONTINUOUS
 10
125.5355846297
 20
93.3173073652
 11
125.5355846297
 21
90.6173073652
  0
LINE
  5
266
100
AcDbEntity
  8
RUNDUNGEN
100
AcDbLine
 62
7
  6
CONTINUOUS
 10
125.5356146297
 20
82.8073073652
 11
125.5356146297
 21
80.1073073652
  0
LINE
  5
267
100
AcDbEntity
  8
RUNDUNGEN
100
AcDbLine
 62
7
  6
CONTINUOUS
 10
126.8650638851
 20
100.5007197964
 11
126.8650803611
 21
98.6695696869
  0
LINE
  5
268
100
AcDbEntity
  8
RUNDUNGEN
100
AcDbLine
 62
7
  6
CONTINUOUS
 10
127.1184655471
 20
72.9238949341
 11
127.1184490711
 21
74.7550450435
  0
LINE
  5
269
100
AcDbEntity
  8
0
100
AcDbLine
 62
7
  6
CONTINUOUS
 10
165.0829610196
 20
84.7748073652
 11
165.099355435
 21
84.7748073652
  0
LINE
  5
26A
100
AcDbEntity
  8
0
100
AcDbLine
 62
7
  6
CONTINUOUS
 10
165.0829610196
 20
84.9831407383
 11
165.0986127795
 21
84.9831407383
  0
LINE
  5
26B
100
AcDbEntity
  8
0
100
AcDbLine
 62
7
  6
CONTINUOUS
 10
165.0829610196
 20
85.1498073652
 11
165.096384813
 21
85.1498073652
  0
LINE
  5
26C
100
AcDbEntity
  8
0
100
AcDbLine
 62
7
  6
CONTINUOUS
 10
165.0829610196
 20
85.2748073652
 11
165.0934141909
 21
85.2748073652
  0
LINE
  5
26D
100
AcDbEntity
  8
0
100
AcDbLine
 62
7
  6
CONTINUOUS
 10
165.0829610196
 20
85.3164739922
 11
165.0911862244
 21
85.3164739922
  0
LINE
  5
26E
100
AcDbEntity
  8
0
100
AcDbLine
 62
7
  6
CONTINUOUS
 10
165.0829610196
 20
85.6498073652
 11
165.0874729448
 21
85.6498073652
  0
LINE
  5
26F
100
AcDbEntity
  8
0
100
AcDbLine
 62
7
  6
CONTINUOUS
 10
165.0829610196
 20
85.6914739922
 11
165.0911862244
 21
85.6914739922
  0
LINE
  5
270
100
AcDbEntity
  8
0
100
AcDbLine
 62
7
  6
CONTINUOUS
 10
165.0829610196
 20
85.7748073652
 11
165.0941568464
 21
85.7748073652
  0
LINE
  5
271
100
AcDbEntity
  8
0
100
AcDbLine
 62
7
  6
CONTINUOUS
 10
165.0829610196
 20
85.9414741114
 11
165.0971274685
 21
85.9414741114
  0
LINE
  5
272
100
AcDbEntity
  8
0
100
AcDbLine
 62
7
  6
CONTINUOUS
 10
165.0829610196
 20
86.1081406191
 11
165.0986127795
 21
86.1081406191
  0
LINE
  5
273
100
AcDbEntity
  8
0
100
AcDbLine
 62
7
  6
CONTINUOUS
 10
165.0829610196
 20
86.3164741114
 11
165.099355435
 21
86.3164741114
  0
LINE
  5
274
100
AcDbEntity
  8
0
100
AcDbLine
 62
7
  6
CONTINUOUS
 10
165.0829610196
 20
86.6498073652
 11
165.099355435
 21
86.6498073652
  0
LINE
  5
275
100
AcDbEntity
  8
0
100
AcDbLine
 62
7
  6
CONTINUOUS
 10
165.0829610196
 20
86.8581406191
 11
165.0986127795
 21
86.8581406191
  0
LINE
  5
276
100
AcDbEntity
  8
0
100
AcDbLine
 62
7
  6
CONTINUOUS
 10
165.0829610196
 20
87.0248073652
 11
165.0971274685
 21
87.0248073652
  0
LINE
  5
277
100
AcDbEntity
  8
0
100
AcDbLine
 62
7
  6
CONTINUOUS
 10
136.1790529547
 20
75.1870956038
 11
135.4622629018
 21
75.9038856567
  0
LINE
  5
278
100
AcDbEntity
  8
RUNDUNGEN
100
AcDbLine
 62
7
  6
CONTINUOUS
 10
128.4479148026
 20
90.6173073652
 11
128.4479148026
 21
93.3173073652
  0
LINE
  5
279
100
AcDbEntity
  8
RUNDUNGEN
100
AcDbLine
 62
7
  6
CONTINUOUS
 10
128.4479448026
 20
80.1073073652
 11
128.4479448026
 21
82.8073073652
  0
LINE
  5
27A
100
AcDbEntity
  8
0
100
AcDbLine
 62
7
  6
CONTINUOUS
 10
165.0829610196
 20
87.1914741114
 11
165.0941568464
 21
87.1914741114
  0
LINE
  5
27B
100
AcDbEntity
  8
0
100
AcDbLine
 62
7
  6
CONTINUOUS
 10
165.0829610196
 20
87.2748073652
 11
165.0911862244
 21
87.2748073652
  0
LINE
  5
27C
100
AcDbEntity
  8
0
100
AcDbLine
 62
7
  6
CONTINUOUS
 10
165.0829610196
 20
87.3164741114
 11
165.0874729448
 21
87.3164741114
  0
LINE
  5
27D
100
AcDbEntity
  8
0
100
AcDbLine
 62
7
  6
CONTINUOUS
 10
165.0829610196
 20
87.6498073652
 11
165.099355435
 21
87.6498073652
  0
LINE
  5
27E
100
AcDbEntity
  8
0
100
AcDbLine
 62
7
  6
CONTINUOUS
 10
165.0829610196
 20
88.0248073652
 11
165.099355435
 21
88.0248073652
  0
LINE
  5
27F
100
AcDbEntity
  8
0
100
AcDbLine
 62
7
  6
CONTINUOUS
 10
165.0829610196
 20
89.2748073652
 11
165.099355435
 21
89.2748073652
  0
LINE
  5
280
100
AcDbEntity
  8
0
100
AcDbLine
 62
7
  6
CONTINUOUS
 10
165.0829610196
 20
89.6498073652
 11
165.099355435
 21
89.6498073652
  0
LWPOLYLINE
  5
281
100
AcDbEntity
  8
0
100
AcDbPolyline
 62
7
  6
CONTINUOUS
 90
12
 70
0
 10
105.8935732306
 20
103.7376788921
 10
105.8701321509
 20
103.7532197307
 10
105.8458542943
 20
103.7674179729
 10
105.8208164668
 20
103.7802286915
 10
105.7950978979
 20
103.7916113399
 10
105.7687799743
 20
103.8015298922
 10
105.741945958
 20
103.8099529643
 10
105.714680748
 20
103.816853901
 10
105.6870706134
 20
103.8222108615
 10
105.6592029138
 20
103.8260068905
 10
105.6311658243
 20
103.8282299715
 10
105.6056787576
 20
103.8288799856
  0
LINE
  5
282
100
AcDbEntity
  8
0
100
AcDbLine
 62
7
  6
CONTINUOUS
 10
117.8044764776
 20
98.2375191267
 11
118.5212665304
 21
97.5207290738
  0
LINE
  5
283
100
AcDbEntity
  8
RUNDUNGEN
100
AcDbLine
 62
7
  6
CONTINUOUS
 10
131.0606146297
 20
93.3173073652
 11
131.0606146297
 21
90.6173073652
  0
LINE
  5
284
100
AcDbEntity
  8
RUNDUNGEN
100
AcDbLine
 62
7
  6
CONTINUOUS
 10
131.0606446297
 20
82.8073073652
 11
131.0606446297
 21
80.1073073652
  0
LINE
  5
285
100
AcDbEntity
  8
RUNDUNGEN
100
AcDbLine
 62
7
  6
CONTINUOUS
 10
132.4479148026
 20
90.6173073652
 11
132.4479148026
 21
93.3173073652
  0
LINE
  5
286
100
AcDbEntity
  8
RUNDUNGEN
100
AcDbLine
 62
7
  6
CONTINUOUS
 10
132.4479448026
 20
80.1073073652
 11
132.4479448026
 21
82.8073073652
  0
LINE
  5
287
100
AcDbEntity
  8
0
100
AcDbLine
 62
7
  6
CONTINUOUS
 10
144.9872629018
 20
97.5207290738
 11
145.7040529547
 21
98.2375191267
  0
LINE
  5
288
100
AcDbEntity
  8
RUNDUNGEN
100
AcDbLine
 62
7
  6
CONTINUOUS
 10
135.0606146297
 20
93.3173073652
 11
135.0606146297
 21
90.6173073652
  0
LINE
  5
289
100
AcDbEntity
  8
RUNDUNGEN
100
AcDbLine
 62
7
  6
CONTINUOUS
 10
135.0606446297
 20
82.8073073652
 11
135.0606446297
 21
80.1073073652
  0
LINE
  5
28A
100
AcDbEntity
  8
0
100
AcDbLine
 62
7
  6
CONTINUOUS
 10
128.0462665304
 20
75.9038856567
 11
127.3294764776
 21
75.1870956038
  0
LINE
  5
28B
100
AcDbEntity
  8
RUNDUNGEN
100
AcDbLine
 62
7
  6
CONTINUOUS
 10
137.9728848026
 20
90.6173073652
 11
137.9728848026
 21
93.3173073652
  0
LINE
  5
28C
100
AcDbEntity
  8
RUNDUNGEN
100
AcDbLine
 62
7
  6
CONTINUOUS
 10
137.9729148026
 20
80.1073073652
 11
137.9729148026
 21
82.8073073652
  0
LINE
  5
28D
100
AcDbEntity
  8
RUNDUNGEN
100
AcDbLine
 62
7
  6
CONTINUOUS
 10
136.3896995392
 20
72.7776020436
 11
136.3900803611
 21
74.7550450435
  0
LINE
  5
28E
100
AcDbEntity
  8
RUNDUNGEN
100
AcDbLine
 62
7
  6
CONTINUOUS
 10
136.643829893
 20
100.6470126868
 11
136.6434490711
 21
98.6695696869
  0
LINE
  5
28F
100
AcDbEntity
  8
RUNDUNGEN
100
AcDbLine
 62
7
  6
CONTINUOUS
 10
136.3892534197
 20
72.6902618193
 11
136.3896995392
 21
72.7776020436
  0
LINE
  5
290
100
AcDbEntity
  8
RUNDUNGEN
100
AcDbLine
 62
7
  6
CONTINUOUS
 10
136.6442760126
 20
100.7343529111
 11
136.643829893
 21
100.6470126868
  0
LINE
  5
291
100
AcDbEntity
  8
RUNDUNGEN
100
AcDbLine
 62
7
  6
CONTINUOUS
 10
97.8523544318
 20
95.8385686555
 11
89.4005684126
 21
95.8385686555
  0
LINE
  5
292
100
AcDbEntity
  8
RUNDUNGEN
100
AcDbLine
 62
7
  6
CONTINUOUS
 10
108.5061750004
 20
95.8385686555
 11
116.9023544318
 21
95.8385686555
  0
LINE
  5
293
100
AcDbEntity
  8
RUNDUNGEN
100
AcDbLine
 62
7
  6
CONTINUOUS
 10
127.5561750004
 20
95.8385686555
 11
135.9523544318
 21
95.8385686555
  0
LINE
  5
294
100
AcDbEntity
  8
RUNDUNGEN
100
AcDbLine
 62
7
  6
CONTINUOUS
 10
146.6061750004
 20
95.8385686555
 11
155.0023544318
 21
95.8385686555
  0
LINE
  5
295
100
AcDbEntity
  8
RUNDUNGEN
100
AcDbLine
 62
7
  6
CONTINUOUS
 10
140.5855846297
 20
93.3173073652
 11
140.5855846297
 21
90.6173073652
  0
LINE
  5
296
100
AcDbEntity
  8
RUNDUNGEN
100
AcDbLine
 62
7
  6
CONTINUOUS
 10
140.5856146297
 20
82.8073073652
 11
140.5856146297
 21
80.1073073652
  0
LINE
  5
297
100
AcDbEntity
  8
02___PRT_ALL_AXES
100
AcDbLine
 62
7
  6
CENTER
 10
166.2367352151
 20
99.1173073652
 11
154.4217942171
 21
99.1173073652
  0
LWPOLYLINE
  5
298
100
AcDbEntity
  8
0
100
AcDbPolyline
 62
7
  6
CONTINUOUS
 90
12
 70
0
 10
124.9435732306
 20
103.7376788921
 10
124.9201321509
 20
103.7532197307
 10
124.8958542943
 20
103.7674179729
 10
124.8708164669
 20
103.7802286915
 10
124.8450978979
 20
103.7916113399
 10
124.8187799744
 20
103.8015298922
 10
124.791945958
 20
103.8099529643
 10
124.764680748
 20
103.816853901
 10
124.7370706134
 20
103.8222108615
 10
124.7092029138
 20
103.8260068905
 10
124.6811658243
 20
103.8282299715
 10
124.6556787576
 20
103.8288799856
  0
LINE
  5
299
100
AcDbEntity
  8
0
100
AcDbLine
 62
7
  6
CONTINUOUS
 10
155.2290529547
 20
75.1870956038
 11
154.5122629018
 21
75.9038856567
  0
LINE
  5
29A
100
AcDbEntity
  8
RUNDUNGEN
100
AcDbLine
 62
7
  6
CONTINUOUS
 10
141.9728848026
 20
90.6173073652
 11
141.9728848026
 21
93.3173073652
  0
LINE
  5
29B
100
AcDbEntity
  8
RUNDUNGEN
100
AcDbLine
 62
7
  6
CONTINUOUS
 10
141.9729148026
 20
80.1073073652
 11
141.9729148026
 21
82.8073073652
  0
LWPOLYLINE
  5
29C
100
AcDbEntity
  8
0
100
AcDbPolyline
 62
7
  6
CONTINUOUS
 90
12
 70
0
 10
157.902850673
 20
103.8288799852
 10
157.8773659744
 20
103.8282300919
 10
157.849329464
 20
103.8260072073
 10
157.821462327
 20
103.8222114401
 10
157.793852733
 20
103.8168548053
 10
157.7665880363
 20
103.8099542564
 10
157.7397545006
 20
103.8015316323
 10
157.7134370199
 20
103.7916135854
 10
157.6877188513
 20
103.780231497
 10
157.6626813768
 20
103.7674213898
 10
157.6384038214
 20
103.7532238065
 10
157.6149629868
 20
103.7376836705
  0
LWPOLYLINE
  5
29D
100
AcDbEntity
  8
0
100
AcDbPolyline
 62
7
  6
CONTINUOUS
 90
12
 70
0
 10
138.852850673
 20
103.8288799852
 10
138.8273659744
 20
103.8282300919
 10
138.799329464
 20
103.8260072073
 10
138.771462327
 20
103.8222114401
 10
138.743852733
 20
103.8168548053
 10
138.7165880363
 20
103.8099542564
 10
138.6897545006
 20
103.8015316323
 10
138.6634370199
 20
103.7916135854
 10
138.6377188513
 20
103.780231497
 10
138.6126813768
 20
103.7674213898
 10
138.5884038214
 20
103.7532238065
 10
138.5649629868
 20
103.7376836705
  0
LWPOLYLINE
  5
29E
100
AcDbEntity
  8
0
100
AcDbPolyline
 62
7
  6
CONTINUOUS
 90
12
 70
0
 10
119.802850673
 20
103.8288799852
 10
119.7773659744
 20
103.8282300919
 10
119.749329464
 20
103.8260072073
 10
119.721462327
 20
103.8222114401
 10
119.693852733
 20
103.8168548053
 10
119.6665880363
 20
103.8099542564
 10
119.6397545006
 20
103.8015316323
 10
119.6134370199
 20
103.7916135854
 10
119.5877188513
 20
103.780231497
 10
119.5626813768
 20
103.7674213898
 10
119.5384038214
 20
103.7532238065
 10
119.5149629868
 20
103.7376836705
  0
LINE
  5
29F
100
AcDbEntity
  8
02___PRT_ALL_AXES
100
AcDbLine
 62
7
  6
CONTINUOUS
 10
100.7526992096
 20
103.8288803852
 11
105.6058302226
 21
103.8288803852
  0
LINE
  5
2A0
100
AcDbEntity
  8
02___PRT_ALL_AXES
100
AcDbLine
 62
7
  6
CONTINUOUS
 10
119.8026992096
 20
103.8288803852
 11
124.6558302226
 21
103.8288803852
  0
LINE
  5
2A1
100
AcDbEntity
  8
02___PRT_ALL_AXES
100
AcDbLine
 62
7
  6
CONTINUOUS
 10
138.8526992096
 20
103.8288803852
 11
143.7058302226
 21
103.8288803852
  0
LINE
  5
2A2
100
AcDbEntity
  8
02___PRT_ALL_AXES
100
AcDbLine
 62
7
  6
CONTINUOUS
 10
157.9026992103
 20
103.8288803852
 11
162.755830222
 21
103.8288803852
  0
LINE
  5
2A3
100
AcDbEntity
  8
0
100
AcDbLine
 62
7
  6
CONTINUOUS
 10
136.8544764776
 20
98.2375191267
 11
137.5712665304
 21
97.5207290738
  0
LINE
  5
2A4
100
AcDbEntity
  8
RUNDUNGEN
100
AcDbLine
 62
7
  6
CONTINUOUS
 10
145.9150638851
 20
100.5007197964
 11
145.9142534197
 21
100.7343529079
  0
LINE
  5
2A5
100
AcDbEntity
  8
RUNDUNGEN
100
AcDbLine
 62
7
  6
CONTINUOUS
 10
146.1684655471
 20
72.9238949341
 11
146.1692760126
 21
72.6902618226
  0
LINE
  5
2A6
100
AcDbEntity
  8
RUNDUNGEN
100
AcDbLine
 62
7
  6
CONTINUOUS
 10
144.5855846297
 20
93.3173073652
 11
144.5855846297
 21
90.6173073652
  0
LINE
  5
2A7
100
AcDbEntity
  8
RUNDUNGEN
100
AcDbLine
 62
7
  6
CONTINUOUS
 10
144.5856146297
 20
82.8073073652
 11
144.5856146297
 21
80.1073073652
  0
LINE
  5
2A8
100
AcDbEntity
  8
RUNDUNGEN
100
AcDbLine
 62
7
  6
CONTINUOUS
 10
145.9150638851
 20
100.5007197964
 11
145.9150803611
 21
98.6695696869
  0
LINE
  5
2A9
100
AcDbEntity
  8
RUNDUNGEN
100
AcDbLine
 62
7
  6
CONTINUOUS
 10
146.1684655471
 20
72.9238949341
 11
146.1684490711
 21
74.7550450435
  0
LINE
  5
2AA
100
AcDbEntity
  8
RUNDUNGEN
100
AcDbLine
 62
7
  6
CONTINUOUS
 10
164.0372629018
 20
97.5207290738
 11
164.7540529547
 21
98.2375191267
  0
LWPOLYLINE
  5
2AB
100
AcDbEntity
  8
0
100
AcDbPolyline
 62
7
  6
CONTINUOUS
 90
12
 70
0
 10
100.752850673
 20
103.8288799852
 10
100.7273659744
 20
103.8282300919
 10
100.699329464
 20
103.8260072073
 10
100.671462327
 20
103.8222114401
 10
100.643852733
 20
103.8168548053
 10
100.6165880363
 20
103.8099542564
 10
100.5897545006
 20
103.8015316323
 10
100.5634370199
 20
103.7916135854
 10
100.5377188513
 20
103.780231497
 10
100.5126813768
 20
103.7674213898
 10
100.4884038214
 20
103.7532238065
 10
100.4649629868
 20
103.7376836705
  0
LINE
  5
2AC
100
AcDbEntity
  8
RUNDUNGEN
100
AcDbLine
 62
7
  6
CONTINUOUS
 10
147.4979148026
 20
90.6173073652
 11
147.4979148026
 21
93.3173073652
  0
LINE
  5
2AD
100
AcDbEntity
  8
RUNDUNGEN
100
AcDbLine
 62
7
  6
CONTINUOUS
 10
147.4979448026
 20
80.1073073652
 11
147.4979448026
 21
82.8073073652
  0
LINE
  5
2AE
100
AcDbEntity
  8
0
100
AcDbLine
 62
7
  6
CONTINUOUS
 10
147.0962665304
 20
75.9038856567
 11
146.3794764776
 21
75.1870956038
  0
LINE
  5
2AF
100
AcDbEntity
  8
RUNDUNGEN
100
AcDbLine
 62
7
  6
CONTINUOUS
 10
150.1106146297
 20
93.3173073652
 11
150.1106146297
 21
90.6173073652
  0
LINE
  5
2B0
100
AcDbEntity
  8
RUNDUNGEN
100
AcDbLine
 62
7
  6
CONTINUOUS
 10
150.1106446297
 20
82.8073073652
 11
150.1106446297
 21
80.1073073652
  0
LINE
  5
2B1
100
AcDbEntity
  8
RUNDUNGEN
100
AcDbLine
 62
7
  6
CONTINUOUS
 10
151.4979148026
 20
90.6173073652
 11
151.4979148026
 21
93.3173073652
  0
LINE
  5
2B2
100
AcDbEntity
  8
RUNDUNGEN
100
AcDbLine
 62
7
  6
CONTINUOUS
 10
151.4979448026
 20
80.1073073652
 11
151.4979448026
 21
82.8073073652
  0
LWPOLYLINE
  5
2B3
100
AcDbEntity
  8
0
100
AcDbPolyline
 62
7
  6
CONTINUOUS
 90
12
 70
0
 10
143.9935732306
 20
103.7376788921
 10
143.9701321509
 20
103.7532197307
 10
143.9458542943
 20
103.7674179729
 10
143.9208164668
 20
103.7802286915
 10
143.8950978979
 20
103.7916113399
 10
143.8687799743
 20
103.8015298922
 10
143.841945958
 20
103.8099529643
 10
143.814680748
 20
103.816853901
 10
143.7870706134
 20
103.8222108615
 10
143.7592029138
 20
103.8260068905
 10
143.7311658243
 20
103.8282299715
 10
143.7056787576
 20
103.8288799856
  0
LINE
  5
2B4
100
AcDbEntity
  8
RUNDUNGEN
100
AcDbLine
 62
7
  6
CONTINUOUS
 10
154.1106146297
 20
93.3173073652
 11
154.1106146297
 21
90.6173073652
  0
LINE
  5
2B5
100
AcDbEntity
  8
RUNDUNGEN
100
AcDbLine
 62
7
  6
CONTINUOUS
 10
154.1106446297
 20
82.8073073652
 11
154.1106446297
 21
80.1073073652
  0
LINE
  5
2B6
100
AcDbEntity
  8
RUNDUNGEN
100
AcDbLine
 62
7
  6
CONTINUOUS
 10
155.4396955596
 20
72.7766406389
 11
155.4400803611
 21
74.7550450435
  0
LINE
  5
2B7
100
AcDbEntity
  8
RUNDUNGEN
100
AcDbLine
 62
7
  6
CONTINUOUS
 10
155.693829893
 20
100.6470126845
 11
155.6934490711
 21
98.6695696869
  0
LINE
  5
2B8
100
AcDbEntity
  8
RUNDUNGEN
100
AcDbLine
 62
7
  6
CONTINUOUS
 10
155.4392534201
 20
72.6902618202
 11
155.4396955596
 21
72.7766406389
  0
LINE
  5
2B9
100
AcDbEntity
  8
RUNDUNGEN
100
AcDbLine
 62
7
  6
CONTINUOUS
 10
155.6942760126
 20
100.7343529111
 11
155.693829893
 21
100.6470126845
  0
LINE
  5
2BA
100
AcDbEntity
  8
0
100
AcDbLine
 62
7
  6
CONTINUOUS
 10
155.9044764776
 20
98.2375191267
 11
156.6212665304
 21
97.5207290738
  0
LINE
  5
2BB
100
AcDbEntity
  8
RUNDUNGEN
100
AcDbLine
 62
7
  6
CONTINUOUS
 10
157.0228848026
 20
90.6173073652
 11
157.0228848026
 21
93.3173073652
  0
LINE
  5
2BC
100
AcDbEntity
  8
RUNDUNGEN
100
AcDbLine
 62
7
  6
CONTINUOUS
 10
157.0229148026
 20
80.1073073652
 11
157.0229148026
 21
82.8073073652
  0
LINE
  5
2BD
100
AcDbEntity
  8
RUNDUNGEN
100
AcDbLine
 62
7
  6
CONTINUOUS
 10
159.6355846297
 20
93.3173073652
 11
159.6355846297
 21
90.6173073652
  0
LINE
  5
2BE
100
AcDbEntity
  8
RUNDUNGEN
100
AcDbLine
 62
7
  6
CONTINUOUS
 10
159.6356146297
 20
82.8073073652
 11
159.6356146297
 21
80.1073073652
  0
LINE
  5
2BF
100
AcDbEntity
  8
RUNDUNGEN
100
AcDbLine
 62
7
  6
CONTINUOUS
 10
161.0228848026
 20
90.6173073652
 11
161.0228848026
 21
93.3173073652
  0
LINE
  5
2C0
100
AcDbEntity
  8
RUNDUNGEN
100
AcDbLine
 62
7
  6
CONTINUOUS
 10
161.0229148026
 20
80.1073073652
 11
161.0229148026
 21
82.8073073652
  0
LWPOLYLINE
  5
2C1
100
AcDbEntity
  8
0
100
AcDbPolyline
 62
7
  6
CONTINUOUS
 90
12
 70
0
 10
163.0435732306
 20
103.7376788921
 10
163.0201321509
 20
103.7532197307
 10
162.9958542943
 20
103.7674179729
 10
162.9708164669
 20
103.7802286915
 10
162.9450978979
 20
103.7916113399
 10
162.9187799744
 20
103.8015298922
 10
162.891945958
 20
103.8099529643
 10
162.864680748
 20
103.816853901
 10
162.8370706134
 20
103.8222108615
 10
162.8092029138
 20
103.8260068905
 10
162.7811658243
 20
103.8282299715
 10
162.7556787576
 20
103.8288799856
  0
LINE
  5
2C2
100
AcDbEntity
  8
RUNDUNGEN
100
AcDbLine
 62
7
  6
CONTINUOUS
 10
163.6355846297
 20
93.3173073652
 11
163.6355846297
 21
90.6173073652
  0
LINE
  5
2C3
100
AcDbEntity
  8
RUNDUNGEN
100
AcDbLine
 62
7
  6
CONTINUOUS
 10
163.6356146297
 20
82.8073073652
 11
163.6356146297
 21
80.1073073652
  0
LINE
  5
2C4
100
AcDbEntity
  8
0
100
AcDbLine
 62
7
  6
CONTINUOUS
 10
165.0874729448
 20
87.3164741114
 11
165.0911862244
 21
87.2748073652
  0
LINE
  5
2C5
100
AcDbEntity
  8
0
100
AcDbLine
 62
7
  6
CONTINUOUS
 10
165.0911862244
 20
85.3164739922
 11
165.0934141909
 21
85.2748073652
  0
LINE
  5
2C6
100
AcDbEntity
  8
0
100
AcDbLine
 62
7
  6
CONTINUOUS
 10
165.0829610196
 20
88.3533102632
 11
165.099355435
 21
88.0248073652
  0
LINE
  5
2C7
100
AcDbEntity
  8
0
100
AcDbLine
 62
7
  6
CONTINUOUS
 10
165.0911862244
 20
87.2748073652
 11
165.0941568464
 21
87.1914741114
  0
LINE
  5
2C8
100
AcDbEntity
  8
0
100
AcDbLine
 62
7
  6
CONTINUOUS
 10
165.0934141909
 20
85.2748073652
 11
165.096384813
 21
85.1498073652
  0
LINE
  5
2C9
100
AcDbEntity
  8
0
100
AcDbLine
 62
7
  6
CONTINUOUS
 10
165.0941568464
 20
87.1914741114
 11
165.0971274685
 21
87.0248073652
  0
LINE
  5
2CA
100
AcDbEntity
  8
0
100
AcDbLine
 62
7
  6
CONTINUOUS
 10
165.096384813
 20
85.1498073652
 11
165.0986127795
 21
84.9831407383
  0
LINE
  5
2CB
100
AcDbEntity
  8
0
100
AcDbLine
 62
7
  6
CONTINUOUS
 10
165.0971274685
 20
87.0248073652
 11
165.0986127795
 21
86.8581406191
  0
LINE
  5
2CC
100
AcDbEntity
  8
0
100
AcDbLine
 62
7
  6
CONTINUOUS
 10
165.0986127795
 20
84.9831407383
 11
165.099355435
 21
84.7748073652
  0
LINE
  5
2CD
100
AcDbEntity
  8
0
100
AcDbLine
 62
7
  6
CONTINUOUS
 10
165.0986127795
 20
86.8581406191
 11
165.099355435
 21
86.6498073652
  0
LINE
  5
2CE
100
AcDbEntity
  8
RUNDUNGEN
100
AcDbLine
 62
7
  6
CONTINUOUS
 10
164.9650638851
 20
100.5007197977
 11
164.9642534197
 21
100.7343529079
  0
LINE
  5
2CF
100
AcDbEntity
  8
RUNDUNGEN
100
AcDbLine
 62
7
  6
CONTINUOUS
 10
164.9650638851
 20
100.5007197977
 11
164.9650803611
 21
98.669569687
  0
LINE
  5
2D0
100
AcDbEntity
  8
RUNDUNGEN
100
AcDbLine
 62
7
  6
CONTINUOUS
 10
165.0829610196
 20
78.0860460749
 11
165.0829610196
 21
95.1598384604
  0
LINE
  5
2D1
100
AcDbEntity
  8
0
100
AcDbLine
 62
7
  6
CONTINUOUS
 10
165.099355435
 20
89.6498073652
 11
165.099355435
 21
89.2748073652
  0
LINE
  5
2D2
100
AcDbEntity
  8
0
100
AcDbLine
 62
7
  6
CONTINUOUS
 10
165.099355435
 20
88.0248073652
 11
165.099355435
 21
87.6498073652
  0
LINE
  5
2D3
100
AcDbEntity
  8
0
100
AcDbLine
 62
7
  6
CONTINUOUS
 10
165.099355435
 20
86.6498073652
 11
165.099355435
 21
86.3164741114
  0
LINE
  5
2D4
100
AcDbEntity
  8
0
100
AcDbLine
 62
7
  6
CONTINUOUS
 10
165.099355435
 20
84.7748073652
 11
165.099355435
 21
83.7748073652
  0
LINE
  5
2D5
100
AcDbEntity
  8
0
100
AcDbLine
 62
7
  6
CONTINUOUS
 10
165.099355435
 20
86.3164741114
 11
165.0986127795
 21
86.1081406191
  0
LINE
  5
2D6
100
AcDbEntity
  8
0
100
AcDbLine
 62
7
  6
CONTINUOUS
 10
165.0986127795
 20
86.1081406191
 11
165.0971274685
 21
85.9414741114
  0
LINE
  5
2D7
100
AcDbEntity
  8
0
100
AcDbLine
 62
7
  6
CONTINUOUS
 10
165.0971274685
 20
85.9414741114
 11
165.0941568464
 21
85.7748073652
  0
LINE
  5
2D8
100
AcDbEntity
  8
0
100
AcDbLine
 62
7
  6
CONTINUOUS
 10
165.0941568464
 20
85.7748073652
 11
165.0911862244
 21
85.6914739922
  0
LINE
  5
2D9
100
AcDbEntity
  8
0
100
AcDbLine
 62
7
  6
CONTINUOUS
 10
165.099355435
 20
89.2748073652
 11
165.0829610196
 21
88.9463044672
  0
LINE
  5
2DA
100
AcDbEntity
  8
0
100
AcDbLine
 62
7
  6
CONTINUOUS
 10
165.0911862244
 20
85.6914739922
 11
165.0874729448
 21
85.6498073652
  0
LWPOLYLINE
  5
2DB
100
AcDbEntity
  8
0
100
AcDbPolyline
 62
7
  6
CONTINUOUS
 90
37
 70
0
 10
89.0608151575
 20
131.9566581715
 10
89.0615508937
 20
131.9468108068
 10
89.0639267073
 20
131.9205104302
 10
89.0668584054
 20
131.8941639932
 10
89.0702993059
 20
131.867893163
 10
89.0741985031
 20
131.8416948287
 10
89.0785144985
 20
131.8156154938
 10
89.0831986266
 20
131.7896945895
 10
89.0882282112
 20
131.7638872127
 10
89.093570403
 20
131.7381950078
 10
89.0992217246
 20
131.7125236902
 10
89.1051750833
 20
131.686810035
 10
89.1114258694
 20
131.6610079934
 10
89.1179717757
 20
131.6350711652
 10
89.1248090099
 20
131.6089717894
 10
89.1319346704
 20
131.5826862601
 10
89.1393489535
 20
131.556185024
 10
89.1470469359
 20
131.5294622693
 10
89.1550443589
 20
131.5024457641
 10
89.1633537991
 20
131.4750814889
 10
89.171986785
 20
131.4473257928
 10
89.1809571092
 20
131.4191311913
 10
89.1902759659
 20
131.3904635589
 10
89.199958083
 20
131.3612799835
 10
89.2100106655
 20
131.3315638068
 10
89.2204438493
 20
131.3012901342
 10
89.2312654414
 20
131.2704431545
 10
89.2424842269
 20
131.2390043117
 10
89.2541085472
 20
131.2069582687
 10
89.2661475068
 20
131.1742875854
 10
89.2786085118
 20
131.1409810085
 10
89.2915009186
 20
131.1070224284
 10
89.3048283693
 20
131.0724114906
 10
89.3185960345
 20
131.0371445908
 10
89.3328078909
 20
131.0012208646
 10
89.3474670048
 20
130.9646432979
 10
89.3781454062
 20
130.8895243394
  0
LINE
  5
2DC
100
AcDbEntity
  8
RUNDUNGEN
100
AcDbLine
 62
7
  6
CONTINUOUS
 10
89.019667046
 20
132.5451217631
 11
89.0204847131
 21
132.5334285791
  0
LINE
  5
2DD
100
AcDbEntity
  8
RUNDUNGEN
100
AcDbLine
 62
7
  6
CONTINUOUS
 10
89.2035750212
 20
129.9151151883
 11
89.1040297409
 21
131.3386790192
  0
LINE
  5
2DE
100
AcDbEntity
  8
0
100
AcDbLine
 62
7
  6
CONTINUOUS
 10
89.0608169322
 20
131.9566536028
 11
89.019667046
 21
132.5451217631
  0
LINE
  5
2DF
100
AcDbEntity
  8
RUNDUNGEN
100
AcDbLine
 62
7
  6
CONTINUOUS
 10
91.1294322321
 20
123.3938320219
 11
90.9222999902
 21
127.3461506429
  0
LINE
  5
2E0
100
AcDbEntity
  8
RUNDUNGEN
100
AcDbLine
 62
7
  6
CONTINUOUS
 10
89.0605329598
 20
123.4112737968
 11
88.900644565
 21
132.5712737968
  0
LWPOLYLINE
  5
2E1
100
AcDbEntity
  8
0
100
AcDbPolyline
 62
7
  6
CONTINUOUS
 90
7
 70
0
 10
89.4456233934
 20
130.7302269186
 10
89.4640145554
 20
130.6880743197
 10
89.4831174398
 20
130.6448256077
 10
89.5029912927
 20
130.600400975
 10
89.523699707
 20
130.5547196777
 10
89.5453135479
 20
130.5077042429
 10
89.5679355056
 20
130.4592425238
  0
LINE
  5
2E2
100
AcDbEntity
  8
0
100
AcDbLine
 62
7
  6
CONTINUOUS
 10
89.4107636549
 20
130.8115717384
 11
89.4456233934
 21
130.7302269186
  0
LWPOLYLINE
  5
2E3
100
AcDbEntity
  8
0
100
AcDbPolyline
 62
7
  6
CONTINUOUS
 90
11
 70
0
 10
90.0629543653
 20
129.1410458743
 10
90.0872336451
 20
129.0835384884
 10
90.1165182934
 20
129.0191754299
 10
90.1468788571
 20
128.957403028
 10
90.1782795584
 20
128.8982670403
 10
90.2107074368
 20
128.8418733852
 10
90.2442638353
 20
128.7881927555
 10
90.2789782727
 20
128.7373525151
 10
90.3149547342
 20
128.6893772775
 10
90.3520619703
 20
128.6445672968
 10
90.3799757577
 20
128.6137586637
  0
LINE
  5
2E4
100
AcDbEntity
  8
0
100
AcDbLine
 62
7
  6
CONTINUOUS
 10
89.3781454062
 20
130.8895243394
 11
89.4107636549
 21
130.8115717384
  0
LWPOLYLINE
  5
2E5
100
AcDbEntity
  8
0
100
AcDbPolyline
 62
7
  6
CONTINUOUS
 90
6
 70
0
 10
89.8375519881
 20
129.8394703882
 10
89.8564949996
 20
129.7885405176
 10
89.8787124852
 20
129.7257336637
 10
89.9002261635
 20
129.6613034013
 10
89.9209556985
 20
129.5953041419
 10
89.9408241976
 20
129.5277936505
  0
LWPOLYLINE
  5
2E6
100
AcDbEntity
  8
0
100
AcDbPolyline
 62
7
  6
CONTINUOUS
 90
7
 70
0
 10
89.9408241976
 20
129.5277936505
 10
89.9718983806
 20
129.4147242059
 10
89.9902411578
 20
129.3510683103
 10
90.0089272684
 20
129.2906828444
 10
90.0280655423
 20
129.2335974961
 10
90.0477232568
 20
129.1797303234
 10
90.0629580692
 20
129.1410380363
  0
LINE
  5
2E7
100
AcDbEntity
  8
RUNDUNGEN
100
AcDbLine
 62
7
  6
CONTINUOUS
 10
96.3862294421
 20
127.3461506429
 11
96.1790972001
 21
123.3938320219
  0
LWPOLYLINE
  5
2E8
100
AcDbEntity
  8
0
100
AcDbPolyline
 62
7
  6
CONTINUOUS
 90
7
 70
0
 10
89.5679355056
 20
130.4592425238
 10
89.6289354895
 20
130.3300120554
 10
89.6743581201
 20
130.2308202639
 10
89.7185638812
 20
130.1309397607
 10
89.7613346435
 20
130.0304977858
 10
89.8024604887
 20
129.9296181522
 10
89.8375527058
 20
129.83946911
  0
LINE
  5
2E9
100
AcDbEntity
  8
RUNDUNGEN
100
AcDbLine
 62
7
  6
CONTINUOUS
 10
98.1302879331
 20
130.2774014323
 11
98.1051015361
 21
129.9172191736
  0
LINE
  5
2EA
100
AcDbEntity
  8
0
100
AcDbLine
 62
7
  6
CONTINUOUS
 10
98.1051015361
 20
129.9172191736
 11
98.1946677458
 21
131.1980756466
  0
LWPOLYLINE
  5
2EB
100
AcDbEntity
  8
0
100
AcDbPolyline
 62
7
  6
CONTINUOUS
 90
7
 70
0
 10
97.336891781
 20
129.4156580425
 10
97.3679907921
 20
129.528796992
 10
97.3878747313
 20
129.5962930923
 10
97.4086188412
 20
129.6622768365
 10
97.4301461243
 20
129.7266905355
 10
97.4523762099
 20
129.7894798035
 10
97.4709773549
 20
129.8394701657
  0
LWPOLYLINE
  5
2EC
100
AcDbEntity
  8
0
100
AcDbPolyline
 62
7
  6
CONTINUOUS
 90
6
 70
0
 10
97.4709768307
 20
129.8394693795
 10
97.5064212447
 20
129.9305030197
 10
97.547554867
 20
130.0313610987
 10
97.5903327372
 20
130.1317849865
 10
97.6345452981
 20
130.2316501823
 10
97.6799731098
 20
130.3308273595
  0
LWPOLYLINE
  5
2ED
100
AcDbEntity
  8
0
100
AcDbPolyline
 62
7
  6
CONTINUOUS
 90
6
 70
0
 10
97.2456159497
 20
129.1411473324
 10
97.2611978459
 20
129.180758289
 10
97.280822385
 20
129.2346242769
 10
97.2999207365
 20
129.2916735065
 10
97.3185747921
 20
129.3520300989
 10
97.336891781
 20
129.4156580425
  0
LWPOLYLINE
  5
2EE
100
AcDbEntity
  8
0
100
AcDbPolyline
 62
7
  6
CONTINUOUS
 90
36
 70
0
 10
97.961403567
 20
130.9654892557
 10
97.9760615537
 20
131.0020748837
 10
97.9902724391
 20
131.0380074203
 10
98.0040391256
 20
131.0732835367
 10
98.0173654236
 20
131.1079037114
 10
98.0302564019
 20
131.1418712845
 10
98.0427155341
 20
131.1751862067
 10
98.054752268
 20
131.2078648034
 10
98.0663740206
 20
131.2399183999
 10
98.0775899814
 20
131.2713646683
 10
98.0884085568
 20
131.3022191684
 10
98.0988385872
 20
131.3325006658
 10
98.1088879322
 20
131.3622251701
 10
98.1185667708
 20
131.3914178085
 10
98.1278823752
 20
131.4200955223
 10
98.1368494153
 20
131.4483012077
 10
98.1454790641
 20
131.4760690609
 10
98.1537850548
 20
131.5034465645
 10
98.1617788528
 20
131.5304774065
 10
98.1694730152
 20
131.5572157331
 10
98.176883288
 20
131.5837342503
 10
98.1840045934
 20
131.6100384523
 10
98.1908370232
 20
131.6361579376
 10
98.1973775359
 20
131.6621163898
 10
98.203622193
 20
131.6879412691
 10
98.2095685447
 20
131.7136794618
 10
98.2152118212
 20
131.7393768327
 10
98.2205447259
 20
131.765097072
 10
98.2255635745
 20
131.7909350954
 10
98.2302351389
 20
131.8168886306
 10
98.2345362544
 20
131.8430031061
 10
98.2384178967
 20
131.8692365798
 10
98.2418375961
 20
131.8955425386
 10
98.2447447716
 20
131.921922572
 10
98.247091483
 20
131.9482504062
 10
98.2888623862
 20
132.5451217631
  0
LINE
  5
2EF
100
AcDbEntity
  8
0
100
AcDbLine
 62
7
  6
CONTINUOUS
 10
97.9307286284
 20
130.8903580382
 11
97.961403567
 21
130.9654892557
  0
LINE
  5
2F0
100
AcDbEntity
  8
RUNDUNGEN
100
AcDbLine
 62
7
  6
CONTINUOUS
 10
99.8016291603
 20
129.373717274
 11
99.8276637554
 21
130.6165958614
  0
LWPOLYLINE
  5
2F1
100
AcDbEntity
  8
RUNDUNGEN
100
AcDbPolyline
 62
7
  6
CONTINUOUS
 90
73
 70
0
 10
99.8276632385
 20
130.616569978
 10
99.8303409677
 20
130.6688334276
 10
99.8372320887
 20
130.7280973997
 10
99.8481558005
 20
130.7868058443
 10
99.862961753
 20
130.8445171571
 10
99.8814538437
 20
130.9009175394
 10
99.9033588425
 20
130.9556536633
 10
99.9283362954
 20
131.0083880198
 10
99.9559681019
 20
131.0587873471
 10
99.9856343995
 20
131.1063397912
 10
100.0171640322
 20
131.1513429619
 10
100.0502622136
 20
131.1938267395
 10
100.0848981658
 20
131.2341057255
 10
100.1211204519
 20
131.2724717365
 10
100.1588057775
 20
131.3089640543
 10
100.1979105753
 20
131.3436770451
 10
100.2384275146
 20
131.376703734
 10
100.2804333335
 20
131.4081676032
 10
100.3237970008
 20
131.4380117184
 10
100.3685353472
 20
131.4662804273
 10
100.4142896999
 20
131.4927884702
 10
100.4607067576
 20
131.5174091199
 10
100.5076141879
 20
131.5401441765
 10
100.5546918652
 20
131.5609440956
 10
100.6019836009
 20
131.5799298816
 10
100.6494620709
 20
131.597174269
 10
100.6971177967
 20
131.6127437689
 10
100.7449803061
 20
131.626705322
 10
100.7929853116
 20
131.6390877459
 10
100.8411038815
 20
131.6499270598
 10
100.8893002182
 20
131.6592528214
 10
100.9375445022
 20
131.6670925427
 10
100.9858209939
 20
131.6734718746
 10
101.0341146492
 20
131.678411832
 10
101.0824183487
 20
131.6819298385
 10
101.1307259813
 20
131.6840381054
 10
101.1790353464
 20
131.6847445219
 10
101.2273446991
 20
131.6840514003
 10
101.2756520793
 20
131.6819564867
 10
101.3239552706
 20
131.678451982
 10
101.3722480187
 20
131.6735257396
 10
101.4205230747
 20
131.6671604783
 10
101.4687655381
 20
131.659335229
 10
101.5169594878
 20
131.6500245108
 10
101.5650759788
 20
131.6392007001
 10
101.61307961
 20
131.626834186
 10
101.660942273
 20
131.6128887225
 10
101.7086004522
 20
131.5973351162
 10
101.7560832788
 20
131.5801065123
 10
101.80338113
 20
131.5611362749
 10
101.8504657409
 20
131.540352132
 10
101.8973796216
 20
131.517633669
 10
101.9438029059
 20
131.4930305543
 10
101.9895618161
 20
131.4665418557
 10
102.0343057998
 20
131.4382929957
 10
102.077677508
 20
131.408467994
 10
102.1196937378
 20
131.3770225403
 10
102.160224002
 20
131.3440126776
 10
102.1993429335
 20
131.3093167525
 10
102.2370417446
 20
131.2728432615
 10
102.2732763163
 20
131.2344991945
 10
102.3079216797
 20
131.1942482416
 10
102.3410297036
 20
131.1517964073
 10
102.372570132
 20
131.1068300489
 10
102.4022530036
 20
131.0593128564
 10
102.4299108743
 20
131.008939936
 10
102.4549202466
 20
130.9562260842
 10
102.4768614789
 20
130.9015050402
 10
102.4953925972
 20
130.845115675
 10
102.510239142
 20
130.787412356
 10
102.5212044163
 20
130.7287112231
 10
102.5281374215
 20
130.6694559846
 10
102.5308661592
 20
130.6165715971
  0
LWPOLYLINE
  5
2F2
100
AcDbEntity
  8
0
100
AcDbPolyline
 62
7
  6
CONTINUOUS
 90
11
 70
0
 10
97.6799731098
 20
130.3308273595
 10
97.7409835103
 20
130.4600704824
 10
97.7635997477
 20
130.5085331987
 10
97.78520791
 20
130.5555483955
 10
97.8059108613
 20
130.6012288462
 10
97.8257795233
 20
130.6456526115
 10
97.8448775242
 20
130.6889005959
 10
97.8632641772
 20
130.7310528715
 10
97.8809936273
 20
130.7721913213
 10
97.8981161024
 20
130.8123992254
 10
97.9307286284
 20
130.8903580382
  0
LINE
  5
2F3
100
AcDbEntity
  8
0
100
AcDbLine
 62
7
  6
CONTINUOUS
 10
90.3800396825
 20
128.6136919913
 11
90.3799854771
 21
128.6137494953
  0
LINE
  5
2F4
100
AcDbEntity
  8
RUNDUNGEN
100
AcDbLine
 62
7
  6
CONTINUOUS
 10
102.5308656671
 20
130.61659633
 11
102.5569002719
 21
129.373717274
  0
LINE
  5
2F5
100
AcDbEntity
  8
RUNDUNGEN
100
AcDbLine
 62
7
  6
CONTINUOUS
 10
103.8016291603
 20
129.373717274
 11
103.8276637554
 21
130.6165958614
  0
LWPOLYLINE
  5
2F6
100
AcDbEntity
  8
RUNDUNGEN
100
AcDbPolyline
 62
7
  6
CONTINUOUS
 90
73
 70
0
 10
103.8276632385
 20
130.616569978
 10
103.8303409677
 20
130.6688334276
 10
103.8372320887
 20
130.7280973997
 10
103.8481558005
 20
130.7868058443
 10
103.862961753
 20
130.8445171571
 10
103.8814538437
 20
130.9009175394
 10
103.9033588425
 20
130.9556536633
 10
103.9283362954
 20
131.0083880198
 10
103.9559681019
 20
131.0587873471
 10
103.9856343995
 20
131.1063397912
 10
104.0171640322
 20
131.1513429619
 10
104.0502622136
 20
131.1938267395
 10
104.0848981658
 20
131.2341057255
 10
104.1211204519
 20
131.2724717365
 10
104.1588057775
 20
131.3089640543
 10
104.1979105753
 20
131.3436770451
 10
104.2384275146
 20
131.376703734
 10
104.2804333335
 20
131.4081676032
 10
104.3237970008
 20
131.4380117184
 10
104.3685353472
 20
131.4662804273
 10
104.4142896999
 20
131.4927884702
 10
104.4607067576
 20
131.5174091199
 10
104.5076141879
 20
131.5401441765
 10
104.5546918652
 20
131.5609440956
 10
104.6019836009
 20
131.5799298816
 10
104.6494620709
 20
131.597174269
 10
104.6971177967
 20
131.6127437689
 10
104.7449803061
 20
131.626705322
 10
104.7929853116
 20
131.6390877459
 10
104.8411038815
 20
131.6499270598
 10
104.8893002182
 20
131.6592528214
 10
104.9375445022
 20
131.6670925427
 10
104.9858209939
 20
131.6734718746
 10
105.0341146492
 20
131.678411832
 10
105.0824183487
 20
131.6819298385
 10
105.1307259813
 20
131.6840381054
 10
105.1790353464
 20
131.6847445219
 10
105.2273446991
 20
131.6840514003
 10
105.2756520793
 20
131.6819564867
 10
105.3239552706
 20
131.678451982
 10
105.3722480187
 20
131.6735257396
 10
105.4205230747
 20
131.6671604783
 10
105.4687655381
 20
131.659335229
 10
105.5169594878
 20
131.6500245108
 10
105.5650759788
 20
131.6392007001
 10
105.61307961
 20
131.626834186
 10
105.660942273
 20
131.6128887225
 10
105.7086004522
 20
131.5973351162
 10
105.7560832788
 20
131.5801065123
 10
105.80338113
 20
131.5611362749
 10
105.8504657409
 20
131.540352132
 10
105.8973796216
 20
131.517633669
 10
105.9438029059
 20
131.4930305543
 10
105.9895618161
 20
131.4665418557
 10
106.0343057998
 20
131.4382929957
 10
106.077677508
 20
131.408467994
 10
106.1196937378
 20
131.3770225403
 10
106.160224002
 20
131.3440126776
 10
106.1993429335
 20
131.3093167525
 10
106.2370417446
 20
131.2728432615
 10
106.2732763163
 20
131.2344991945
 10
106.3079216797
 20
131.1942482416
 10
106.3410297036
 20
131.1517964073
 10
106.372570132
 20
131.1068300489
 10
106.4022530036
 20
131.0593128564
 10
106.4299108743
 20
131.008939936
 10
106.4549202466
 20
130.9562260842
 10
106.4768614789
 20
130.9015050402
 10
106.4953925972
 20
130.845115675
 10
106.510239142
 20
130.787412356
 10
106.5212044163
 20
130.7287112231
 10
106.5281374215
 20
130.6694559846
 10
106.5308661592
 20
130.6165715971
  0
LINE
  5
2F7
100
AcDbEntity
  8
RUNDUNGEN
100
AcDbLine
 62
7
  6
CONTINUOUS
 10
106.5308656695
 20
130.616596213
 11
106.5569002719
 21
129.373717274
  0
LWPOLYLINE
  5
2F8
100
AcDbEntity
  8
0
100
AcDbPolyline
 62
7
  6
CONTINUOUS
 90
11
 70
0
 10
96.9285660909
 20
128.6137730865
 10
96.9572274922
 20
128.6454396692
 10
96.994278981
 20
128.6902723643
 10
97.0302125395
 20
128.7382796818
 10
97.0648873976
 20
128.7891468226
 10
97.0984057024
 20
128.8428491715
 10
97.1307973912
 20
128.8992595536
 10
97.1621608488
 20
128.9584033399
 10
97.192491138
 20
129.0201914719
 10
97.2217407597
 20
129.0845559693
 10
97.2456236768
 20
129.1411653118
  0
LINE
  5
2F9
100
AcDbEntity
  8
0
100
AcDbLine
 62
7
  6
CONTINUOUS
 10
96.9285844408
 20
128.6137918958
 11
96.9285110186
 21
128.6137139894
  0
LWPOLYLINE
  5
2FA
100
AcDbEntity
  8
0
100
AcDbPolyline
 62
7
  6
CONTINUOUS
 90
37
 70
0
 10
108.1108151575
 20
131.9566581716
 10
108.1115508937
 20
131.9468108068
 10
108.1139267073
 20
131.9205104302
 10
108.1168584054
 20
131.8941639932
 10
108.1202993059
 20
131.867893163
 10
108.1241985031
 20
131.8416948287
 10
108.1285144985
 20
131.8156154938
 10
108.1331986266
 20
131.7896945895
 10
108.1382282112
 20
131.7638872127
 10
108.143570403
 20
131.7381950078
 10
108.1492217246
 20
131.7125236902
 10
108.1551750833
 20
131.686810035
 10
108.1614258694
 20
131.6610079934
 10
108.1679717757
 20
131.6350711652
 10
108.1748090099
 20
131.6089717894
 10
108.1819346704
 20
131.5826862601
 10
108.1893489535
 20
131.556185024
 10
108.1970469359
 20
131.5294622693
 10
108.2050443589
 20
131.5024457641
 10
108.2133537991
 20
131.4750814889
 10
108.221986785
 20
131.4473257928
 10
108.2309571092
 20
131.4191311913
 10
108.2402759659
 20
131.3904635589
 10
108.249958083
 20
131.3612799835
 10
108.2600106655
 20
131.3315638068
 10
108.2704438493
 20
131.3012901342
 10
108.2812654414
 20
131.2704431545
 10
108.2924842269
 20
131.2390043117
 10
108.3041085472
 20
131.2069582687
 10
108.3161475068
 20
131.1742875854
 10
108.3286085118
 20
131.1409810085
 10
108.3415009186
 20
131.1070224284
 10
108.3548283693
 20
131.0724114906
 10
108.3685960345
 20
131.0371445908
 10
108.3828078909
 20
131.0012208646
 10
108.3974670048
 20
130.9646432979
 10
108.4281454062
 20
130.8895243394
  0
LINE
  5
2FB
100
AcDbEntity
  8
0
100
AcDbLine
 62
7
  6
CONTINUOUS
 10
108.2534278962
 20
129.9172191736
 11
108.163861657
 21
131.1980760687
  0
LINE
  5
2FC
100
AcDbEntity
  8
0
100
AcDbLine
 62
7
  6
CONTINUOUS
 10
108.110816932
 20
131.9566536055
 11
108.069667046
 21
132.5451217631
  0
LINE
  5
2FD
100
AcDbEntity
  8
RUNDUNGEN
100
AcDbLine
 62
7
  6
CONTINUOUS
 10
110.1794322321
 20
123.3938320219
 11
109.9722999902
 21
127.3461506429
  0
LWPOLYLINE
  5
2FE
100
AcDbEntity
  8
0
100
AcDbPolyline
 62
7
  6
CONTINUOUS
 90
7
 70
0
 10
108.6179355056
 20
130.4592425238
 10
108.6789354895
 20
130.3300120554
 10
108.7243581201
 20
130.2308202639
 10
108.7685638812
 20
130.1309397607
 10
108.8113346435
 20
130.0304977858
 10
108.8524604887
 20
129.9296181522
 10
108.8875527058
 20
129.83946911
  0
LWPOLYLINE
  5
2FF
100
AcDbEntity
  8
0
100
AcDbPolyline
 62
7
  6
CONTINUOUS
 90
7
 70
0
 10
108.4956233934
 20
130.7302269186
 10
108.5140145554
 20
130.6880743197
 10
108.5331174398
 20
130.6448256077
 10
108.5529912927
 20
130.600400975
 10
108.573699707
 20
130.5547196777
 10
108.5953135479
 20
130.5077042429
 10
108.6179355056
 20
130.4592425238
  0
LINE
  5
300
100
AcDbEntity
  8
0
100
AcDbLine
 62
7
  6
CONTINUOUS
 10
108.4607636549
 20
130.8115717384
 11
108.4956233934
 21
130.7302269186
  0
LWPOLYLINE
  5
301
100
AcDbEntity
  8
0
100
AcDbPolyline
 62
7
  6
CONTINUOUS
 90
11
 70
0
 10
109.1129543653
 20
129.1410458743
 10
109.1372336451
 20
129.0835384884
 10
109.1665182934
 20
129.0191754299
 10
109.1968788571
 20
128.957403028
 10
109.2282795584
 20
128.8982670403
 10
109.2607074368
 20
128.8418733852
 10
109.2942638353
 20
128.7881927555
 10
109.3289782727
 20
128.7373525151
 10
109.3649547342
 20
128.6893772775
 10
109.4020619703
 20
128.6445672968
 10
109.4299757587
 20
128.6137586627
  0
LINE
  5
302
100
AcDbEntity
  8
0
100
AcDbLine
 62
7
  6
CONTINUOUS
 10
108.4281454062
 20
130.8895243394
 11
108.4607636549
 21
130.8115717384
  0
LWPOLYLINE
  5
303
100
AcDbEntity
  8
0
100
AcDbPolyline
 62
7
  6
CONTINUOUS
 90
6
 70
0
 10
108.8875519881
 20
129.8394703882
 10
108.9064949996
 20
129.7885405176
 10
108.9287124852
 20
129.7257336637
 10
108.9502261635
 20
129.6613034013
 10
108.9709556985
 20
129.5953041419
 10
108.9908241976
 20
129.5277936505
  0
LWPOLYLINE
  5
304
100
AcDbEntity
  8
0
100
AcDbPolyline
 62
7
  6
CONTINUOUS
 90
7
 70
0
 10
108.9908241976
 20
129.5277936505
 10
109.0218983806
 20
129.4147242059
 10
109.0402411578
 20
129.3510683103
 10
109.0589272684
 20
129.2906828444
 10
109.0780655423
 20
129.2335974961
 10
109.0977232568
 20
129.1797303234
 10
109.1129580692
 20
129.1410380363
  0
LINE
  5
305
100
AcDbEntity
  8
RUNDUNGEN
100
AcDbLine
 62
7
  6
CONTINUOUS
 10
115.4362294421
 20
127.3461506429
 11
115.2290972001
 21
123.3938320219
  0
LINE
  5
306
100
AcDbEntity
  8
0
100
AcDbLine
 62
7
  6
CONTINUOUS
 10
117.2446673952
 20
131.1980706329
 11
117.1551015361
 21
129.9172191736
  0
LWPOLYLINE
  5
307
100
AcDbEntity
  8
0
100
AcDbPolyline
 62
7
  6
CONTINUOUS
 90
7
 70
0
 10
116.386891781
 20
129.4156580425
 10
116.4179907921
 20
129.528796992
 10
116.4378747313
 20
129.5962930923
 10
116.4586188412
 20
129.6622768365
 10
116.4801461243
 20
129.7266905355
 10
116.5023762099
 20
129.7894798035
 10
116.5209773549
 20
129.8394701657
  0
LWPOLYLINE
  5
308
100
AcDbEntity
  8
0
100
AcDbPolyline
 62
7
  6
CONTINUOUS
 90
6
 70
0
 10
116.5209768307
 20
129.8394693795
 10
116.5564212447
 20
129.9305030197
 10
116.597554867
 20
130.0313610987
 10
116.6403327372
 20
130.1317849865
 10
116.6845452981
 20
130.2316501823
 10
116.7299731098
 20
130.3308273595
  0
LWPOLYLINE
  5
309
100
AcDbEntity
  8
0
100
AcDbPolyline
 62
7
  6
CONTINUOUS
 90
6
 70
0
 10
116.2956159497
 20
129.1411473324
 10
116.3111978459
 20
129.180758289
 10
116.330822385
 20
129.2346242769
 10
116.3499207365
 20
129.2916735065
 10
116.3685747921
 20
129.3520300989
 10
116.386891781
 20
129.4156580425
  0
LWPOLYLINE
  5
30A
100
AcDbEntity
  8
0
100
AcDbPolyline
 62
7
  6
CONTINUOUS
 90
36
 70
0
 10
117.011403567
 20
130.9654892557
 10
117.0260615537
 20
131.0020748837
 10
117.0402724391
 20
131.0380074203
 10
117.0540391256
 20
131.0732835367
 10
117.0673654236
 20
131.1079037114
 10
117.0802564019
 20
131.1418712845
 10
117.0927155341
 20
131.1751862067
 10
117.104752268
 20
131.2078648034
 10
117.1163740206
 20
131.2399183999
 10
117.1275899814
 20
131.2713646683
 10
117.1384085568
 20
131.3022191684
 10
117.1488385872
 20
131.3325006658
 10
117.1588879322
 20
131.3622251701
 10
117.1685667708
 20
131.3914178085
 10
117.1778823752
 20
131.4200955223
 10
117.1868494153
 20
131.4483012077
 10
117.1954790641
 20
131.4760690609
 10
117.2037850548
 20
131.5034465645
 10
117.2117788528
 20
131.5304774065
 10
117.2194730152
 20
131.5572157331
 10
117.226883288
 20
131.5837342503
 10
117.2340045934
 20
131.6100384523
 10
117.2408370232
 20
131.6361579376
 10
117.2473775359
 20
131.6621163898
 10
117.253622193
 20
131.6879412691
 10
117.2595685447
 20
131.7136794618
 10
117.2652118212
 20
131.7393768327
 10
117.2705447259
 20
131.765097072
 10
117.2755635745
 20
131.7909350954
 10
117.2802351389
 20
131.8168886306
 10
117.2845362544
 20
131.8430031061
 10
117.2884178967
 20
131.8692365798
 10
117.2918375961
 20
131.8955425386
 10
117.2947447716
 20
131.921922572
 10
117.297091483
 20
131.9482504062
 10
117.3388623862
 20
132.5451217631
  0
LINE
  5
30B
100
AcDbEntity
  8
0
100
AcDbLine
 62
7
  6
CONTINUOUS
 10
116.9807286284
 20
130.8903580382
 11
117.011403567
 21
130.9654892557
  0
LINE
  5
30C
100
AcDbEntity
  8
0
100
AcDbLine
 62
7
  6
CONTINUOUS
 10
116.9481161024
 20
130.8123992254
 11
116.9807286284
 21
130.8903580382
  0
LWPOLYLINE
  5
30D
100
AcDbEntity
  8
0
100
AcDbPolyline
 62
7
  6
CONTINUOUS
 90
9
 70
0
 10
116.7299731098
 20
130.3308273595
 10
116.7909835103
 20
130.4600704824
 10
116.8135997477
 20
130.5085331987
 10
116.83520791
 20
130.5555483955
 10
116.8559108613
 20
130.6012288462
 10
116.8757795233
 20
130.6456526115
 10
116.8948775242
 20
130.6889005959
 10
116.9132641772
 20
130.7310528715
 10
116.9481161024
 20
130.8123992254
  0
LINE
  5
30E
100
AcDbEntity
  8
0
100
AcDbLine
 62
7
  6
CONTINUOUS
 10
109.430040603
 20
128.6136904392
 11
109.4299863953
 21
128.6137479537
  0
LINE
  5
30F
100
AcDbEntity
  8
RUNDUNGEN
100
AcDbLine
 62
7
  6
CONTINUOUS
 10
118.8516291603
 20
129.373717274
 11
118.8776637554
 21
130.6165958614
  0
LWPOLYLINE
  5
310
100
AcDbEntity
  8
RUNDUNGEN
100
AcDbPolyline
 62
7
  6
CONTINUOUS
 90
73
 70
0
 10
118.8776632385
 20
130.616569978
 10
118.8803409677
 20
130.6688334276
 10
118.8872320887
 20
130.7280973997
 10
118.8981558005
 20
130.7868058443
 10
118.912961753
 20
130.8445171571
 10
118.9314538437
 20
130.9009175394
 10
118.9533588425
 20
130.9556536633
 10
118.9783362954
 20
131.0083880198
 10
119.0059681019
 20
131.0587873471
 10
119.0356343995
 20
131.1063397912
 10
119.0671640322
 20
131.1513429619
 10
119.1002622136
 20
131.1938267395
 10
119.1348981658
 20
131.2341057255
 10
119.1711204519
 20
131.2724717365
 10
119.2088057775
 20
131.3089640543
 10
119.2479105753
 20
131.3436770451
 10
119.2884275146
 20
131.376703734
 10
119.3304333335
 20
131.4081676032
 10
119.3737970008
 20
131.4380117184
 10
119.4185353472
 20
131.4662804273
 10
119.4642896999
 20
131.4927884702
 10
119.5107067576
 20
131.5174091199
 10
119.5576141879
 20
131.5401441765
 10
119.6046918652
 20
131.5609440956
 10
119.6519836009
 20
131.5799298816
 10
119.6994620709
 20
131.597174269
 10
119.7471177967
 20
131.6127437689
 10
119.7949803061
 20
131.626705322
 10
119.8429853116
 20
131.6390877459
 10
119.8911038815
 20
131.6499270598
 10
119.9393002182
 20
131.6592528214
 10
119.9875445022
 20
131.6670925427
 10
120.0358209939
 20
131.6734718746
 10
120.0841146492
 20
131.678411832
 10
120.1324183487
 20
131.6819298385
 10
120.1807259813
 20
131.6840381054
 10
120.2290353464
 20
131.6847445219
 10
120.2773446991
 20
131.6840514003
 10
120.3256520793
 20
131.6819564867
 10
120.3739552706
 20
131.678451982
 10
120.4222480187
 20
131.6735257396
 10
120.4705230747
 20
131.6671604783
 10
120.5187655381
 20
131.659335229
 10
120.5669594878
 20
131.6500245108
 10
120.6150759788
 20
131.6392007001
 10
120.66307961
 20
131.626834186
 10
120.710942273
 20
131.6128887225
 10
120.7586004522
 20
131.5973351162
 10
120.8060832788
 20
131.5801065123
 10
120.85338113
 20
131.5611362749
 10
120.9004657409
 20
131.540352132
 10
120.9473796216
 20
131.517633669
 10
120.9938029059
 20
131.4930305543
 10
121.0395618161
 20
131.4665418557
 10
121.0843057998
 20
131.4382929957
 10
121.127677508
 20
131.408467994
 10
121.1696937378
 20
131.3770225403
 10
121.210224002
 20
131.3440126776
 10
121.2493429335
 20
131.3093167525
 10
121.2870417446
 20
131.2728432615
 10
121.3232763163
 20
131.2344991945
 10
121.3579216797
 20
131.1942482416
 10
121.3910297036
 20
131.1517964073
 10
121.422570132
 20
131.1068300489
 10
121.4522530036
 20
131.0593128564
 10
121.4799108743
 20
131.008939936
 10
121.5049202466
 20
130.9562260842
 10
121.5268614789
 20
130.9015050402
 10
121.5453925972
 20
130.845115675
 10
121.560239142
 20
130.787412356
 10
121.5712044163
 20
130.7287112231
 10
121.5781374215
 20
130.6694559846
 10
121.5808661592
 20
130.6165715971
  0
LWPOLYLINE
  5
311
100
AcDbEntity
  8
0
100
AcDbPolyline
 62
7
  6
CONTINUOUS
 90
11
 70
0
 10
115.9785660902
 20
128.6137730858
 10
116.0072274922
 20
128.6454396692
 10
116.044278981
 20
128.6902723643
 10
116.0802125395
 20
128.7382796818
 10
116.1148873976
 20
128.7891468226
 10
116.1484057024
 20
128.8428491715
 10
116.1807973912
 20
128.8992595536
 10
116.2121608488
 20
128.9584033399
 10
116.242491138
 20
129.0201914719
 10
116.2717407597
 20
129.0845559693
 10
116.2956236768
 20
129.1411653118
  0
LINE
  5
312
100
AcDbEntity
  8
0
100
AcDbLine
 62
7
  6
CONTINUOUS
 10
115.9785839894
 20
128.6137914167
 11
115.978510565
 21
128.6137135083
  0
LINE
  5
313
100
AcDbEntity
  8
RUNDUNGEN
100
AcDbLine
 62
7
  6
CONTINUOUS
 10
121.5808656671
 20
130.61659633
 11
121.6069002719
 21
129.373717274
  0
LINE
  5
314
100
AcDbEntity
  8
02___PRT_ALL_AXES
100
AcDbLine
 62
7
  6
CONTINUOUS
 10
152.8297824328
 20
122.92
 11
148.7787469995
 21
122.92
  0
LINE
  5
315
100
AcDbEntity
  8
02___PRT_ALL_AXES
100
AcDbLine
 62
7
  6
CONTINUOUS
 10
133.7797824328
 20
122.92
 11
129.7287469995
 21
122.92
  0
LINE
  5
316
100
AcDbEntity
  8
02___PRT_ALL_AXES
100
AcDbLine
 62
7
  6
CONTINUOUS
 10
114.7297824328
 20
122.92
 11
110.6787469995
 21
122.92
  0
LINE
  5
317
100
AcDbEntity
  8
02___PRT_ALL_AXES
100
AcDbLine
 62
7
  6
CONTINUOUS
 10
95.6797824328
 20
122.92
 11
91.6287469995
 21
122.92
  0
LINE
  5
318
100
AcDbEntity
  8
RUNDUNGEN
100
AcDbLine
 62
7
  6
CONTINUOUS
 10
89.5604568073
 20
122.92
 11
164.4230726249
 21
122.92
  0
LINE
  5
319
100
AcDbEntity
  8
RUNDUNGEN
100
AcDbLine
 62
7
  6
CONTINUOUS
 10
122.8516291603
 20
129.373717274
 11
122.8776637554
 21
130.6165958614
  0
LWPOLYLINE
  5
31A
100
AcDbEntity
  8
RUNDUNGEN
100
AcDbPolyline
 62
7
  6
CONTINUOUS
 90
73
 70
0
 10
122.8776632385
 20
130.616569978
 10
122.8803409677
 20
130.6688334276
 10
122.8872320887
 20
130.7280973997
 10
122.8981558005
 20
130.7868058443
 10
122.912961753
 20
130.8445171571
 10
122.9314538437
 20
130.9009175394
 10
122.9533588425
 20
130.9556536633
 10
122.9783362954
 20
131.0083880198
 10
123.0059681019
 20
131.0587873471
 10
123.0356343995
 20
131.1063397912
 10
123.0671640322
 20
131.1513429619
 10
123.1002622136
 20
131.1938267395
 10
123.1348981658
 20
131.2341057255
 10
123.1711204519
 20
131.2724717365
 10
123.2088057775
 20
131.3089640543
 10
123.2479105753
 20
131.3436770451
 10
123.2884275146
 20
131.376703734
 10
123.3304333335
 20
131.4081676032
 10
123.3737970008
 20
131.4380117184
 10
123.4185353472
 20
131.4662804273
 10
123.4642896999
 20
131.4927884702
 10
123.5107067576
 20
131.5174091199
 10
123.5576141879
 20
131.5401441765
 10
123.6046918652
 20
131.5609440956
 10
123.6519836009
 20
131.5799298816
 10
123.6994620709
 20
131.597174269
 10
123.7471177967
 20
131.6127437689
 10
123.7949803061
 20
131.626705322
 10
123.8429853116
 20
131.6390877459
 10
123.8911038815
 20
131.6499270598
 10
123.9393002182
 20
131.6592528214
 10
123.9875445022
 20
131.6670925427
 10
124.0358209939
 20
131.6734718746
 10
124.0841146492
 20
131.678411832
 10
124.1324183487
 20
131.6819298385
 10
124.1807259813
 20
131.6840381054
 10
124.2290353464
 20
131.6847445219
 10
124.2773446991
 20
131.6840514003
 10
124.3256520793
 20
131.6819564867
 10
124.3739552706
 20
131.678451982
 10
124.4222480187
 20
131.6735257396
 10
124.4705230747
 20
131.6671604783
 10
124.5187655381
 20
131.659335229
 10
124.5669594878
 20
131.6500245108
 10
124.6150759788
 20
131.6392007001
 10
124.66307961
 20
131.626834186
 10
124.710942273
 20
131.6128887225
 10
124.7586004522
 20
131.5973351162
 10
124.8060832788
 20
131.5801065123
 10
124.85338113
 20
131.5611362749
 10
124.9004657409
 20
131.540352132
 10
124.9473796216
 20
131.517633669
 10
124.9938029059
 20
131.4930305543
 10
125.0395618161
 20
131.4665418557
 10
125.0843057998
 20
131.4382929957
 10
125.127677508
 20
131.408467994
 10
125.1696937378
 20
131.3770225403
 10
125.210224002
 20
131.3440126776
 10
125.2493429335
 20
131.3093167525
 10
125.2870417446
 20
131.2728432615
 10
125.3232763163
 20
131.2344991945
 10
125.3579216797
 20
131.1942482416
 10
125.3910297036
 20
131.1517964073
 10
125.422570132
 20
131.1068300489
 10
125.4522530036
 20
131.0593128564
 10
125.4799108743
 20
131.008939936
 10
125.5049202466
 20
130.9562260842
 10
125.5268614789
 20
130.9015050402
 10
125.5453925972
 20
130.845115675
 10
125.560239142
 20
130.787412356
 10
125.5712044163
 20
130.7287112231
 10
125.5781374215
 20
130.6694559846
 10
125.5808661592
 20
130.6165715971
  0
LINE
  5
31B
100
AcDbEntity
  8
RUNDUNGEN
100
AcDbLine
 62
7
  6
CONTINUOUS
 10
154.4846571907
 20
129.0890574638
 11
154.5034383337
 21
129.0917773441
  0
LWPOLYLINE
  5
31C
100
AcDbEntity
  8
RUNDUNGEN
100
AcDbPolyline
 62
7
  6
CONTINUOUS
 90
5
 70
0
 10
89.98559802
 20
129.0874609015
 10
90.0058062783
 20
129.085338864
 10
90.0376304578
 20
129.0838780134
 10
90.0705004177
 20
129.0846222543
 10
90.0861899254
 20
129.0860106206
  0
LINE
  5
31D
100
AcDbEntity
  8
RUNDUNGEN
100
AcDbLine
 62
7
  6
CONTINUOUS
 10
89.9570547575
 20
129.0914249042
 11
89.9560852137
 21
129.0915436211
  0
LINE
  5
31E
100
AcDbEntity
  8
RUNDUNGEN
100
AcDbLine
 62
7
  6
CONTINUOUS
 10
89.9735493837
 20
129.0890766505
 11
89.9854077829
 21
129.0874844905
  0
LWPOLYLINE
  5
31F
100
AcDbEntity
  8
RUNDUNGEN
100
AcDbPolyline
 62
7
  6
CONTINUOUS
 90
3
 70
0
 10
89.9560852137
 20
129.0915436211
 10
89.9579582406
 20
129.0912798207
 10
89.9735493837
 20
129.0890766505
  0
LINE
  5
320
100
AcDbEntity
  8
RUNDUNGEN
100
AcDbLine
 62
7
  6
CONTINUOUS
 10
125.5808656695
 20
130.616596213
 11
125.6069002719
 21
129.373717274
  0
LINE
  5
321
100
AcDbEntity
  8
RUNDUNGEN
100
AcDbLine
 62
7
  6
CONTINUOUS
 10
135.4346571907
 20
129.0890574638
 11
135.4534383337
 21
129.0917773441
  0
LINE
  5
322
100
AcDbEntity
  8
02___PRT_ALL_AXES
100
AcDbLine
 62
7
  6
CENTER
 10
166.2367352151
 20
128.0
 11
154.4217942171
 21
128.0
  0
LINE
  5
323
100
AcDbEntity
  8
02___PRT_ALL_AXES
100
AcDbLine
 62
7
  6
CENTER
 10
87.7467817142
 20
128.0
 11
99.5617477181
 21
128.0
  0
LWPOLYLINE
  5
324
100
AcDbEntity
  8
RUNDUNGEN
100
AcDbPolyline
 62
7
  6
CONTINUOUS
 90
6
 70
0
 10
97.2223074043
 20
129.0858990789
 10
97.2372854188
 20
129.0846733376
 10
97.2620335769
 20
129.0838647852
 10
97.2862314043
 20
129.0843034721
 10
97.3099237412
 20
129.0859830688
 10
97.3232457176
 20
129.0875006031
  0
LWPOLYLINE
  5
325
100
AcDbEntity
  8
RUNDUNGEN
100
AcDbPolyline
 62
7
  6
CONTINUOUS
 90
6
 70
0
 10
116.2723074043
 20
129.0858990789
 10
116.2872854188
 20
129.0846733376
 10
116.3120335769
 20
129.0838647852
 10
116.3362314043
 20
129.0843034721
 10
116.3599237412
 20
129.0859830688
 10
116.3732457176
 20
129.0875006031
  0
LWPOLYLINE
  5
326
100
AcDbEntity
  8
RUNDUNGEN
100
AcDbPolyline
 62
7
  6
CONTINUOUS
 90
5
 70
0
 10
109.0071518359
 20
129.0915375709
 10
109.0063805816
 20
129.0916216705
 10
109.0054437824
 20
129.0917304529
 10
109.0051628457
 20
129.0917651964
 10
109.0054863469
 20
129.0917222202
  0
LWPOLYLINE
  5
327
100
AcDbEntity
  8
RUNDUNGEN
100
AcDbPolyline
 62
7
  6
CONTINUOUS
 90
6
 70
0
 10
109.0353726164
 20
129.0874890581
 10
109.0478056798
 20
129.0860608895
 10
109.0715116434
 20
129.0843350916
 10
109.0957214387
 20
129.0838535293
 10
109.1204786014
 20
129.0846218888
 10
109.1362417988
 20
129.0858877544
  0
LINE
  5
328
100
AcDbEntity
  8
RUNDUNGEN
100
AcDbLine
 62
7
  6
CONTINUOUS
 10
109.0054863469
 20
129.0917222202
 11
109.0077977514
 21
129.0913983522
  0
LINE
  5
329
100
AcDbEntity
  8
RUNDUNGEN
100
AcDbLine
 62
7
  6
CONTINUOUS
 10
109.0077977514
 20
129.0913983522
 11
109.0239619665
 21
129.0890446419
  0
LWPOLYLINE
  5
32A
100
AcDbEntity
  8
0
100
AcDbPolyline
 62
7
  6
CONTINUOUS
 90
37
 70
0
 10
127.1608151575
 20
131.9566581716
 10
127.1615508937
 20
131.9468108068
 10
127.1639267073
 20
131.9205104302
 10
127.1668584054
 20
131.8941639932
 10
127.1702993059
 20
131.867893163
 10
127.1741985031
 20
131.8416948287
 10
127.1785144985
 20
131.8156154938
 10
127.1831986266
 20
131.7896945895
 10
127.1882282112
 20
131.7638872127
 10
127.193570403
 20
131.7381950078
 10
127.1992217246
 20
131.7125236902
 10
127.2051750833
 20
131.686810035
 10
127.2114258694
 20
131.6610079934
 10
127.2179717757
 20
131.6350711652
 10
127.2248090099
 20
131.6089717894
 10
127.2319346704
 20
131.5826862601
 10
127.2393489535
 20
131.556185024
 10
127.2470469359
 20
131.5294622693
 10
127.2550443589
 20
131.5024457641
 10
127.2633537991
 20
131.4750814889
 10
127.271986785
 20
131.4473257928
 10
127.2809571092
 20
131.4191311913
 10
127.2902759659
 20
131.3904635589
 10
127.299958083
 20
131.3612799835
 10
127.3100106655
 20
131.3315638068
 10
127.3204438493
 20
131.3012901342
 10
127.3312654414
 20
131.2704431545
 10
127.3424842269
 20
131.2390043117
 10
127.3541085472
 20
131.2069582687
 10
127.3661475068
 20
131.1742875854
 10
127.3786085118
 20
131.1409810085
 10
127.3915009186
 20
131.1070224284
 10
127.4048283693
 20
131.0724114906
 10
127.4185960345
 20
131.0371445908
 10
127.4328078909
 20
131.0012208646
 10
127.4474670048
 20
130.9646432979
 10
127.4781454062
 20
130.8895243394
  0
LINE
  5
32B
100
AcDbEntity
  8
0
100
AcDbLine
 62
7
  6
CONTINUOUS
 10
127.3034278962
 20
129.9172191736
 11
127.2138620371
 21
131.1980706329
  0
LINE
  5
32C
100
AcDbEntity
  8
0
100
AcDbLine
 62
7
  6
CONTINUOUS
 10
127.160816932
 20
131.9566536055
 11
127.119667046
 21
132.5451217631
  0
LINE
  5
32D
100
AcDbEntity
  8
RUNDUNGEN
100
AcDbLine
 62
7
  6
CONTINUOUS
 10
129.2294322321
 20
123.3938320219
 11
129.0222999902
 21
127.3461506429
  0
LINE
  5
32E
100
AcDbEntity
  8
RUNDUNGEN
100
AcDbLine
 62
7
  6
CONTINUOUS
 10
116.3846571907
 20
129.0890574638
 11
116.4034383337
 21
129.0917773441
  0
LINE
  5
32F
100
AcDbEntity
  8
0
100
AcDbLine
 62
7
  6
CONTINUOUS
 10
164.5305958248
 20
129.08
 11
164.006834477
 21
129.08
  0
LINE
  5
330
100
AcDbEntity
  8
RUNDUNGEN
100
AcDbLine
 62
7
  6
CONTINUOUS
 10
164.5305958248
 20
129.08
 11
163.9346591204
 21
129.08
  0
LINE
  5
331
100
AcDbEntity
  8
0
100
AcDbLine
 62
7
  6
CONTINUOUS
 10
160.6516949553
 20
129.08
 11
160.006834477
 21
129.08
  0
LINE
  5
332
100
AcDbEntity
  8
RUNDUNGEN
100
AcDbLine
 62
7
  6
CONTINUOUS
 10
160.7238703046
 20
129.08
 11
159.9346591204
 21
129.08
  0
LINE
  5
333
100
AcDbEntity
  8
RUNDUNGEN
100
AcDbLine
 62
7
  6
CONTINUOUS
 10
156.7238703046
 20
129.08
 11
155.6628169531
 21
129.08
  0
LINE
  5
334
100
AcDbEntity
  8
RUNDUNGEN
100
AcDbLine
 62
7
  6
CONTINUOUS
 10
147.1989003046
 20
129.08
 11
147.1278625955
 21
129.08
  0
LINE
  5
335
100
AcDbEntity
  8
RUNDUNGEN
100
AcDbLine
 62
7
  6
CONTINUOUS
 10
145.9457133131
 20
129.08
 11
144.8846591204
 21
129.08
  0
LINE
  5
336
100
AcDbEntity
  8
0
100
AcDbLine
 62
7
  6
CONTINUOUS
 10
141.6016949553
 20
129.08
 11
140.956834477
 21
129.08
  0
LINE
  5
337
100
AcDbEntity
  8
RUNDUNGEN
100
AcDbLine
 62
7
  6
CONTINUOUS
 10
141.6738703046
 20
129.08
 11
140.8846591204
 21
129.08
  0
LINE
  5
338
100
AcDbEntity
  8
RUNDUNGEN
100
AcDbLine
 62
7
  6
CONTINUOUS
 10
137.6738703046
 20
129.08
 11
136.6128169531
 21
129.08
  0
LINE
  5
339
100
AcDbEntity
  8
RUNDUNGEN
100
AcDbLine
 62
7
  6
CONTINUOUS
 10
128.1489003046
 20
129.08
 11
128.0778625955
 21
129.08
  0
LINE
  5
33A
100
AcDbEntity
  8
RUNDUNGEN
100
AcDbLine
 62
7
  6
CONTINUOUS
 10
126.8957133131
 20
129.08
 11
125.8346591204
 21
129.08
  0
LINE
  5
33B
100
AcDbEntity
  8
0
100
AcDbLine
 62
7
  6
CONTINUOUS
 10
122.5516949553
 20
129.08
 11
121.906834477
 21
129.08
  0
LINE
  5
33C
100
AcDbEntity
  8
RUNDUNGEN
100
AcDbLine
 62
7
  6
CONTINUOUS
 10
122.6238708695
 20
129.08
 11
121.8346591204
 21
129.08
  0
LINE
  5
33D
100
AcDbEntity
  8
RUNDUNGEN
100
AcDbLine
 62
7
  6
CONTINUOUS
 10
118.6238703046
 20
129.08
 11
117.562816953
 21
129.08
  0
LINE
  5
33E
100
AcDbEntity
  8
RUNDUNGEN
100
AcDbLine
 62
7
  6
CONTINUOUS
 10
109.0989003046
 20
129.08
 11
109.0278625955
 21
129.08
  0
LINE
  5
33F
100
AcDbEntity
  8
RUNDUNGEN
100
AcDbLine
 62
7
  6
CONTINUOUS
 10
107.845713313
 20
129.08
 11
106.7846591204
 21
129.08
  0
LINE
  5
340
100
AcDbEntity
  8
0
100
AcDbLine
 62
7
  6
CONTINUOUS
 10
103.5016949553
 20
129.08
 11
102.856834477
 21
129.08
  0
LINE
  5
341
100
AcDbEntity
  8
RUNDUNGEN
100
AcDbLine
 62
7
  6
CONTINUOUS
 10
103.5738708695
 20
129.08
 11
102.7846591204
 21
129.08
  0
LINE
  5
342
100
AcDbEntity
  8
RUNDUNGEN
100
AcDbLine
 62
7
  6
CONTINUOUS
 10
89.4529336074
 20
129.08
 11
90.0489003046
 21
129.08
  0
LINE
  5
343
100
AcDbEntity
  8
RUNDUNGEN
100
AcDbLine
 62
7
  6
CONTINUOUS
 10
97.2596891204
 20
129.08
 11
99.5738703046
 21
129.08
  0
LINE
  5
344
100
AcDbEntity
  8
0
100
AcDbLine
 62
7
  6
CONTINUOUS
 10
106.856834477
 20
129.08
 11
108.7539586698
 21
129.08
  0
LINE
  5
345
100
AcDbEntity
  8
RUNDUNGEN
100
AcDbLine
 62
7
  6
CONTINUOUS
 10
108.7539586698
 20
129.08
 11
109.0267249706
 21
129.08
  0
LINE
  5
346
100
AcDbEntity
  8
RUNDUNGEN
100
AcDbLine
 62
7
  6
CONTINUOUS
 10
116.3096891204
 20
129.08
 11
116.6545708123
 21
129.08
  0
LINE
  5
347
100
AcDbEntity
  8
0
100
AcDbLine
 62
7
  6
CONTINUOUS
 10
116.6545708123
 20
129.08
 11
118.5516949553
 21
129.08
  0
LINE
  5
348
100
AcDbEntity
  8
0
100
AcDbLine
 62
7
  6
CONTINUOUS
 10
125.906834477
 20
129.08
 11
127.8039586698
 21
129.08
  0
LINE
  5
349
100
AcDbEntity
  8
RUNDUNGEN
100
AcDbLine
 62
7
  6
CONTINUOUS
 10
127.8039586698
 20
129.08
 11
128.0767249706
 21
129.08
  0
LINE
  5
34A
100
AcDbEntity
  8
RUNDUNGEN
100
AcDbLine
 62
7
  6
CONTINUOUS
 10
135.3596891204
 20
129.08
 11
135.7045708123
 21
129.08
  0
LINE
  5
34B
100
AcDbEntity
  8
0
100
AcDbLine
 62
7
  6
CONTINUOUS
 10
135.7045708123
 20
129.08
 11
137.6016949553
 21
129.08
  0
LINE
  5
34C
100
AcDbEntity
  8
0
100
AcDbLine
 62
7
  6
CONTINUOUS
 10
144.956834477
 20
129.08
 11
146.8539586698
 21
129.08
  0
LINE
  5
34D
100
AcDbEntity
  8
RUNDUNGEN
100
AcDbLine
 62
7
  6
CONTINUOUS
 10
146.8539586698
 20
129.08
 11
147.1267249706
 21
129.08
  0
LINE
  5
34E
100
AcDbEntity
  8
RUNDUNGEN
100
AcDbLine
 62
7
  6
CONTINUOUS
 10
154.4096891204
 20
129.08
 11
154.7545708123
 21
129.08
  0
LINE
  5
34F
100
AcDbEntity
  8
0
100
AcDbLine
 62
7
  6
CONTINUOUS
 10
154.7545708123
 20
129.08
 11
156.6516949553
 21
129.08
  0
LWPOLYLINE
  5
350
100
AcDbEntity
  8
RUNDUNGEN
100
AcDbPolyline
 62
7
  6
CONTINUOUS
 90
6
 70
0
 10
135.3223074043
 20
129.0858990789
 10
135.3372854188
 20
129.0846733376
 10
135.3620335769
 20
129.0838647852
 10
135.3862314043
 20
129.0843034721
 10
135.4099237412
 20
129.0859830688
 10
135.4232457176
 20
129.0875006031
  0
LWPOLYLINE
  5
351
100
AcDbEntity
  8
RUNDUNGEN
100
AcDbPolyline
 62
7
  6
CONTINUOUS
 90
5
 70
0
 10
128.0571518359
 20
129.0915375709
 10
128.0563805816
 20
129.0916216705
 10
128.0554437824
 20
129.0917304529
 10
128.0551628457
 20
129.0917651964
 10
128.0554863469
 20
129.0917222202
  0
LWPOLYLINE
  5
352
100
AcDbEntity
  8
RUNDUNGEN
100
AcDbPolyline
 62
7
  6
CONTINUOUS
 90
6
 70
0
 10
128.0853726164
 20
129.0874890581
 10
128.0978056798
 20
129.0860608895
 10
128.1215116434
 20
129.0843350916
 10
128.1457214387
 20
129.0838535293
 10
128.1704786014
 20
129.0846218888
 10
128.1862417988
 20
129.0858877544
  0
LINE
  5
353
100
AcDbEntity
  8
RUNDUNGEN
100
AcDbLine
 62
7
  6
CONTINUOUS
 10
128.0554863469
 20
129.0917222202
 11
128.0577977514
 21
129.0913983522
  0
LINE
  5
354
100
AcDbEntity
  8
RUNDUNGEN
100
AcDbLine
 62
7
  6
CONTINUOUS
 10
128.0577977514
 20
129.0913983522
 11
128.0739619665
 21
129.0890446419
  0
LINE
  5
355
100
AcDbEntity
  8
0
100
AcDbLine
 62
7
  6
CONTINUOUS
 10
128.480040603
 20
128.6136904392
 11
128.4799863953
 21
128.6137479537
  0
LWPOLYLINE
  5
356
100
AcDbEntity
  8
0
100
AcDbPolyline
 62
7
  6
CONTINUOUS
 90
7
 70
0
 10
127.6679355056
 20
130.4592425238
 10
127.7289354895
 20
130.3300120554
 10
127.7743581201
 20
130.2308202639
 10
127.8185638812
 20
130.1309397607
 10
127.8613346435
 20
130.0304977858
 10
127.9024604887
 20
129.9296181522
 10
127.9375527058
 20
129.83946911
  0
LWPOLYLINE
  5
357
100
AcDbEntity
  8
0
100
AcDbPolyline
 62
7
  6
CONTINUOUS
 90
7
 70
0
 10
127.5456233934
 20
130.7302269186
 10
127.5640145554
 20
130.6880743197
 10
127.5831174398
 20
130.6448256077
 10
127.6029912927
 20
130.600400975
 10
127.623699707
 20
130.5547196777
 10
127.6453135479
 20
130.5077042429
 10
127.6679355056
 20
130.4592425238
  0
LINE
  5
358
100
AcDbEntity
  8
0
100
AcDbLine
 62
7
  6
CONTINUOUS
 10
127.5107636549
 20
130.8115717384
 11
127.5456233934
 21
130.7302269186
  0
LWPOLYLINE
  5
359
100
AcDbEntity
  8
0
100
AcDbPolyline
 62
7
  6
CONTINUOUS
 90
11
 70
0
 10
128.1629543653
 20
129.1410458743
 10
128.1872336451
 20
129.0835384884
 10
128.2165182934
 20
129.0191754299
 10
128.2468788571
 20
128.957403028
 10
128.2782795584
 20
128.8982670403
 10
128.3107074368
 20
128.8418733852
 10
128.3442638353
 20
128.7881927555
 10
128.3789782727
 20
128.7373525151
 10
128.4149547342
 20
128.6893772775
 10
128.4520619703
 20
128.6445672968
 10
128.4799757587
 20
128.6137586627
  0
LINE
  5
35A
100
AcDbEntity
  8
0
100
AcDbLine
 62
7
  6
CONTINUOUS
 10
127.4781454062
 20
130.8895243394
 11
127.5107636549
 21
130.8115717384
  0
LWPOLYLINE
  5
35B
100
AcDbEntity
  8
0
100
AcDbPolyline
 62
7
  6
CONTINUOUS
 90
6
 70
0
 10
127.9375519881
 20
129.8394703882
 10
127.9564949996
 20
129.7885405176
 10
127.9787124852
 20
129.7257336637
 10
128.0002261635
 20
129.6613034013
 10
128.0209556985
 20
129.5953041419
 10
128.0408241976
 20
129.5277936505
  0
LWPOLYLINE
  5
35C
100
AcDbEntity
  8
0
100
AcDbPolyline
 62
7
  6
CONTINUOUS
 90
7
 70
0
 10
128.0408241976
 20
129.5277936505
 10
128.0718983806
 20
129.4147242059
 10
128.0902411578
 20
129.3510683103
 10
128.1089272684
 20
129.2906828444
 10
128.1280655423
 20
129.2335974961
 10
128.1477232568
 20
129.1797303234
 10
128.1629580692
 20
129.1410380363
  0
LINE
  5
35D
100
AcDbEntity
  8
0
100
AcDbLine
 62
7
  6
CONTINUOUS
 10
135.0285839894
 20
128.6137914167
 11
135.028510565
 21
128.6137135083
  0
LINE
  5
35E
100
AcDbEntity
  8
RUNDUNGEN
100
AcDbLine
 62
7
  6
CONTINUOUS
 10
97.3346572585
 20
129.0890574754
 11
97.3534383592
 21
129.0917773449
  0
LINE
  5
35F
100
AcDbEntity
  8
02___PRT_ALL_AXES
100
AcDbLine
 62
7
  6
CONTINUOUS
 10
154.9400803665
 20
133.08
 11
146.6684490648
 21
133.08
  0
LINE
  5
360
100
AcDbEntity
  8
RUNDUNGEN
100
AcDbLine
 62
7
  6
CONTINUOUS
 10
145.4773544318
 20
133.08
 11
137.0811750004
 21
133.08
  0
LINE
  5
361
100
AcDbEntity
  8
02___PRT_ALL_AXES
100
AcDbLine
 62
7
  6
CONTINUOUS
 10
135.8900803674
 20
133.08
 11
127.6184490648
 21
133.08
  0
LINE
  5
362
100
AcDbEntity
  8
RUNDUNGEN
100
AcDbLine
 62
7
  6
CONTINUOUS
 10
126.4273544318
 20
133.08
 11
118.0311750004
 21
133.08
  0
LINE
  5
363
100
AcDbEntity
  8
02___PRT_ALL_AXES
100
AcDbLine
 62
7
  6
CONTINUOUS
 10
116.8400803674
 20
133.08
 11
108.5684490648
 21
133.08
  0
LINE
  5
364
100
AcDbEntity
  8
02___PRT_ALL_AXES
100
AcDbLine
 62
7
  6
CONTINUOUS
 10
97.7900803674
 20
133.08
 11
89.5184490648
 21
133.08
  0
LINE
  5
365
100
AcDbEntity
  8
RUNDUNGEN
100
AcDbLine
 62
7
  6
CONTINUOUS
 10
89.4005684126
 20
133.08
 11
97.7900803611
 21
133.08
  0
LINE
  5
366
100
AcDbEntity
  8
0
100
AcDbLine
 62
7
  6
CONTINUOUS
 10
97.7900803611
 20
133.08
 11
108.5684490711
 21
133.08
  0
LINE
  5
367
100
AcDbEntity
  8
RUNDUNGEN
100
AcDbLine
 62
7
  6
CONTINUOUS
 10
108.5684490711
 20
133.08
 11
116.8400803611
 21
133.08
  0
LINE
  5
368
100
AcDbEntity
  8
0
100
AcDbLine
 62
7
  6
CONTINUOUS
 10
116.8400803611
 20
133.08
 11
127.6184490711
 21
133.08
  0
LINE
  5
369
100
AcDbEntity
  8
RUNDUNGEN
100
AcDbLine
 62
7
  6
CONTINUOUS
 10
127.6184490711
 20
133.08
 11
135.8900803611
 21
133.08
  0
LINE
  5
36A
100
AcDbEntity
  8
0
100
AcDbLine
 62
7
  6
CONTINUOUS
 10
135.8900803611
 20
133.08
 11
146.6684490711
 21
133.08
  0
LINE
  5
36B
100
AcDbEntity
  8
RUNDUNGEN
100
AcDbLine
 62
7
  6
CONTINUOUS
 10
146.6684490711
 20
133.08
 11
154.9400803611
 21
133.08
  0
LINE
  5
36C
100
AcDbEntity
  8
0
100
AcDbLine
 62
7
  6
CONTINUOUS
 10
154.9400803611
 20
133.08
 11
164.5829610196
 21
133.08
  0
LINE
  5
36D
100
AcDbEntity
  8
0
100
AcDbLine
 62
7
  6
CONTINUOUS
 10
165.0444536682
 20
130.3695518796
 11
165.0644506221
 21
130.3692028315
  0
LINE
  5
36E
100
AcDbEntity
  8
0
100
AcDbLine
 62
7
  6
CONTINUOUS
 10
165.0793584811
 20
132.3692472699
 11
165.099355435
 21
132.3688982218
  0
LWPOLYLINE
  5
36F
100
AcDbEntity
  8
RUNDUNGEN
100
AcDbPolyline
 62
7
  6
CONTINUOUS
 90
6
 70
0
 10
154.3723074043
 20
129.0858990789
 10
154.3872854188
 20
129.0846733376
 10
154.4120335769
 20
129.0838647852
 10
154.4362314043
 20
129.0843034721
 10
154.4599237412
 20
129.0859830688
 10
154.4732457176
 20
129.0875006031
  0
LWPOLYLINE
  5
370
100
AcDbEntity
  8
RUNDUNGEN
100
AcDbPolyline
 62
7
  6
CONTINUOUS
 90
5
 70
0
 10
147.1071518359
 20
129.0915375709
 10
147.1063805816
 20
129.0916216705
 10
147.1054437824
 20
129.0917304529
 10
147.1051628457
 20
129.0917651964
 10
147.1054863469
 20
129.0917222202
  0
LWPOLYLINE
  5
371
100
AcDbEntity
  8
RUNDUNGEN
100
AcDbPolyline
 62
7
  6
CONTINUOUS
 90
6
 70
0
 10
147.1353726164
 20
129.0874890581
 10
147.1478056798
 20
129.0860608895
 10
147.1715116434
 20
129.0843350916
 10
147.1957214387
 20
129.0838535293
 10
147.2204786014
 20
129.0846218888
 10
147.2362417988
 20
129.0858877544
  0
LINE
  5
372
100
AcDbEntity
  8
RUNDUNGEN
100
AcDbLine
 62
7
  6
CONTINUOUS
 10
147.1054863469
 20
129.0917222202
 11
147.1077977514
 21
129.0913983522
  0
LINE
  5
373
100
AcDbEntity
  8
RUNDUNGEN
100
AcDbLine
 62
7
  6
CONTINUOUS
 10
147.1077977514
 20
129.0913983522
 11
147.1239619665
 21
129.0890446419
  0
LINE
  5
374
100
AcDbEntity
  8
RUNDUNGEN
100
AcDbLine
 62
7
  6
CONTINUOUS
 10
134.4862294421
 20
127.3461506429
 11
134.2790972001
 21
123.3938320219
  0
LWPOLYLINE
  5
375
100
AcDbEntity
  8
0
100
AcDbPolyline
 62
7
  6
CONTINUOUS
 90
7
 70
0
 10
135.436891781
 20
129.4156580425
 10
135.4679907921
 20
129.528796992
 10
135.4878747313
 20
129.5962930923
 10
135.5086188412
 20
129.6622768365
 10
135.5301461243
 20
129.7266905355
 10
135.5523762099
 20
129.7894798035
 10
135.5709773549
 20
129.8394701657
  0
LWPOLYLINE
  5
376
100
AcDbEntity
  8
0
100
AcDbPolyline
 62
7
  6
CONTINUOUS
 90
6
 70
0
 10
135.5709768307
 20
129.8394693795
 10
135.6064212447
 20
129.9305030197
 10
135.647554867
 20
130.0313610987
 10
135.6903327372
 20
130.1317849865
 10
135.7345452981
 20
130.2316501823
 10
135.7799731098
 20
130.3308273595
  0
LWPOLYLINE
  5
377
100
AcDbEntity
  8
0
100
AcDbPolyline
 62
7
  6
CONTINUOUS
 90
6
 70
0
 10
135.3456159497
 20
129.1411473324
 10
135.3611978459
 20
129.180758289
 10
135.380822385
 20
129.2346242769
 10
135.3999207365
 20
129.2916735065
 10
135.4185747921
 20
129.3520300989
 10
135.436891781
 20
129.4156580425
  0
LWPOLYLINE
  5
378
100
AcDbEntity
  8
0
100
AcDbPolyline
 62
7
  6
CONTINUOUS
 90
36
 70
0
 10
136.061403567
 20
130.9654892557
 10
136.0760615537
 20
131.0020748837
 10
136.0902724391
 20
131.0380074203
 10
136.1040391256
 20
131.0732835367
 10
136.1173654236
 20
131.1079037114
 10
136.1302564019
 20
131.1418712845
 10
136.1427155341
 20
131.1751862067
 10
136.154752268
 20
131.2078648034
 10
136.1663740206
 20
131.2399183999
 10
136.1775899814
 20
131.2713646683
 10
136.1884085568
 20
131.3022191684
 10
136.1988385872
 20
131.3325006658
 10
136.2088879322
 20
131.3622251701
 10
136.2185667708
 20
131.3914178085
 10
136.2278823752
 20
131.4200955223
 10
136.2368494153
 20
131.4483012077
 10
136.2454790641
 20
131.4760690609
 10
136.2537850548
 20
131.5034465645
 10
136.2617788528
 20
131.5304774065
 10
136.2694730152
 20
131.5572157331
 10
136.276883288
 20
131.5837342503
 10
136.2840045934
 20
131.6100384523
 10
136.2908370232
 20
131.6361579376
 10
136.2973775359
 20
131.6621163898
 10
136.303622193
 20
131.6879412691
 10
136.3095685447
 20
131.7136794618
 10
136.3152118212
 20
131.7393768327
 10
136.3205447259
 20
131.765097072
 10
136.3255635745
 20
131.7909350954
 10
136.3302351389
 20
131.8168886306
 10
136.3345362544
 20
131.8430031061
 10
136.3384178967
 20
131.8692365798
 10
136.3418375961
 20
131.8955425386
 10
136.3447447716
 20
131.921922572
 10
136.347091483
 20
131.9482504062
 10
136.3888623862
 20
132.5451217631
  0
LINE
  5
379
100
AcDbEntity
  8
0
100
AcDbLine
 62
7
  6
CONTINUOUS
 10
136.0307286284
 20
130.8903580382
 11
136.061403567
 21
130.9654892557
  0
LINE
  5
37A
100
AcDbEntity
  8
0
100
AcDbLine
 62
7
  6
CONTINUOUS
 10
135.9981161024
 20
130.8123992254
 11
136.0307286284
 21
130.8903580382
  0
LWPOLYLINE
  5
37B
100
AcDbEntity
  8
0
100
AcDbPolyline
 62
7
  6
CONTINUOUS
 90
9
 70
0
 10
135.7799731098
 20
130.3308273595
 10
135.8409835103
 20
130.4600704824
 10
135.8635997477
 20
130.5085331987
 10
135.88520791
 20
130.5555483955
 10
135.9059108613
 20
130.6012288462
 10
135.9257795233
 20
130.6456526115
 10
135.9448775242
 20
130.6889005959
 10
135.9632641772
 20
130.7310528715
 10
135.9981161024
 20
130.8123992254
  0
LWPOLYLINE
  5
37C
100
AcDbEntity
  8
0
100
AcDbPolyline
 62
7
  6
CONTINUOUS
 90
11
 70
0
 10
135.0285660902
 20
128.6137730858
 10
135.0572274922
 20
128.6454396692
 10
135.094278981
 20
128.6902723643
 10
135.1302125395
 20
128.7382796818
 10
135.1648873976
 20
128.7891468226
 10
135.1984057024
 20
128.8428491715
 10
135.2307973912
 20
128.8992595536
 10
135.2621608488
 20
128.9584033399
 10
135.292491138
 20
129.0201914719
 10
135.3217407597
 20
129.0845559693
 10
135.3456236768
 20
129.1411653118
  0
LINE
  5
37D
100
AcDbEntity
  8
0
100
AcDbLine
 62
7
  6
CONTINUOUS
 10
136.2946673952
 20
131.1980706329
 11
136.2051015361
 21
129.9172191736
  0
LINE
  5
37E
100
AcDbEntity
  8
RUNDUNGEN
100
AcDbLine
 62
7
  6
CONTINUOUS
 10
137.9016291603
 20
129.373717274
 11
137.9276637554
 21
130.6165958614
  0
LWPOLYLINE
  5
37F
100
AcDbEntity
  8
RUNDUNGEN
100
AcDbPolyline
 62
7
  6
CONTINUOUS
 90
73
 70
0
 10
137.9276632385
 20
130.616569978
 10
137.9303409677
 20
130.6688334276
 10
137.9372320887
 20
130.7280973997
 10
137.9481558005
 20
130.7868058443
 10
137.962961753
 20
130.8445171571
 10
137.9814538437
 20
130.9009175394
 10
138.0033588425
 20
130.9556536633
 10
138.0283362954
 20
131.0083880198
 10
138.0559681019
 20
131.0587873471
 10
138.0856343995
 20
131.1063397912
 10
138.1171640322
 20
131.1513429619
 10
138.1502622136
 20
131.1938267395
 10
138.1848981658
 20
131.2341057255
 10
138.2211204519
 20
131.2724717365
 10
138.2588057775
 20
131.3089640543
 10
138.2979105753
 20
131.3436770451
 10
138.3384275146
 20
131.376703734
 10
138.3804333335
 20
131.4081676032
 10
138.4237970008
 20
131.4380117184
 10
138.4685353472
 20
131.4662804273
 10
138.5142896999
 20
131.4927884702
 10
138.5607067576
 20
131.5174091199
 10
138.6076141879
 20
131.5401441765
 10
138.6546918652
 20
131.5609440956
 10
138.7019836009
 20
131.5799298816
 10
138.7494620709
 20
131.597174269
 10
138.7971177967
 20
131.6127437689
 10
138.8449803061
 20
131.626705322
 10
138.8929853116
 20
131.6390877459
 10
138.9411038815
 20
131.6499270598
 10
138.9893002182
 20
131.6592528214
 10
139.0375445022
 20
131.6670925427
 10
139.0858209939
 20
131.6734718746
 10
139.1341146492
 20
131.678411832
 10
139.1824183487
 20
131.6819298385
 10
139.2307259813
 20
131.6840381054
 10
139.2790353464
 20
131.6847445219
 10
139.3273446991
 20
131.6840514003
 10
139.3756520793
 20
131.6819564867
 10
139.4239552706
 20
131.678451982
 10
139.4722480187
 20
131.6735257396
 10
139.5205230747
 20
131.6671604783
 10
139.5687655381
 20
131.659335229
 10
139.6169594878
 20
131.6500245108
 10
139.6650759788
 20
131.6392007001
 10
139.71307961
 20
131.626834186
 10
139.760942273
 20
131.6128887225
 10
139.8086004522
 20
131.5973351162
 10
139.8560832788
 20
131.5801065123
 10
139.90338113
 20
131.5611362749
 10
139.9504657409
 20
131.540352132
 10
139.9973796216
 20
131.517633669
 10
140.0438029059
 20
131.4930305543
 10
140.0895618161
 20
131.4665418557
 10
140.1343057998
 20
131.4382929957
 10
140.177677508
 20
131.408467994
 10
140.2196937378
 20
131.3770225403
 10
140.260224002
 20
131.3440126776
 10
140.2993429335
 20
131.3093167525
 10
140.3370417446
 20
131.2728432615
 10
140.3732763163
 20
131.2344991945
 10
140.4079216797
 20
131.1942482416
 10
140.4410297036
 20
131.1517964073
 10
140.472570132
 20
131.1068300489
 10
140.5022530036
 20
131.0593128564
 10
140.5299108743
 20
131.008939936
 10
140.5549202466
 20
130.9562260842
 10
140.5768614789
 20
130.9015050402
 10
140.5953925972
 20
130.845115675
 10
140.610239142
 20
130.787412356
 10
140.6212044163
 20
130.7287112231
 10
140.6281374215
 20
130.6694559846
 10
140.6308661592
 20
130.6165715971
  0
LINE
  5
380
100
AcDbEntity
  8
RUNDUNGEN
100
AcDbLine
 62
7
  6
CONTINUOUS
 10
140.6308656671
 20
130.61659633
 11
140.6569002719
 21
129.373717274
  0
LINE
  5
381
100
AcDbEntity
  8
RUNDUNGEN
100
AcDbLine
 62
7
  6
CONTINUOUS
 10
141.9016291603
 20
129.373717274
 11
141.9276637554
 21
130.6165958614
  0
LWPOLYLINE
  5
382
100
AcDbEntity
  8
RUNDUNGEN
100
AcDbPolyline
 62
7
  6
CONTINUOUS
 90
73
 70
0
 10
141.9276632385
 20
130.616569978
 10
141.9303409677
 20
130.6688334276
 10
141.9372320887
 20
130.7280973997
 10
141.9481558005
 20
130.7868058443
 10
141.962961753
 20
130.8445171571
 10
141.9814538437
 20
130.9009175394
 10
142.0033588425
 20
130.9556536633
 10
142.0283362954
 20
131.0083880198
 10
142.0559681019
 20
131.0587873471
 10
142.0856343995
 20
131.1063397912
 10
142.1171640322
 20
131.1513429619
 10
142.1502622136
 20
131.1938267395
 10
142.1848981658
 20
131.2341057255
 10
142.2211204519
 20
131.2724717365
 10
142.2588057775
 20
131.3089640543
 10
142.2979105753
 20
131.3436770451
 10
142.3384275146
 20
131.376703734
 10
142.3804333335
 20
131.4081676032
 10
142.4237970008
 20
131.4380117184
 10
142.4685353472
 20
131.4662804273
 10
142.5142896999
 20
131.4927884702
 10
142.5607067576
 20
131.5174091199
 10
142.6076141879
 20
131.5401441765
 10
142.6546918652
 20
131.5609440956
 10
142.7019836009
 20
131.5799298816
 10
142.7494620709
 20
131.597174269
 10
142.7971177967
 20
131.6127437689
 10
142.8449803061
 20
131.626705322
 10
142.8929853116
 20
131.6390877459
 10
142.9411038815
 20
131.6499270598
 10
142.9893002182
 20
131.6592528214
 10
143.0375445022
 20
131.6670925427
 10
143.0858209939
 20
131.6734718746
 10
143.1341146492
 20
131.678411832
 10
143.1824183487
 20
131.6819298385
 10
143.2307259813
 20
131.6840381054
 10
143.2790353464
 20
131.6847445219
 10
143.3273446991
 20
131.6840514003
 10
143.3756520793
 20
131.6819564867
 10
143.4239552706
 20
131.678451982
 10
143.4722480187
 20
131.6735257396
 10
143.5205230747
 20
131.6671604783
 10
143.5687655381
 20
131.659335229
 10
143.6169594878
 20
131.6500245108
 10
143.6650759788
 20
131.6392007001
 10
143.71307961
 20
131.626834186
 10
143.760942273
 20
131.6128887225
 10
143.8086004522
 20
131.5973351162
 10
143.8560832788
 20
131.5801065123
 10
143.90338113
 20
131.5611362749
 10
143.9504657409
 20
131.540352132
 10
143.9973796216
 20
131.517633669
 10
144.0438029059
 20
131.4930305543
 10
144.0895618161
 20
131.4665418557
 10
144.1343057998
 20
131.4382929957
 10
144.177677508
 20
131.408467994
 10
144.2196937378
 20
131.3770225403
 10
144.260224002
 20
131.3440126776
 10
144.2993429335
 20
131.3093167525
 10
144.3370417446
 20
131.2728432615
 10
144.3732763163
 20
131.2344991945
 10
144.4079216797
 20
131.1942482416
 10
144.4410297036
 20
131.1517964073
 10
144.472570132
 20
131.1068300489
 10
144.5022530036
 20
131.0593128564
 10
144.5299108743
 20
131.008939936
 10
144.5549202466
 20
130.9562260842
 10
144.5768614789
 20
130.9015050402
 10
144.5953925972
 20
130.845115675
 10
144.610239142
 20
130.787412356
 10
144.6212044163
 20
130.7287112231
 10
144.6281374215
 20
130.6694559846
 10
144.6308661592
 20
130.6165715971
  0
LINE
  5
383
100
AcDbEntity
  8
0
100
AcDbLine
 62
7
  6
CONTINUOUS
 10
147.530040603
 20
128.6136904392
 11
147.5299863953
 21
128.6137479537
  0
LINE
  5
384
100
AcDbEntity
  8
RUNDUNGEN
100
AcDbLine
 62
7
  6
CONTINUOUS
 10
144.6308656671
 20
130.61659633
 11
144.6569002719
 21
129.373717274
  0
LWPOLYLINE
  5
385
100
AcDbEntity
  8
0
100
AcDbPolyline
 62
7
  6
CONTINUOUS
 90
37
 70
0
 10
146.2108151575
 20
131.9566581716
 10
146.2115508937
 20
131.9468108068
 10
146.2139267073
 20
131.9205104302
 10
146.2168584054
 20
131.8941639932
 10
146.2202993059
 20
131.867893163
 10
146.2241985031
 20
131.8416948287
 10
146.2285144985
 20
131.8156154938
 10
146.2331986266
 20
131.7896945895
 10
146.2382282112
 20
131.7638872127
 10
146.243570403
 20
131.7381950078
 10
146.2492217246
 20
131.7125236902
 10
146.2551750833
 20
131.686810035
 10
146.2614258694
 20
131.6610079934
 10
146.2679717757
 20
131.6350711652
 10
146.2748090099
 20
131.6089717894
 10
146.2819346704
 20
131.5826862601
 10
146.2893489535
 20
131.556185024
 10
146.2970469359
 20
131.5294622693
 10
146.3050443589
 20
131.5024457641
 10
146.3133537991
 20
131.4750814889
 10
146.321986785
 20
131.4473257928
 10
146.3309571092
 20
131.4191311913
 10
146.3402759659
 20
131.3904635589
 10
146.349958083
 20
131.3612799835
 10
146.3600106655
 20
131.3315638068
 10
146.3704438493
 20
131.3012901342
 10
146.3812654414
 20
131.2704431545
 10
146.3924842269
 20
131.2390043117
 10
146.4041085472
 20
131.2069582687
 10
146.4161475068
 20
131.1742875854
 10
146.4286085118
 20
131.1409810085
 10
146.4415009186
 20
131.1070224284
 10
146.4548283693
 20
131.0724114906
 10
146.4685960345
 20
131.0371445908
 10
146.4828078909
 20
131.0012208646
 10
146.4974670048
 20
130.9646432979
 10
146.5281454062
 20
130.8895243394
  0
LINE
  5
386
100
AcDbEntity
  8
0
100
AcDbLine
 62
7
  6
CONTINUOUS
 10
146.3534278962
 20
129.9172191736
 11
146.2638620371
 21
131.1980706329
  0
LINE
  5
387
100
AcDbEntity
  8
0
100
AcDbLine
 62
7
  6
CONTINUOUS
 10
146.210816932
 20
131.9566536055
 11
146.169667046
 21
132.5451217631
  0
LWPOLYLINE
  5
388
100
AcDbEntity
  8
0
100
AcDbPolyline
 62
7
  6
CONTINUOUS
 90
11
 70
0
 10
154.0785660902
 20
128.6137730858
 10
154.1072274922
 20
128.6454396692
 10
154.144278981
 20
128.6902723643
 10
154.1802125395
 20
128.7382796818
 10
154.2148873976
 20
128.7891468226
 10
154.2484057024
 20
128.8428491715
 10
154.2807973912
 20
128.8992595536
 10
154.3121608488
 20
128.9584033399
 10
154.342491138
 20
129.0201914719
 10
154.3717407597
 20
129.0845559693
 10
154.3956236768
 20
129.1411653118
  0
LINE
  5
389
100
AcDbEntity
  8
0
100
AcDbLine
 62
7
  6
CONTINUOUS
 10
154.0785839895
 20
128.6137914167
 11
154.078510565
 21
128.6137135083
  0
LWPOLYLINE
  5
38A
100
AcDbEntity
  8
0
100
AcDbPolyline
 62
7
  6
CONTINUOUS
 90
7
 70
0
 10
146.7179355056
 20
130.4592425238
 10
146.7789354895
 20
130.3300120554
 10
146.8243581201
 20
130.2308202639
 10
146.8685638812
 20
130.1309397607
 10
146.9113346435
 20
130.0304977858
 10
146.9524604887
 20
129.9296181522
 10
146.9875527058
 20
129.83946911
  0
LWPOLYLINE
  5
38B
100
AcDbEntity
  8
0
100
AcDbPolyline
 62
7
  6
CONTINUOUS
 90
7
 70
0
 10
146.5956233934
 20
130.7302269186
 10
146.6140145554
 20
130.6880743197
 10
146.6331174398
 20
130.6448256077
 10
146.6529912927
 20
130.600400975
 10
146.673699707
 20
130.5547196777
 10
146.6953135479
 20
130.5077042429
 10
146.7179355056
 20
130.4592425238
  0
LINE
  5
38C
100
AcDbEntity
  8
0
100
AcDbLine
 62
7
  6
CONTINUOUS
 10
146.5607636549
 20
130.8115717384
 11
146.5956233934
 21
130.7302269186
  0
LWPOLYLINE
  5
38D
100
AcDbEntity
  8
0
100
AcDbPolyline
 62
7
  6
CONTINUOUS
 90
11
 70
0
 10
147.2129543653
 20
129.1410458743
 10
147.2372336451
 20
129.0835384884
 10
147.2665182934
 20
129.0191754299
 10
147.2968788571
 20
128.957403028
 10
147.3282795584
 20
128.8982670403
 10
147.3607074368
 20
128.8418733852
 10
147.3942638353
 20
128.7881927555
 10
147.4289782727
 20
128.7373525151
 10
147.4649547342
 20
128.6893772775
 10
147.5020619703
 20
128.6445672968
 10
147.5299757587
 20
128.6137586627
  0
LINE
  5
38E
100
AcDbEntity
  8
0
100
AcDbLine
 62
7
  6
CONTINUOUS
 10
146.5281454062
 20
130.8895243394
 11
146.5607636549
 21
130.8115717384
  0
LWPOLYLINE
  5
38F
100
AcDbEntity
  8
0
100
AcDbPolyline
 62
7
  6
CONTINUOUS
 90
6
 70
0
 10
146.9875519881
 20
129.8394703882
 10
147.0064949996
 20
129.7885405176
 10
147.0287124852
 20
129.7257336637
 10
147.0502261635
 20
129.6613034013
 10
147.0709556985
 20
129.5953041419
 10
147.0908241976
 20
129.5277936505
  0
LWPOLYLINE
  5
390
100
AcDbEntity
  8
0
100
AcDbPolyline
 62
7
  6
CONTINUOUS
 90
7
 70
0
 10
147.0908241976
 20
129.5277936505
 10
147.1218983806
 20
129.4147242059
 10
147.1402411578
 20
129.3510683103
 10
147.1589272684
 20
129.2906828444
 10
147.1780655423
 20
129.2335974961
 10
147.1977232568
 20
129.1797303234
 10
147.2129580692
 20
129.1410380363
  0
LINE
  5
391
100
AcDbEntity
  8
RUNDUNGEN
100
AcDbLine
 62
7
  6
CONTINUOUS
 10
148.2794322321
 20
123.3938320219
 11
148.0722999902
 21
127.3461506429
  0
LWPOLYLINE
  5
392
100
AcDbEntity
  8
0
100
AcDbPolyline
 62
7
  6
CONTINUOUS
 90
6
 70
0
 10
154.6209768307
 20
129.8394693795
 10
154.6564212447
 20
129.9305030197
 10
154.697554867
 20
130.0313610987
 10
154.7403327372
 20
130.1317849865
 10
154.7845452981
 20
130.2316501823
 10
154.8299731098
 20
130.3308273595
  0
LWPOLYLINE
  5
393
100
AcDbEntity
  8
0
100
AcDbPolyline
 62
7
  6
CONTINUOUS
 90
6
 70
0
 10
154.3956159497
 20
129.1411473324
 10
154.4111978459
 20
129.180758289
 10
154.430822385
 20
129.2346242769
 10
154.4499207365
 20
129.2916735065
 10
154.4685747921
 20
129.3520300989
 10
154.486891781
 20
129.4156580425
  0
LWPOLYLINE
  5
394
100
AcDbEntity
  8
0
100
AcDbPolyline
 62
7
  6
CONTINUOUS
 90
36
 70
0
 10
155.111403567
 20
130.9654892557
 10
155.1260615537
 20
131.0020748837
 10
155.1402724391
 20
131.0380074203
 10
155.1540391256
 20
131.0732835367
 10
155.1673654236
 20
131.1079037114
 10
155.1802564019
 20
131.1418712845
 10
155.1927155341
 20
131.1751862067
 10
155.204752268
 20
131.2078648034
 10
155.2163740206
 20
131.2399183999
 10
155.2275899814
 20
131.2713646683
 10
155.2384085568
 20
131.3022191684
 10
155.2488385872
 20
131.3325006658
 10
155.2588879322
 20
131.3622251701
 10
155.2685667708
 20
131.3914178085
 10
155.2778823752
 20
131.4200955223
 10
155.2868494153
 20
131.4483012077
 10
155.2954790641
 20
131.4760690609
 10
155.3037850548
 20
131.5034465645
 10
155.3117788528
 20
131.5304774065
 10
155.3194730152
 20
131.5572157331
 10
155.326883288
 20
131.5837342503
 10
155.3340045934
 20
131.6100384523
 10
155.3408370232
 20
131.6361579376
 10
155.3473775359
 20
131.6621163898
 10
155.353622193
 20
131.6879412691
 10
155.3595685447
 20
131.7136794618
 10
155.3652118212
 20
131.7393768327
 10
155.3705447259
 20
131.765097072
 10
155.3755635745
 20
131.7909350954
 10
155.3802351389
 20
131.8168886306
 10
155.3845362544
 20
131.8430031061
 10
155.3884178967
 20
131.8692365798
 10
155.3918375961
 20
131.8955425386
 10
155.3947447716
 20
131.921922572
 10
155.397091483
 20
131.9482504062
 10
155.4388623862
 20
132.5451217631
  0
LINE
  5
395
100
AcDbEntity
  8
0
100
AcDbLine
 62
7
  6
CONTINUOUS
 10
155.0807286284
 20
130.8903580382
 11
155.111403567
 21
130.9654892557
  0
LINE
  5
396
100
AcDbEntity
  8
0
100
AcDbLine
 62
7
  6
CONTINUOUS
 10
155.0481161024
 20
130.8123992254
 11
155.0807286284
 21
130.8903580382
  0
LWPOLYLINE
  5
397
100
AcDbEntity
  8
0
100
AcDbPolyline
 62
7
  6
CONTINUOUS
 90
9
 70
0
 10
154.8299731098
 20
130.3308273595
 10
154.8909835103
 20
130.4600704824
 10
154.9135997477
 20
130.5085331987
 10
154.93520791
 20
130.5555483955
 10
154.9559108613
 20
130.6012288462
 10
154.9757795233
 20
130.6456526115
 10
154.9948775242
 20
130.6889005959
 10
155.0132641772
 20
130.7310528715
 10
155.0481161024
 20
130.8123992254
  0
LINE
  5
398
100
AcDbEntity
  8
RUNDUNGEN
100
AcDbLine
 62
7
  6
CONTINUOUS
 10
153.3290972001
 20
123.3938320219
 11
153.5362294438
 21
127.3461506748
  0
LINE
  5
399
100
AcDbEntity
  8
0
100
AcDbLine
 62
7
  6
CONTINUOUS
 10
155.3446673952
 20
131.1980706329
 11
155.2551015361
 21
129.9172191736
  0
LWPOLYLINE
  5
39A
100
AcDbEntity
  8
0
100
AcDbPolyline
 62
7
  6
CONTINUOUS
 90
7
 70
0
 10
154.486891781
 20
129.4156580425
 10
154.5179907921
 20
129.528796992
 10
154.5378747313
 20
129.5962930923
 10
154.5586188412
 20
129.6622768365
 10
154.5801461243
 20
129.7266905355
 10
154.6023762099
 20
129.7894798035
 10
154.6209773549
 20
129.8394701657
  0
LINE
  5
39B
100
AcDbEntity
  8
RUNDUNGEN
100
AcDbLine
 62
7
  6
CONTINUOUS
 10
156.9516291603
 20
129.373717274
 11
156.9776637554
 21
130.6165958614
  0
LWPOLYLINE
  5
39C
100
AcDbEntity
  8
RUNDUNGEN
100
AcDbPolyline
 62
7
  6
CONTINUOUS
 90
73
 70
0
 10
156.9776632385
 20
130.616569978
 10
156.9803409677
 20
130.6688334276
 10
156.9872320887
 20
130.7280973997
 10
156.9981558005
 20
130.7868058443
 10
157.012961753
 20
130.8445171571
 10
157.0314538437
 20
130.9009175394
 10
157.0533588425
 20
130.9556536633
 10
157.0783362954
 20
131.0083880198
 10
157.1059681019
 20
131.0587873471
 10
157.1356343995
 20
131.1063397912
 10
157.1671640322
 20
131.1513429619
 10
157.2002622136
 20
131.1938267395
 10
157.2348981658
 20
131.2341057255
 10
157.2711204519
 20
131.2724717365
 10
157.3088057775
 20
131.3089640543
 10
157.3479105753
 20
131.3436770451
 10
157.3884275146
 20
131.376703734
 10
157.4304333335
 20
131.4081676032
 10
157.4737970008
 20
131.4380117184
 10
157.5185353472
 20
131.4662804273
 10
157.5642896999
 20
131.4927884702
 10
157.6107067576
 20
131.5174091199
 10
157.6576141879
 20
131.5401441765
 10
157.7046918652
 20
131.5609440956
 10
157.7519836009
 20
131.5799298816
 10
157.7994620709
 20
131.597174269
 10
157.8471177967
 20
131.6127437689
 10
157.8949803061
 20
131.626705322
 10
157.9429853116
 20
131.6390877459
 10
157.9911038815
 20
131.6499270598
 10
158.0393002182
 20
131.6592528214
 10
158.0875445022
 20
131.6670925427
 10
158.1358209939
 20
131.6734718746
 10
158.1841146492
 20
131.678411832
 10
158.2324183487
 20
131.6819298385
 10
158.2807259813
 20
131.6840381054
 10
158.3290353464
 20
131.6847445219
 10
158.3773446991
 20
131.6840514003
 10
158.4256520793
 20
131.6819564867
 10
158.4739552706
 20
131.678451982
 10
158.5222480187
 20
131.6735257396
 10
158.5705230747
 20
131.6671604783
 10
158.6187655381
 20
131.659335229
 10
158.6669594878
 20
131.6500245108
 10
158.7150759788
 20
131.6392007001
 10
158.76307961
 20
131.626834186
 10
158.810942273
 20
131.6128887225
 10
158.8586004522
 20
131.5973351162
 10
158.9060832788
 20
131.5801065123
 10
158.95338113
 20
131.5611362749
 10
159.0004657409
 20
131.540352132
 10
159.0473796216
 20
131.517633669
 10
159.0938029059
 20
131.4930305543
 10
159.1395618161
 20
131.4665418557
 10
159.1843057998
 20
131.4382929957
 10
159.227677508
 20
131.408467994
 10
159.2696937378
 20
131.3770225403
 10
159.310224002
 20
131.3440126776
 10
159.3493429335
 20
131.3093167525
 10
159.3870417446
 20
131.2728432615
 10
159.4232763163
 20
131.2344991945
 10
159.4579216797
 20
131.1942482416
 10
159.4910297036
 20
131.1517964073
 10
159.522570132
 20
131.1068300489
 10
159.5522530036
 20
131.0593128564
 10
159.5799108743
 20
131.008939936
 10
159.6049202466
 20
130.9562260842
 10
159.6268614789
 20
130.9015050402
 10
159.6453925972
 20
130.845115675
 10
159.660239142
 20
130.787412356
 10
159.6712044163
 20
130.7287112231
 10
159.6781374215
 20
130.6694559846
 10
159.6808661592
 20
130.6165715971
  0
LINE
  5
39D
100
AcDbEntity
  8
RUNDUNGEN
100
AcDbLine
 62
7
  6
CONTINUOUS
 10
159.6808656671
 20
130.61659633
 11
159.7069002719
 21
129.373717274
  0
LINE
  5
39E
100
AcDbEntity
  8
RUNDUNGEN
100
AcDbLine
 62
7
  6
CONTINUOUS
 10
163.6808656671
 20
130.61659633
 11
163.7069002719
 21
129.373717274
  0
LINE
  5
39F
100
AcDbEntity
  8
RUNDUNGEN
100
AcDbLine
 62
7
  6
CONTINUOUS
 10
164.9229964725
 20
123.4112737968
 11
165.0828848672
 21
132.5712737968
  0
LINE
  5
3A0
100
AcDbEntity
  8
0
100
AcDbLine
 62
7
  6
CONTINUOUS
 10
165.099355435
 20
132.3688982218
 11
165.0644506221
 21
130.3692028315
  0
LINE
  5
3A1
100
AcDbEntity
  8
RUNDUNGEN
100
AcDbLine
 62
7
  6
CONTINUOUS
 10
160.9516291603
 20
129.373717274
 11
160.9776637554
 21
130.6165958614
  0
LWPOLYLINE
  5
3A2
100
AcDbEntity
  8
RUNDUNGEN
100
AcDbPolyline
 62
7
  6
CONTINUOUS
 90
73
 70
0
 10
160.9776632385
 20
130.616569978
 10
160.9803409677
 20
130.6688334276
 10
160.9872320887
 20
130.7280973997
 10
160.9981558005
 20
130.7868058443
 10
161.012961753
 20
130.8445171571
 10
161.0314538437
 20
130.9009175394
 10
161.0533588425
 20
130.9556536633
 10
161.0783362954
 20
131.0083880198
 10
161.1059681019
 20
131.0587873471
 10
161.1356343995
 20
131.1063397912
 10
161.1671640322
 20
131.1513429619
 10
161.2002622136
 20
131.1938267395
 10
161.2348981658
 20
131.2341057255
 10
161.2711204519
 20
131.2724717365
 10
161.3088057775
 20
131.3089640543
 10
161.3479105753
 20
131.3436770451
 10
161.3884275146
 20
131.376703734
 10
161.4304333335
 20
131.4081676032
 10
161.4737970008
 20
131.4380117184
 10
161.5185353472
 20
131.4662804273
 10
161.5642896999
 20
131.4927884702
 10
161.6107067576
 20
131.5174091199
 10
161.6576141879
 20
131.5401441765
 10
161.7046918652
 20
131.5609440956
 10
161.7519836009
 20
131.5799298816
 10
161.7994620709
 20
131.597174269
 10
161.8471177967
 20
131.6127437689
 10
161.8949803061
 20
131.626705322
 10
161.9429853116
 20
131.6390877459
 10
161.9911038815
 20
131.6499270598
 10
162.0393002182
 20
131.6592528214
 10
162.0875445022
 20
131.6670925427
 10
162.1358209939
 20
131.6734718746
 10
162.1841146492
 20
131.678411832
 10
162.2324183487
 20
131.6819298385
 10
162.2807259813
 20
131.6840381054
 10
162.3290353464
 20
131.6847445219
 10
162.3773446991
 20
131.6840514003
 10
162.4256520793
 20
131.6819564867
 10
162.4739552706
 20
131.678451982
 10
162.5222480187
 20
131.6735257396
 10
162.5705230747
 20
131.6671604783
 10
162.6187655381
 20
131.659335229
 10
162.6669594878
 20
131.6500245108
 10
162.7150759788
 20
131.6392007001
 10
162.76307961
 20
131.626834186
 10
162.810942273
 20
131.6128887225
 10
162.8586004522
 20
131.5973351162
 10
162.9060832788
 20
131.5801065123
 10
162.95338113
 20
131.5611362749
 10
163.0004657409
 20
131.540352132
 10
163.0473796216
 20
131.517633669
 10
163.0938029059
 20
131.4930305543
 10
163.1395618161
 20
131.4665418557
 10
163.1843057998
 20
131.4382929957
 10
163.227677508
 20
131.408467994
 10
163.2696937378
 20
131.3770225403
 10
163.310224002
 20
131.3440126776
 10
163.3493429335
 20
131.3093167525
 10
163.3870417446
 20
131.2728432615
 10
163.4232763163
 20
131.2344991945
 10
163.4579216797
 20
131.1942482416
 10
163.4910297036
 20
131.1517964073
 10
163.522570132
 20
131.1068300489
 10
163.5522530036
 20
131.0593128564
 10
163.5799108743
 20
131.008939936
 10
163.6049202466
 20
130.9562260842
 10
163.6268614789
 20
130.9015050402
 10
163.6453925972
 20
130.845115675
 10
163.660239142
 20
130.787412356
 10
163.6712044163
 20
130.7287112231
 10
163.6781374215
 20
130.6694559846
 10
163.6808661592
 20
130.6165715971
  0
LINE
  5
3A3
100
AcDbEntity
  8
02___PRT_ALL_AXES
100
AcDbLine
 62
7
  6
CENTER
 10
185.8826674107
 20
128.0
 11
185.8826674107
 21
122.305
  0
LINE
  5
3A4
100
AcDbEntity
  8
02___PRT_ALL_AXES
100
AcDbLine
 62
7
  6
CENTER
 10
185.8826674107
 20
128.0
 11
185.8826674107
 21
133.695
  0
LINE
  5
3A5
100
AcDbEntity
  8
0
100
AcDbLine
 62
7
  6
CONTINUOUS
 10
189.3570124133
 20
132.1827130027
 11
189.3570636998
 21
132.1739656544
  0
LINE
  5
3A6
100
AcDbEntity
  8
0
100
AcDbLine
 62
7
  6
CONTINUOUS
 10
189.3570631611
 20
132.1739666638
 11
189.3570631036
 21
132.1735347573
  0
LWPOLYLINE
  5
3A7
100
AcDbEntity
  8
RUNDUNGEN
100
AcDbPolyline
 62
7
  6
CONTINUOUS
 90
5
 70
0
 10
190.3057908735
 20
127.0051421504
 10
190.319010175
 20
127.3836829648
 10
190.3323713411
 20
127.7576658829
 10
190.3458702686
 20
128.1270908662
 10
190.3595033813
 20
128.4919578523
  0
LINE
  5
3A8
100
AcDbEntity
  8
RUNDUNGEN
100
AcDbLine
 62
7
  6
CONTINUOUS
 10
190.2921105133
 20
126.6068679577
 11
190.3057908735
 21
127.0051421504
  0
LWPOLYLINE
  5
3A9
100
AcDbEntity
  8
RUNDUNGEN
100
AcDbPolyline
 62
7
  6
CONTINUOUS
 90
23
 70
0
 10
190.3595033813
 20
128.4919578523
 10
190.3729308689
 20
128.8434998686
 10
190.3740433612
 20
128.8683094225
 10
190.3753819471
 20
128.892622948
 10
190.3769386069
 20
128.9163930621
 10
190.3787053125
 20
128.9395762255
 10
190.3806739304
 20
128.962127666
 10
190.3828369133
 20
128.9840083012
 10
190.3851854101
 20
129.005172103
 10
190.3877088619
 20
129.0255753048
 10
190.3903954105
 20
129.0451717142
 10
190.3932326527
 20
129.0639200818
 10
190.3962046242
 20
129.0817753209
 10
190.3992915978
 20
129.0986883913
 10
190.4024776571
 20
129.1146426592
 10
190.4057418493
 20
129.1296087561
 10
190.4090650587
 20
129.1435809859
 10
190.4124264572
 20
129.1565531232
 10
190.4157950889
 20
129.1684914763
 10
190.4191457213
 20
129.1793989842
 10
190.4224128786
 20
129.1891712169
 10
190.4255299667
 20
129.1977419963
 10
190.4279939735
 20
129.2039752795
  0
LINE
  5
3AA
100
AcDbEntity
  8
RUNDUNGEN
100
AcDbLine
 62
7
  6
CONTINUOUS
 10
190.2904634216
 20
126.5700932372
 11
190.2921105133
 21
126.6068679577
  0
LINE
  5
3AB
100
AcDbEntity
  8
RUNDUNGEN
100
AcDbLine
 62
7
  6
CONTINUOUS
 10
190.288561501
 20
126.5343234669
 11
190.2904634216
 21
126.5700932372
  0
LINE
  5
3AC
100
AcDbEntity
  8
RUNDUNGEN
100
AcDbLine
 62
7
  6
CONTINUOUS
 10
190.2864392632
 20
126.4996418327
 11
190.288561501
 21
126.5343234669
  0
LINE
  5
3AD
100
AcDbEntity
  8
RUNDUNGEN
100
AcDbLine
 62
7
  6
CONTINUOUS
 10
190.2841295543
 20
126.4661330579
 11
190.2864392632
 21
126.4996418327
  0
LINE
  5
3AE
100
AcDbEntity
  8
RUNDUNGEN
100
AcDbLine
 62
7
  6
CONTINUOUS
 10
190.2816640286
 20
126.4338811716
 11
190.2841295543
 21
126.4661330579
  0
LINE
  5
3AF
100
AcDbEntity
  8
RUNDUNGEN
100
AcDbLine
 62
7
  6
CONTINUOUS
 10
190.2790732348
 20
126.4029676949
 11
190.2816640286
 21
126.4338811716
  0
LINE
  5
3B0
100
AcDbEntity
  8
RUNDUNGEN
100
AcDbLine
 62
7
  6
CONTINUOUS
 10
190.2763863306
 20
126.3734708281
 11
190.2790732348
 21
126.4029676949
  0
LINE
  5
3B1
100
AcDbEntity
  8
RUNDUNGEN
100
AcDbLine
 62
7
  6
CONTINUOUS
 10
190.2736315537
 20
126.3454654011
 11
190.2763863306
 21
126.3734708281
  0
LINE
  5
3B2
100
AcDbEntity
  8
RUNDUNGEN
100
AcDbLine
 62
7
  6
CONTINUOUS
 10
190.2708340737
 20
126.3190061782
 11
190.2736315537
 21
126.3454654011
  0
LINE
  5
3B3
100
AcDbEntity
  8
RUNDUNGEN
100
AcDbLine
 62
7
  6
CONTINUOUS
 10
190.268006966
 20
126.2940558754
 11
190.2708340737
 21
126.3190061782
  0
LWPOLYLINE
  5
3B4
100
AcDbEntity
  8
RUNDUNGEN
100
AcDbPolyline
 62
7
  6
CONTINUOUS
 90
31
 70
0
 10
190.1997837285
 20
126.0356350216
 10
190.2018677938
 20
126.0389232268
 10
190.2068424623
 20
126.0471655404
 10
190.2114354459
 20
126.0553305679
 10
190.2156549944
 20
126.0633793073
 10
190.2195165698
 20
126.0712828229
 10
190.2230345555
 20
126.079007693
 10
190.2262345087
 20
126.0865444219
 10
190.2291336475
 20
126.09386504
 10
190.2317776467
 20
126.1010188424
 10
190.2342012479
 20
126.1080424699
 10
190.2364397665
 20
126.1149887112
 10
190.2385302262
 20
126.1219334662
 10
190.2404884597
 20
126.1288963934
 10
190.2423395167
 20
126.1359362665
 10
190.2440958739
 20
126.1430715539
 10
190.2457717063
 20
126.1503283882
 10
190.2473866083
 20
126.1577629855
 10
190.2489565297
 20
126.1654265715
 10
190.2504929282
 20
126.1733539215
 10
190.252004287
 20
126.1815686537
 10
190.2534976423
 20
126.1900955681
 10
190.2549754395
 20
126.1989340337
 10
190.2564450594
 20
126.2081143171
 10
190.2579107406
 20
126.2176587072
 10
190.259372204
 20
126.2275609446
 10
190.2608290944
 20
126.2378132177
 10
190.262279963
 20
126.2484055522
 10
190.2637212624
 20
126.2593100151
 10
190.26515592
 20
126.2705469549
 10
190.268006966
 20
126.2940558754
  0
LINE
  5
3B5
100
AcDbEntity
  8
RUNDUNGEN
100
AcDbLine
 62
7
  6
CONTINUOUS
 10
198.7350762861
 20
122.92
 11
197.8402585354
 21
122.92
  0
LINE
  5
3B6
100
AcDbEntity
  8
RUNDUNGEN
100
AcDbLine
 62
7
  6
CONTINUOUS
 10
186.7876616903
 20
122.92
 11
184.3876724586
 21
122.92
  0
LINE
  5
3B7
100
AcDbEntity
  8
RUNDUNGEN
100
AcDbLine
 62
7
  6
CONTINUOUS
 10
209.7876738617
 20
122.92
 11
212.1876623404
 21
122.92
  0
LINE
  5
3B8
100
AcDbEntity
  8
0
100
AcDbLine
 62
7
  6
CONTINUOUS
 10
193.9876674107
 20
129.08
 11
193.9876674107
 21
128.98
  0
LINE
  5
3B9
100
AcDbEntity
  8
0
100
AcDbLine
 62
7
  6
CONTINUOUS
 10
194.0131993248
 20
129.08
 11
194.0131993248
 21
128.98
  0
LINE
  5
3BA
100
AcDbEntity
  8
0
100
AcDbLine
 62
7
  6
CONTINUOUS
 10
194.0897950671
 20
129.08
 11
194.0897950671
 21
128.98
  0
LINE
  5
3BB
100
AcDbEntity
  8
0
100
AcDbLine
 62
7
  6
CONTINUOUS
 10
194.1663908115
 20
129.08
 11
194.1663908115
 21
128.98
  0
LINE
  5
3BC
100
AcDbEntity
  8
0
100
AcDbLine
 62
7
  6
CONTINUOUS
 10
194.2940503887
 20
129.08
 11
194.2940503887
 21
128.98
  0
LINE
  5
3BD
100
AcDbEntity
  8
0
100
AcDbLine
 62
7
  6
CONTINUOUS
 10
194.3706461242
 20
129.08
 11
194.3706461242
 21
128.98
  0
LINE
  5
3BE
100
AcDbEntity
  8
0
100
AcDbLine
 62
7
  6
CONTINUOUS
 10
194.4983057192
 20
129.08
 11
194.4983057192
 21
128.98
  0
LINE
  5
3BF
100
AcDbEntity
  8
0
100
AcDbLine
 62
7
  6
CONTINUOUS
 10
194.5749014548
 20
129.08
 11
194.5749014548
 21
128.98
  0
LINE
  5
3C0
100
AcDbEntity
  8
0
100
AcDbLine
 62
7
  6
CONTINUOUS
 10
194.6004333666
 20
129.08
 11
194.6004333666
 21
128.98
  0
LINE
  5
3C1
100
AcDbEntity
  8
0
100
AcDbLine
 62
7
  6
CONTINUOUS
 10
194.6259652785
 20
129.08
 11
194.6259652785
 21
128.98
  0
LINE
  5
3C2
100
AcDbEntity
  8
0
100
AcDbLine
 62
7
  6
CONTINUOUS
 10
194.702561014
 20
129.08
 11
194.702561014
 21
128.98
  0
LINE
  5
3C3
100
AcDbEntity
  8
0
100
AcDbLine
 62
7
  6
CONTINUOUS
 10
194.8046886614
 20
129.08
 11
194.8046886614
 21
128.98
  0
LINE
  5
3C4
100
AcDbEntity
  8
0
100
AcDbLine
 62
7
  6
CONTINUOUS
 10
194.881284397
 20
129.08
 11
194.881284397
 21
128.98
  0
LINE
  5
3C5
100
AcDbEntity
  8
0
100
AcDbLine
 62
7
  6
CONTINUOUS
 10
195.0089440278
 20
129.0702219878
 11
195.0089440278
 21
128.98
  0
LINE
  5
3C6
100
AcDbEntity
  8
0
100
AcDbLine
 62
7
  6
CONTINUOUS
 10
195.0855397633
 20
129.0563720489
 11
195.0855397633
 21
128.98
  0
LINE
  5
3C7
100
AcDbEntity
  8
0
100
AcDbLine
 62
7
  6
CONTINUOUS
 10
195.1621354989
 20
129.0362067543
 11
195.1621354989
 21
128.98
  0
LINE
  5
3C8
100
AcDbEntity
  8
0
100
AcDbLine
 62
7
  6
CONTINUOUS
 10
195.1876674107
 20
129.0280155603
 11
195.1876674107
 21
128.98
  0
LINE
  5
3C9
100
AcDbEntity
  8
0
100
AcDbLine
 62
7
  6
CONTINUOUS
 10
189.0930823857
 20
130.0039608817
 11
189.6433438213
 21
129.6090176925
  0
LINE
  5
3CA
100
AcDbEntity
  8
RUNDUNGEN
100
AcDbLine
 62
7
  6
CONTINUOUS
 10
192.4970425915
 20
129.5479148383
 11
189.3400123156
 21
132.1969777784
  0
LINE
  5
3CB
100
AcDbEntity
  8
RUNDUNGEN
100
AcDbLine
 62
7
  6
CONTINUOUS
 10
196.8639548442
 20
123.7035667508
 11
195.845740546
 21
128.2964346446
  0
LWPOLYLINE
  5
3CC
100
AcDbEntity
  8
RUNDUNGEN
100
AcDbPolyline
 62
7
  6
CONTINUOUS
 90
16
 70
0
 10
206.0242552978
 20
129.1778991664
 10
206.0434431502
 20
129.1829870762
 10
206.060179834
 20
129.1872259195
 10
206.0761193768
 20
129.1910513715
 10
206.0911737819
 20
129.1944344293
 10
206.1052511165
 20
129.1973497414
 10
206.1182721032
 20
129.1997850154
 10
206.1301096598
 20
129.201732867
 10
206.1406431886
 20
129.2032024197
 10
206.14979766
 20
129.2042247663
 10
206.1574912513
 20
129.2048494199
 10
206.1637062683
 20
129.2051489844
 10
206.1683956883
 20
129.2052085726
 10
206.1716768382
 20
129.2051263138
 10
206.1736301506
 20
129.2049991668
 10
206.174113696
 20
129.2049514462
  0
LINE
  5
3CD
100
AcDbEntity
  8
02___PRT_ALL_AXES
100
AcDbLine
 62
7
  6
CENTER
 10
210.6926674107
 20
128.0
 11
204.9976674107
 21
128.0
  0
LINE
  5
3CE
100
AcDbEntity
  8
02___PRT_ALL_AXES
100
AcDbLine
 62
7
  6
CENTER
 10
185.8826674107
 20
128.0
 11
180.1876674107
 21
128.0
  0
LINE
  5
3CF
100
AcDbEntity
  8
02___PRT_ALL_AXES
100
AcDbLine
 62
7
  6
CENTER
 10
185.8826674107
 20
128.0
 11
191.5776674107
 21
128.0
  0
LINE
  5
3D0
100
AcDbEntity
  8
02___PRT_ALL_AXES
100
AcDbLine
 62
7
  6
CENTER
 10
210.6926674107
 20
128.0
 11
216.3876674107
 21
128.0
  0
LWPOLYLINE
  5
3D1
100
AcDbEntity
  8
RUNDUNGEN
100
AcDbPolyline
 62
7
  6
CONTINUOUS
 90
7
 70
0
 10
191.2970790418
 20
129.0851474538
 10
191.381146132
 20
129.0877045666
 10
191.4453571897
 20
129.0892248073
 10
191.5085272458
 20
129.0901283313
 10
191.5704409487
 20
129.0903417679
 10
191.6308629271
 20
129.089887564
 10
191.6767013899
 20
129.0891354332
  0
LINE
  5
3D2
100
AcDbEntity
  8
RUNDUNGEN
100
AcDbLine
 62
7
  6
CONTINUOUS
 10
191.2579149881
 20
129.0842031334
 11
191.2970809092
 21
129.0851475096
  0
LWPOLYLINE
  5
3D3
100
AcDbEntity
  8
RUNDUNGEN
100
AcDbPolyline
 62
7
  6
CONTINUOUS
 90
6
 70
0
 10
204.8998685234
 20
129.0884101558
 10
204.9319327347
 20
129.0891013228
 10
204.9787585661
 20
129.0897946938
 10
205.0259020502
 20
129.090069093
 10
205.0732508734
 20
129.0898951049
 10
205.1206979055
 20
129.0892816048
  0
LWPOLYLINE
  5
3D4
100
AcDbEntity
  8
RUNDUNGEN
100
AcDbPolyline
 62
7
  6
CONTINUOUS
 90
5
 70
0
 10
204.4732514002
 20
129.0799999402
 10
204.5264443131
 20
129.0802352041
 10
204.5964430355
 20
129.0811450768
 10
204.6699497821
 20
129.0826193675
 10
204.8998685183
 20
129.0884102041
  0
LINE
  5
3D5
100
AcDbEntity
  8
0
100
AcDbLine
 62
7
  6
CONTINUOUS
 10
195.1876674107
 20
128.98
 11
193.9876674107
 21
128.98
  0
LINE
  5
3D6
100
AcDbEntity
  8
RUNDUNGEN
100
AcDbLine
 62
7
  6
CONTINUOUS
 10
192.2058901336
 20
129.080000003
 11
194.8694382573
 21
129.08
  0
LINE
  5
3D7
100
AcDbEntity
  8
0
100
AcDbLine
 62
7
  6
CONTINUOUS
 10
192.8039209137
 20
129.08
 11
193.7826262112
 21
129.08
  0
LINE
  5
3D8
100
AcDbEntity
  8
RUNDUNGEN
100
AcDbLine
 62
7
  6
CONTINUOUS
 10
201.7058965606
 20
129.08
 11
204.4732509066
 21
129.08
  0
LWPOLYLINE
  5
3D9
100
AcDbEntity
  8
RUNDUNGEN
100
AcDbPolyline
 62
7
  6
CONTINUOUS
 90
4
 70
0
 10
191.9604728329
 20
129.0829546161
 10
192.0506934884
 20
129.0813233618
 10
192.1366057138
 20
129.0802929899
 10
192.2058865293
 20
129.0799992874
  0
LINE
  5
3DA
100
AcDbEntity
  8
RUNDUNGEN
100
AcDbLine
 62
7
  6
CONTINUOUS
 10
191.6767013932
 20
129.0891354659
 11
191.9604728329
 21
129.0829546161
  0
LINE
  5
3DB
100
AcDbEntity
  8
RUNDUNGEN
100
AcDbLine
 62
7
  6
CONTINUOUS
 10
205.1206979055
 20
129.0892816048
 11
205.1650161499
 21
129.0883551622
  0
LWPOLYLINE
  5
3DC
100
AcDbEntity
  8
RUNDUNGEN
100
AcDbPolyline
 62
7
  6
CONTINUOUS
 90
7
 70
0
 10
205.2782738215
 20
129.0851401351
 10
205.3164570273
 20
129.0842167675
 10
205.3681839635
 20
129.0838640689
 10
205.4190359507
 20
129.0846110007
 10
205.468987474
 20
129.0864954857
 10
205.5180591778
 20
129.089551212
 10
205.5530488473
 20
129.0925151829
  0
LINE
  5
3DD
100
AcDbEntity
  8
RUNDUNGEN
100
AcDbLine
 62
7
  6
CONTINUOUS
 10
205.1650161499
 20
129.0883551622
 11
205.239559213
 21
129.0863286168
  0
LINE
  5
3DE
100
AcDbEntity
  8
RUNDUNGEN
100
AcDbLine
 62
7
  6
CONTINUOUS
 10
205.239559213
 20
129.0863286168
 11
205.2782737891
 21
129.0851391169
  0
LWPOLYLINE
  5
3DF
100
AcDbEntity
  8
RUNDUNGEN
100
AcDbPolyline
 62
7
  6
CONTINUOUS
 90
6
 70
0
 10
191.0221021384
 20
129.0925324575
 10
191.0561861849
 20
129.0896342776
 10
191.1054398365
 20
129.0865442314
 10
191.155494399
 20
129.0846375895
 10
191.2063286016
 20
129.0838715708
 10
191.2579149881
 20
129.0842031334
  0
LINE
  5
3E0
100
AcDbEntity
  8
RUNDUNGEN
100
AcDbLine
 62
7
  6
CONTINUOUS
 10
200.7295942745
 20
128.2964346404
 11
199.7113799772
 21
123.7035667508
  0
LWPOLYLINE
  5
3E1
100
AcDbEntity
  8
RUNDUNGEN
100
AcDbPolyline
 62
7
  6
CONTINUOUS
 90
19
 70
0
 10
190.4016238309
 20
129.2050565823
 10
190.4012048478
 20
129.2049811135
 10
190.4011285523
 20
129.2049638152
 10
190.4023596136
 20
129.2050723366
 10
190.404817865
 20
129.205189888
 10
190.4084480035
 20
129.2052264875
 10
190.4132858677
 20
129.2051068852
 10
190.4193700924
 20
129.2047603282
 10
190.4267384816
 20
129.2041196837
 10
190.4354734044
 20
129.2031150102
 10
190.4455268202
 20
129.2016970729
 10
190.4568881992
 20
129.1998245368
 10
190.4694649737
 20
129.1974788443
 10
190.4831703695
 20
129.1946537569
 10
190.4979346443
 20
129.1913528862
 10
190.5136812015
 20
129.1875919571
 10
190.5303241289
 20
129.1833942299
 10
190.5477496196
 20
129.1787975773
 10
190.5510106547
 20
129.1779177113
  0
LINE
  5
3E2
100
AcDbEntity
  8
RUNDUNGEN
100
AcDbLine
 62
7
  6
CONTINUOUS
 10
206.9319910001
 20
129.6090176925
 11
207.4822457666
 21
130.003956095
  0
LINE
  5
3E3
100
AcDbEntity
  8
RUNDUNGEN
100
AcDbLine
 62
7
  6
CONTINUOUS
 10
184.5376674107
 20
133.08
 11
186.330405089
 21
133.08
  0
LINE
  5
3E4
100
AcDbEntity
  8
0
100
AcDbLine
 62
7
  6
CONTINUOUS
 10
184.537674019
 20
133.08
 11
189.6614061204
 21
133.08
  0
LINE
  5
3E5
100
AcDbEntity
  8
RUNDUNGEN
100
AcDbLine
 62
7
  6
CONTINUOUS
 10
189.6614061204
 20
133.08
 11
212.0376595811
 21
133.08
  0
LINE
  5
3E6
100
AcDbEntity
  8
RUNDUNGEN
100
AcDbLine
 62
7
  6
CONTINUOUS
 10
206.3028633621
 20
126.3341692437
 11
206.3052238308
 21
126.3123730331
  0
LINE
  5
3E7
100
AcDbEntity
  8
RUNDUNGEN
100
AcDbLine
 62
7
  6
CONTINUOUS
 10
206.3005653099
 20
126.3566755771
 11
206.3028633621
 21
126.3341692437
  0
LINE
  5
3E8
100
AcDbEntity
  8
RUNDUNGEN
100
AcDbLine
 62
7
  6
CONTINUOUS
 10
206.2983364279
 20
126.3798686947
 11
206.3005653099
 21
126.3566755771
  0
LINE
  5
3E9
100
AcDbEntity
  8
RUNDUNGEN
100
AcDbLine
 62
7
  6
CONTINUOUS
 10
206.2961842211
 20
126.4037227277
 11
206.2983364279
 21
126.3798686947
  0
LINE
  5
3EA
100
AcDbEntity
  8
RUNDUNGEN
100
AcDbLine
 62
7
  6
CONTINUOUS
 10
206.2941169378
 20
126.4282167226
 11
206.2961842211
 21
126.4037227277
  0
LINE
  5
3EB
100
AcDbEntity
  8
RUNDUNGEN
100
AcDbLine
 62
7
  6
CONTINUOUS
 10
206.2921431856
 20
126.4533308388
 11
206.2941169378
 21
126.4282167226
  0
LINE
  5
3EC
100
AcDbEntity
  8
RUNDUNGEN
100
AcDbLine
 62
7
  6
CONTINUOUS
 10
206.2902719083
 20
126.4790555508
 11
206.2921431856
 21
126.4533308388
  0
LINE
  5
3ED
100
AcDbEntity
  8
RUNDUNGEN
100
AcDbLine
 62
7
  6
CONTINUOUS
 10
206.2885131158
 20
126.5053759451
 11
206.2902719083
 21
126.4790555508
  0
LINE
  5
3EE
100
AcDbEntity
  8
RUNDUNGEN
100
AcDbLine
 62
7
  6
CONTINUOUS
 10
206.2868778489
 20
126.5322783964
 11
206.2885131158
 21
126.5053759451
  0
LINE
  5
3EF
100
AcDbEntity
  8
RUNDUNGEN
100
AcDbLine
 62
7
  6
CONTINUOUS
 10
206.2853779217
 20
126.5597493274
 11
206.2868778489
 21
126.5322783964
  0
LINE
  5
3F0
100
AcDbEntity
  8
RUNDUNGEN
100
AcDbLine
 62
7
  6
CONTINUOUS
 10
206.2840263607
 20
126.5877773366
 11
206.2853779217
 21
126.5597493274
  0
LINE
  5
3F1
100
AcDbEntity
  8
RUNDUNGEN
100
AcDbLine
 62
7
  6
CONTINUOUS
 10
206.282837295
 20
126.6163499417
 11
206.2840263607
 21
126.5877773366
  0
LWPOLYLINE
  5
3F2
100
AcDbEntity
  8
RUNDUNGEN
100
AcDbPolyline
 62
7
  6
CONTINUOUS
 90
7
 70
0
 10
206.202385246
 20
128.8434910721
 10
206.2157731572
 20
128.4930188463
 10
206.2294078138
 20
128.1281571257
 10
206.2429082519
 20
127.7587375888
 10
206.2562709186
 20
127.3847602989
 10
206.2694917169
 20
127.0062252952
 10
206.282837295
 20
126.6163499417
  0
LWPOLYLINE
  5
3F3
100
AcDbEntity
  8
RUNDUNGEN
100
AcDbPolyline
 62
7
  6
CONTINUOUS
 90
24
 70
0
 10
206.1473102711
 20
129.2039469814
 10
206.1484841212
 20
129.201081143
 10
206.1514156757
 20
129.1933213599
 10
206.1544789722
 20
129.1845316429
 10
206.157632745
 20
129.1747232063
 10
206.1608455453
 20
129.1638894656
 10
206.1640714637
 20
129.1520899013
 10
206.1672748853
 20
129.1393760815
 10
206.1704248301
 20
129.1258068191
 10
206.1734931107
 20
129.111452883
 10
206.1764623741
 20
129.0963561046
 10
206.1793152967
 20
129.0805787165
 10
206.1820456128
 20
129.0641350859
 10
206.1846449251
 20
129.0470536013
 10
206.1871083848
 20
129.0293454256
 10
206.1894316629
 20
129.0110234377
 10
206.1916103752
 20
128.9920979674
 10
206.193639559
 20
128.9725793009
 10
206.1955144497
 20
128.9524773783
 10
206.1972303406
 20
128.9318020848
 10
206.1987820894
 20
128.9105585625
 10
206.2001632558
 20
128.8887559586
 10
206.2013668094
 20
128.8664008244
 10
206.202385246
 20
128.8434910721
  0
LWPOLYLINE
  5
3F4
100
AcDbEntity
  8
RUNDUNGEN
100
AcDbPolyline
 62
7
  6
CONTINUOUS
 90
27
 70
0
 10
206.315211922
 20
126.2327395565
 10
206.3165208818
 20
126.2236802684
 10
206.3178410809
 20
126.2148543285
 10
206.3191714336
 20
126.2062787309
 10
206.3205142205
 20
126.1979468348
 10
206.3218716074
 20
126.1898550196
 10
206.3232496559
 20
126.1819839757
 10
206.3246560226
 20
126.1743088979
 10
206.3260995622
 20
126.1668031734
 10
206.3275953915
 20
126.159420339
 10
206.3291516698
 20
126.1521564244
 10
206.3307825163
 20
126.1449818989
 10
206.3325043413
 20
126.1378654892
 10
206.3343402266
 20
126.1307585001
 10
206.3363014827
 20
126.1236636197
 10
206.3383939956
 20
126.1165983459
 10
206.3406509853
 20
126.1094898633
 10
206.3430989059
 20
126.1023016084
 10
206.3457673848
 20
126.0949980155
 10
206.3486858817
 20
126.0875542805
 10
206.3518863165
 20
126.0799487056
 10
206.355403655
 20
126.0721618476
 10
206.3592633098
 20
126.0642027827
 10
206.3634973892
 20
126.0560714745
 10
206.368121104
 20
126.0478034243
 10
206.3731522983
 20
126.0394273929
 10
206.3755509989
 20
126.0356351673
  0
LINE
  5
3F5
100
AcDbEntity
  8
RUNDUNGEN
100
AcDbLine
 62
7
  6
CONTINUOUS
 10
206.3126325013
 20
126.2514975473
 11
206.315211922
 21
126.2327395565
  0
LINE
  5
3F6
100
AcDbEntity
  8
RUNDUNGEN
100
AcDbLine
 62
7
  6
CONTINUOUS
 10
206.3101111315
 20
126.2710159746
 11
206.3126325013
 21
126.2514975473
  0
LINE
  5
3F7
100
AcDbEntity
  8
RUNDUNGEN
100
AcDbLine
 62
7
  6
CONTINUOUS
 10
206.3076409993
 20
126.2913153936
 11
206.3101111315
 21
126.2710159746
  0
LINE
  5
3F8
100
AcDbEntity
  8
RUNDUNGEN
100
AcDbLine
 62
7
  6
CONTINUOUS
 10
206.3052238308
 20
126.3123730331
 11
206.3076409993
 21
126.2913153936
  0
LINE
  5
3F9
100
AcDbEntity
  8
02___PRT_ALL_AXES
100
AcDbLine
 62
7
  6
CENTER
 10
210.6926674107
 20
128.0
 11
210.6926674107
 21
122.305
  0
LINE
  5
3FA
100
AcDbEntity
  8
02___PRT_ALL_AXES
100
AcDbLine
 62
7
  6
CENTER
 10
210.6926674107
 20
128.0
 11
210.6926674107
 21
133.695
  0
ARC
  5
3FB
100
AcDbEntity
  8
0
100
AcDbCircle
 62
7
  6
CONTINUOUS
 10
89.519266738
 20
72.6933072255
 40
0.5
100
AcDbArc
 50
180.3489795532
 51
191.8267399781
  0
ARC
  5
3FC
100
AcDbEntity
  8
0
100
AcDbCircle
 62
7
  6
CONTINUOUS
 10
93.6392700729
 20
73.5623073652
 40
4.74
100
AcDbArc
 50
305.1561055969
 51
348.1732602423
  0
ARC
  5
3FD
100
AcDbEntity
  8
RUNDUNGEN
100
AcDbCircle
 62
7
  6
CONTINUOUS
 10
89.9542647161
 20
74.4623073652
 40
1.0250053568
100
AcDbArc
 50
135.0
 51
146.1107142171
  0
ARC
  5
3FE
100
AcDbEntity
  8
RUNDUNGEN
100
AcDbCircle
 62
7
  6
CONTINUOUS
 10
89.5184490711
 20
74.7550450435
 40
0.5
100
AcDbArc
 50
146.1107142171
 51
179.9999999996
  0
ARC
  5
3FF
100
AcDbEntity
  8
0
100
AcDbCircle
 62
7
  6
CONTINUOUS
 10
93.6692593593
 20
73.5623073652
 40
4.74
100
AcDbArc
 50
191.8267397579
 51
234.8441400767
  0
ARC
  5
400
100
AcDbEntity
  8
0
100
AcDbCircle
 62
7
  6
CONTINUOUS
 10
97.7892626937
 20
72.6933072225
 40
0.5
100
AcDbArc
 50
348.1732603849
 51
359.6510204812
  0
ARC
  5
401
100
AcDbEntity
  8
0
100
AcDbCircle
 62
7
  6
CONTINUOUS
 10
97.3542647161
 20
74.4623073652
 40
1.0250053568
100
AcDbArc
 50
33.8892857829
 51
45.0
  0
ARC
  5
402
100
AcDbEntity
  8
0
100
AcDbCircle
 62
7
  6
CONTINUOUS
 10
97.7900803611
 20
74.7550450435
 40
0.5
100
AcDbArc
 50
0.0000000004
 51
33.8892857828
  0
ARC
  5
403
100
AcDbEntity
  8
RUNDUNGEN
100
AcDbCircle
 62
7
  6
CONTINUOUS
 10
89.1684490711
 20
76.681703116
 40
1.1
100
AcDbArc
 50
315.0
 51
81.6584015382
  0
ARC
  5
404
100
AcDbEntity
  8
0
100
AcDbCircle
 62
7
  6
CONTINUOUS
 10
98.1400803611
 20
76.681703116
 40
1.1
100
AcDbArc
 50
70.3517480039
 51
225.0
  0
ARC
  5
405
100
AcDbEntity
  8
RUNDUNGEN
100
AcDbCircle
 62
7
  6
CONTINUOUS
 10
89.4005684126
 20
78.2647762701
 40
0.5
100
AcDbArc
 50
180.0
 51
261.6584015382
  0
ARC
  5
406
100
AcDbEntity
  8
0
100
AcDbCircle
 62
7
  6
CONTINUOUS
 10
107.3773544318
 20
78.0860460749
 40
0.5
100
AcDbArc
 50
270.0
 51
287.7184152646
  0
ARC
  5
407
100
AcDbEntity
  8
0
100
AcDbCircle
 62
7
  6
CONTINUOUS
 10
98.9811750004
 20
78.0860460749
 40
0.5
100
AcDbArc
 50
252.2815847354
 51
270.0
  0
ARC
  5
408
100
AcDbEntity
  8
0
100
AcDbCircle
 62
7
  6
CONTINUOUS
 10
94.9611316776
 20
86.2892133754
 40
10.0
100
AcDbArc
 50
70.3517480039
 51
72.2815847354
  0
ARC
  5
409
100
AcDbEntity
  8
RUNDUNGEN
100
AcDbCircle
 62
7
  6
CONTINUOUS
 10
105.1792647161
 20
80.1073073652
 40
1.3063499136
100
AcDbArc
 50
180.0
 51
360.0
  0
ARC
  5
40A
100
AcDbEntity
  8
RUNDUNGEN
100
AcDbCircle
 62
7
  6
CONTINUOUS
 10
105.1792647161
 20
82.8073073652
 40
1.3063499136
100
AcDbArc
 50
0.0
 51
180.0000000001
  0
ARC
  5
40B
100
AcDbEntity
  8
RUNDUNGEN
100
AcDbCircle
 62
7
  6
CONTINUOUS
 10
101.1792647161
 20
80.1073073652
 40
1.3063499136
100
AcDbArc
 50
180.0
 51
360.0
  0
ARC
  5
40C
100
AcDbEntity
  8
RUNDUNGEN
100
AcDbCircle
 62
7
  6
CONTINUOUS
 10
101.1792647161
 20
82.8073073652
 40
1.3063499136
100
AcDbArc
 50
0.0
 51
180.0000000001
  0
ARC
  5
40D
100
AcDbEntity
  8
RUNDUNGEN
100
AcDbCircle
 62
7
  6
CONTINUOUS
 10
95.6542947161
 20
80.1073073652
 40
1.3063499136
100
AcDbArc
 50
180.0
 51
360.0
  0
ARC
  5
40E
100
AcDbEntity
  8
RUNDUNGEN
100
AcDbCircle
 62
7
  6
CONTINUOUS
 10
95.6542947161
 20
82.8073073652
 40
1.3063499136
100
AcDbArc
 50
0.0
 51
180.0000000001
  0
ARC
  5
40F
100
AcDbEntity
  8
RUNDUNGEN
100
AcDbCircle
 62
7
  6
CONTINUOUS
 10
91.6542947161
 20
80.1073073652
 40
1.3063499136
100
AcDbArc
 50
180.0
 51
360.0
  0
ARC
  5
410
100
AcDbEntity
  8
RUNDUNGEN
100
AcDbCircle
 62
7
  6
CONTINUOUS
 10
91.6542947161
 20
82.8073073652
 40
1.3063499136
100
AcDbArc
 50
0.0
 51
180.0000000001
  0
ARC
  5
411
100
AcDbEntity
  8
0
100
AcDbCircle
 62
7
  6
CONTINUOUS
 10
108.569266738
 20
72.6933072255
 40
0.5
100
AcDbArc
 50
180.348979553
 51
191.8267399782
  0
ARC
  5
412
100
AcDbEntity
  8
0
100
AcDbCircle
 62
7
  6
CONTINUOUS
 10
112.6892700729
 20
73.5623073652
 40
4.74
100
AcDbArc
 50
305.1561055969
 51
348.1732602423
  0
ARC
  5
413
100
AcDbEntity
  8
0
100
AcDbCircle
 62
7
  6
CONTINUOUS
 10
109.0042647161
 20
74.4623073652
 40
1.0250053568
100
AcDbArc
 50
135.0
 51
146.1107142171
  0
ARC
  5
414
100
AcDbEntity
  8
0
100
AcDbCircle
 62
7
  6
CONTINUOUS
 10
108.5684490711
 20
74.7550450435
 40
0.5
100
AcDbArc
 50
146.1107142172
 51
179.9999999996
  0
ARC
  5
415
100
AcDbEntity
  8
0
100
AcDbCircle
 62
7
  6
CONTINUOUS
 10
112.7192593593
 20
73.5623073652
 40
4.74
100
AcDbArc
 50
191.8267397579
 51
234.8441400767
  0
ARC
  5
416
100
AcDbEntity
  8
0
100
AcDbCircle
 62
7
  6
CONTINUOUS
 10
116.8392626937
 20
72.6933072225
 40
0.5
100
AcDbArc
 50
348.1732603848
 51
359.651020481
  0
ARC
  5
417
100
AcDbEntity
  8
0
100
AcDbCircle
 62
7
  6
CONTINUOUS
 10
116.4042647161
 20
74.4623073652
 40
1.0250053568
100
AcDbArc
 50
33.8892857829
 51
45.0
  0
ARC
  5
418
100
AcDbEntity
  8
0
100
AcDbCircle
 62
7
  6
CONTINUOUS
 10
116.8400803611
 20
74.7550450435
 40
0.5
100
AcDbArc
 50
0.0000000004
 51
33.8892857828
  0
ARC
  5
419
100
AcDbEntity
  8
0
100
AcDbCircle
 62
7
  6
CONTINUOUS
 10
108.2184490711
 20
76.681703116
 40
1.1
100
AcDbArc
 50
315.0
 51
109.6482519961
  0
ARC
  5
41A
100
AcDbEntity
  8
0
100
AcDbCircle
 62
7
  6
CONTINUOUS
 10
117.1900803611
 20
76.681703116
 40
1.1
100
AcDbArc
 50
70.3517480039
 51
225.0
  0
ARC
  5
41B
100
AcDbEntity
  8
0
100
AcDbCircle
 62
7
  6
CONTINUOUS
 10
126.4273544318
 20
78.0860460749
 40
0.5
100
AcDbArc
 50
270.0
 51
287.7184152646
  0
ARC
  5
41C
100
AcDbEntity
  8
0
100
AcDbCircle
 62
7
  6
CONTINUOUS
 10
118.0311750004
 20
78.0860460749
 40
0.5
100
AcDbArc
 50
252.2815847354
 51
270.0
  0
ARC
  5
41D
100
AcDbEntity
  8
0
100
AcDbCircle
 62
7
  6
CONTINUOUS
 10
111.3973977546
 20
86.2892133754
 40
10.0
100
AcDbArc
 50
107.7184152646
 51
109.6482519961
  0
ARC
  5
41E
100
AcDbEntity
  8
0
100
AcDbCircle
 62
7
  6
CONTINUOUS
 10
114.0111316776
 20
86.2892133754
 40
10.0
100
AcDbArc
 50
70.3517480039
 51
72.2815847354
  0
ARC
  5
41F
100
AcDbEntity
  8
RUNDUNGEN
100
AcDbCircle
 62
7
  6
CONTINUOUS
 10
124.2292647161
 20
80.1073073652
 40
1.3063499136
100
AcDbArc
 50
180.0
 51
360.0
  0
ARC
  5
420
100
AcDbEntity
  8
RUNDUNGEN
100
AcDbCircle
 62
7
  6
CONTINUOUS
 10
124.2292647161
 20
82.8073073652
 40
1.3063499136
100
AcDbArc
 50
0.0
 51
180.0000000001
  0
ARC
  5
421
100
AcDbEntity
  8
RUNDUNGEN
100
AcDbCircle
 62
7
  6
CONTINUOUS
 10
120.2292647161
 20
80.1073073652
 40
1.3063499136
100
AcDbArc
 50
180.0
 51
360.0
  0
ARC
  5
422
100
AcDbEntity
  8
RUNDUNGEN
100
AcDbCircle
 62
7
  6
CONTINUOUS
 10
120.2292647161
 20
82.8073073652
 40
1.3063499136
100
AcDbArc
 50
0.0
 51
180.0000000001
  0
ARC
  5
423
100
AcDbEntity
  8
RUNDUNGEN
100
AcDbCircle
 62
7
  6
CONTINUOUS
 10
114.7042947161
 20
80.1073073652
 40
1.3063499136
100
AcDbArc
 50
180.0
 51
360.0
  0
ARC
  5
424
100
AcDbEntity
  8
RUNDUNGEN
100
AcDbCircle
 62
7
  6
CONTINUOUS
 10
114.7042947161
 20
82.8073073652
 40
1.3063499136
100
AcDbArc
 50
0.0
 51
180.0000000001
  0
ARC
  5
425
100
AcDbEntity
  8
RUNDUNGEN
100
AcDbCircle
 62
7
  6
CONTINUOUS
 10
110.7042947161
 20
80.1073073652
 40
1.3063499136
100
AcDbArc
 50
180.0
 51
360.0
  0
ARC
  5
426
100
AcDbEntity
  8
RUNDUNGEN
100
AcDbCircle
 62
7
  6
CONTINUOUS
 10
110.7042947161
 20
82.8073073652
 40
1.3063499136
100
AcDbArc
 50
0.0
 51
180.0000000001
  0
ARC
  5
427
100
AcDbEntity
  8
0
100
AcDbCircle
 62
7
  6
CONTINUOUS
 10
104.4861316776
 20
87.1354013551
 40
10.0
100
AcDbArc
 50
287.7184152646
 51
289.6482519961
  0
ARC
  5
428
100
AcDbEntity
  8
0
100
AcDbCircle
 62
7
  6
CONTINUOUS
 10
101.8723977546
 20
87.1354013551
 40
10.0
100
AcDbArc
 50
250.3517480039
 51
252.2815847354
  0
ARC
  5
429
100
AcDbEntity
  8
RUNDUNGEN
100
AcDbCircle
 62
7
  6
CONTINUOUS
 10
91.6542647161
 20
93.3173073652
 40
1.3063499136
100
AcDbArc
 50
0.0
 51
180.0000000001
  0
ARC
  5
42A
100
AcDbEntity
  8
RUNDUNGEN
100
AcDbCircle
 62
7
  6
CONTINUOUS
 10
91.6542647161
 20
90.6173073652
 40
1.3063499136
100
AcDbArc
 50
180.0
 51
360.0
  0
ARC
  5
42B
100
AcDbEntity
  8
RUNDUNGEN
100
AcDbCircle
 62
7
  6
CONTINUOUS
 10
95.6542647161
 20
93.3173073652
 40
1.3063499136
100
AcDbArc
 50
0.0
 51
180.0000000001
  0
ARC
  5
42C
100
AcDbEntity
  8
RUNDUNGEN
100
AcDbCircle
 62
7
  6
CONTINUOUS
 10
95.6542647161
 20
90.6173073652
 40
1.3063499136
100
AcDbArc
 50
180.0
 51
360.0
  0
ARC
  5
42D
100
AcDbEntity
  8
RUNDUNGEN
100
AcDbCircle
 62
7
  6
CONTINUOUS
 10
101.1792347161
 20
93.3173073652
 40
1.3063499136
100
AcDbArc
 50
0.0
 51
180.0000000001
  0
ARC
  5
42E
100
AcDbEntity
  8
RUNDUNGEN
100
AcDbCircle
 62
7
  6
CONTINUOUS
 10
101.1792347161
 20
90.6173073652
 40
1.3063499136
100
AcDbArc
 50
180.0
 51
360.0
  0
ARC
  5
42F
100
AcDbEntity
  8
RUNDUNGEN
100
AcDbCircle
 62
7
  6
CONTINUOUS
 10
105.1792347161
 20
93.3173073652
 40
1.3063499136
100
AcDbArc
 50
0.0
 51
180.0000000001
  0
ARC
  5
430
100
AcDbEntity
  8
RUNDUNGEN
100
AcDbCircle
 62
7
  6
CONTINUOUS
 10
105.1792347161
 20
90.6173073652
 40
1.3063499136
100
AcDbArc
 50
180.0
 51
360.0
  0
ARC
  5
431
100
AcDbEntity
  8
0
100
AcDbCircle
 62
7
  6
CONTINUOUS
 10
97.8523544318
 20
95.3385686555
 40
0.5
100
AcDbArc
 50
72.2815847355
 51
90.0
  0
ARC
  5
432
100
AcDbEntity
  8
RUNDUNGEN
100
AcDbCircle
 62
7
  6
CONTINUOUS
 10
89.4005683991
 20
95.3385686879
 40
0.4999999676
100
AcDbArc
 50
89.9999984525
 51
180.0000037165
  0
ARC
  5
433
100
AcDbEntity
  8
0
100
AcDbCircle
 62
7
  6
CONTINUOUS
 10
107.6650803611
 20
96.7429116145
 40
1.1
100
AcDbArc
 50
135.0
 51
289.6482519961
  0
ARC
  5
434
100
AcDbEntity
  8
0
100
AcDbCircle
 62
7
  6
CONTINUOUS
 10
98.6934490711
 20
96.7429116145
 40
1.1
100
AcDbArc
 50
250.3517480039
 51
45.0
  0
ARC
  5
435
100
AcDbEntity
  8
0
100
AcDbCircle
 62
7
  6
CONTINUOUS
 10
99.4792647161
 20
98.9623073652
 40
1.0250053568
100
AcDbArc
 50
213.8892857829
 51
225.0
  0
ARC
  5
436
100
AcDbEntity
  8
0
100
AcDbCircle
 62
7
  6
CONTINUOUS
 10
99.0434490711
 20
98.669569687
 40
0.5
100
AcDbArc
 50
180.0000000004
 51
213.8892857828
  0
ARC
  5
437
100
AcDbEntity
  8
0
100
AcDbCircle
 62
7
  6
CONTINUOUS
 10
99.0442667386
 20
100.7313075079
 40
0.5
100
AcDbArc
 50
168.1732603848
 51
179.6510207173
  0
ARC
  5
438
100
AcDbEntity
  8
0
100
AcDbCircle
 62
7
  6
CONTINUOUS
 10
103.1642700729
 20
99.8623073652
 40
4.74
100
AcDbArc
 50
11.8267397579
 51
54.8441400767
  0
ARC
  5
439
100
AcDbEntity
  8
0
100
AcDbCircle
 62
7
  6
CONTINUOUS
 10
106.8792647161
 20
98.9623073652
 40
1.0250053568
100
AcDbArc
 50
315.0
 51
326.1107142171
  0
ARC
  5
43A
100
AcDbEntity
  8
0
100
AcDbCircle
 62
7
  6
CONTINUOUS
 10
107.3150803611
 20
98.669569687
 40
0.5
100
AcDbArc
 50
326.1107142172
 51
359.9999999996
  0
ARC
  5
43B
100
AcDbEntity
  8
0
100
AcDbCircle
 62
7
  6
CONTINUOUS
 10
103.1942593593
 20
99.8623073652
 40
4.74
100
AcDbArc
 50
125.1561055969
 51
168.1732602423
  0
ARC
  5
43C
100
AcDbEntity
  8
0
100
AcDbCircle
 62
7
  6
CONTINUOUS
 10
107.3142626943
 20
100.7313075049
 40
0.5
100
AcDbArc
 50
0.348979553
 51
11.8267399782
  0
ARC
  5
43D
100
AcDbEntity
  8
0
100
AcDbCircle
 62
7
  6
CONTINUOUS
 10
123.5361316776
 20
87.1354013551
 40
10.0
100
AcDbArc
 50
287.7184152646
 51
289.6482519961
  0
ARC
  5
43E
100
AcDbEntity
  8
0
100
AcDbCircle
 62
7
  6
CONTINUOUS
 10
120.9223977546
 20
87.1354013551
 40
10.0
100
AcDbArc
 50
250.3517480039
 51
252.2815847354
  0
ARC
  5
43F
100
AcDbEntity
  8
RUNDUNGEN
100
AcDbCircle
 62
7
  6
CONTINUOUS
 10
110.7042647161
 20
93.3173073652
 40
1.3063499136
100
AcDbArc
 50
0.0
 51
180.0000000001
  0
ARC
  5
440
100
AcDbEntity
  8
RUNDUNGEN
100
AcDbCircle
 62
7
  6
CONTINUOUS
 10
110.7042647161
 20
90.6173073652
 40
1.3063499136
100
AcDbArc
 50
180.0
 51
360.0
  0
ARC
  5
441
100
AcDbEntity
  8
RUNDUNGEN
100
AcDbCircle
 62
7
  6
CONTINUOUS
 10
114.7042647161
 20
93.3173073652
 40
1.3063499136
100
AcDbArc
 50
0.0
 51
180.0000000001
  0
ARC
  5
442
100
AcDbEntity
  8
RUNDUNGEN
100
AcDbCircle
 62
7
  6
CONTINUOUS
 10
114.7042647161
 20
90.6173073652
 40
1.3063499136
100
AcDbArc
 50
180.0
 51
360.0
  0
ARC
  5
443
100
AcDbEntity
  8
RUNDUNGEN
100
AcDbCircle
 62
7
  6
CONTINUOUS
 10
120.2292347161
 20
93.3173073652
 40
1.3063499136
100
AcDbArc
 50
0.0
 51
180.0000000001
  0
ARC
  5
444
100
AcDbEntity
  8
RUNDUNGEN
100
AcDbCircle
 62
7
  6
CONTINUOUS
 10
120.2292347161
 20
90.6173073652
 40
1.3063499136
100
AcDbArc
 50
180.0
 51
360.0
  0
ARC
  5
445
100
AcDbEntity
  8
RUNDUNGEN
100
AcDbCircle
 62
7
  6
CONTINUOUS
 10
124.2292347161
 20
93.3173073652
 40
1.3063499136
100
AcDbArc
 50
0.0
 51
180.0000000001
  0
ARC
  5
446
100
AcDbEntity
  8
RUNDUNGEN
100
AcDbCircle
 62
7
  6
CONTINUOUS
 10
124.2292347161
 20
90.6173073652
 40
1.3063499136
100
AcDbArc
 50
180.0
 51
360.0
  0
ARC
  5
447
100
AcDbEntity
  8
0
100
AcDbCircle
 62
7
  6
CONTINUOUS
 10
108.5061750004
 20
95.3385686555
 40
0.5
100
AcDbArc
 50
90.0
 51
107.7184152646
  0
ARC
  5
448
100
AcDbEntity
  8
0
100
AcDbCircle
 62
7
  6
CONTINUOUS
 10
116.9023544318
 20
95.3385686555
 40
0.5
100
AcDbArc
 50
72.2815847354
 51
90.0
  0
ARC
  5
449
100
AcDbEntity
  8
0
100
AcDbCircle
 62
7
  6
CONTINUOUS
 10
126.7150803611
 20
96.7429116145
 40
1.1
100
AcDbArc
 50
135.0
 51
289.6482519961
  0
ARC
  5
44A
100
AcDbEntity
  8
0
100
AcDbCircle
 62
7
  6
CONTINUOUS
 10
117.7434490711
 20
96.7429116145
 40
1.1
100
AcDbArc
 50
250.3517480039
 51
45.0
  0
ARC
  5
44B
100
AcDbEntity
  8
0
100
AcDbCircle
 62
7
  6
CONTINUOUS
 10
118.5292647161
 20
98.9623073652
 40
1.0250053568
100
AcDbArc
 50
213.8892857829
 51
225.0
  0
ARC
  5
44C
100
AcDbEntity
  8
0
100
AcDbCircle
 62
7
  6
CONTINUOUS
 10
118.0934490711
 20
98.669569687
 40
0.5
100
AcDbArc
 50
180.0000000004
 51
213.8892857828
  0
ARC
  5
44D
100
AcDbEntity
  8
0
100
AcDbCircle
 62
7
  6
CONTINUOUS
 10
118.0942667386
 20
100.7313075079
 40
0.5
100
AcDbArc
 50
168.1732603848
 51
179.651020481
  0
ARC
  5
44E
100
AcDbEntity
  8
0
100
AcDbCircle
 62
7
  6
CONTINUOUS
 10
122.2142700729
 20
99.8623073652
 40
4.74
100
AcDbArc
 50
11.8267397579
 51
54.8441400767
  0
ARC
  5
44F
100
AcDbEntity
  8
0
100
AcDbCircle
 62
7
  6
CONTINUOUS
 10
125.9292647161
 20
98.9623073652
 40
1.0250053568
100
AcDbArc
 50
315.0
 51
326.1107142171
  0
ARC
  5
450
100
AcDbEntity
  8
0
100
AcDbCircle
 62
7
  6
CONTINUOUS
 10
126.3650803611
 20
98.669569687
 40
0.5
100
AcDbArc
 50
326.1107142172
 51
359.9999999996
  0
ARC
  5
451
100
AcDbEntity
  8
0
100
AcDbCircle
 62
7
  6
CONTINUOUS
 10
122.2442593593
 20
99.8623073652
 40
4.74
100
AcDbArc
 50
125.1561055969
 51
168.1732602423
  0
ARC
  5
452
100
AcDbEntity
  8
0
100
AcDbCircle
 62
7
  6
CONTINUOUS
 10
126.3642626943
 20
100.7313075049
 40
0.5
100
AcDbArc
 50
0.348979553
 51
11.8267399782
  0
ARC
  5
453
100
AcDbEntity
  8
0
100
AcDbCircle
 62
7
  6
CONTINUOUS
 10
127.619266738
 20
72.6933072255
 40
0.5
100
AcDbArc
 50
180.348979553
 51
191.8267399782
  0
ARC
  5
454
100
AcDbEntity
  8
0
100
AcDbCircle
 62
7
  6
CONTINUOUS
 10
131.7392700729
 20
73.5623073652
 40
4.74
100
AcDbArc
 50
305.1561055969
 51
348.1732602423
  0
ARC
  5
455
100
AcDbEntity
  8
0
100
AcDbCircle
 62
7
  6
CONTINUOUS
 10
128.0542647161
 20
74.4623073652
 40
1.0250053568
100
AcDbArc
 50
135.0
 51
146.1107142171
  0
ARC
  5
456
100
AcDbEntity
  8
0
100
AcDbCircle
 62
7
  6
CONTINUOUS
 10
127.6184490711
 20
74.7550450435
 40
0.5
100
AcDbArc
 50
146.1107142172
 51
179.9999999996
  0
ARC
  5
457
100
AcDbEntity
  8
0
100
AcDbCircle
 62
7
  6
CONTINUOUS
 10
131.7692593593
 20
73.5623073652
 40
4.74
100
AcDbArc
 50
191.8267397579
 51
234.8441400767
  0
ARC
  5
458
100
AcDbEntity
  8
0
100
AcDbCircle
 62
7
  6
CONTINUOUS
 10
135.8892626937
 20
72.6933072225
 40
0.5
100
AcDbArc
 50
348.1732603848
 51
359.651020481
  0
ARC
  5
459
100
AcDbEntity
  8
0
100
AcDbCircle
 62
7
  6
CONTINUOUS
 10
135.4542647161
 20
74.4623073652
 40
1.0250053568
100
AcDbArc
 50
33.8892857829
 51
45.0
  0
ARC
  5
45A
100
AcDbEntity
  8
0
100
AcDbCircle
 62
7
  6
CONTINUOUS
 10
135.8900803611
 20
74.7550450435
 40
0.5
100
AcDbArc
 50
0.0000000004
 51
33.8892857828
  0
ARC
  5
45B
100
AcDbEntity
  8
0
100
AcDbCircle
 62
7
  6
CONTINUOUS
 10
127.2684490711
 20
76.681703116
 40
1.1
100
AcDbArc
 50
315.0
 51
109.6482519961
  0
ARC
  5
45C
100
AcDbEntity
  8
0
100
AcDbCircle
 62
7
  6
CONTINUOUS
 10
136.2400803611
 20
76.681703116
 40
1.1
100
AcDbArc
 50
70.3517480039
 51
225.0
  0
ARC
  5
45D
100
AcDbEntity
  8
0
100
AcDbCircle
 62
7
  6
CONTINUOUS
 10
145.4773544318
 20
78.0860460749
 40
0.5
100
AcDbArc
 50
270.0
 51
287.7184152646
  0
ARC
  5
45E
100
AcDbEntity
  8
0
100
AcDbCircle
 62
7
  6
CONTINUOUS
 10
137.0811750004
 20
78.0860460749
 40
0.5
100
AcDbArc
 50
252.2815847354
 51
270.0
  0
ARC
  5
45F
100
AcDbEntity
  8
0
100
AcDbCircle
 62
7
  6
CONTINUOUS
 10
130.4473977546
 20
86.2892133754
 40
10.0
100
AcDbArc
 50
107.7184152646
 51
109.6482519961
  0
ARC
  5
460
100
AcDbEntity
  8
0
100
AcDbCircle
 62
7
  6
CONTINUOUS
 10
133.0611316776
 20
86.2892133754
 40
10.0
100
AcDbArc
 50
70.3517480039
 51
72.2815847354
  0
ARC
  5
461
100
AcDbEntity
  8
RUNDUNGEN
100
AcDbCircle
 62
7
  6
CONTINUOUS
 10
143.2792647161
 20
80.1073073652
 40
1.3063499136
100
AcDbArc
 50
180.0
 51
360.0
  0
ARC
  5
462
100
AcDbEntity
  8
RUNDUNGEN
100
AcDbCircle
 62
7
  6
CONTINUOUS
 10
143.2792647161
 20
82.8073073652
 40
1.3063499136
100
AcDbArc
 50
0.0
 51
180.0000000001
  0
ARC
  5
463
100
AcDbEntity
  8
RUNDUNGEN
100
AcDbCircle
 62
7
  6
CONTINUOUS
 10
139.2792647161
 20
80.1073073652
 40
1.3063499136
100
AcDbArc
 50
180.0
 51
360.0
  0
ARC
  5
464
100
AcDbEntity
  8
RUNDUNGEN
100
AcDbCircle
 62
7
  6
CONTINUOUS
 10
139.2792647161
 20
82.8073073652
 40
1.3063499136
100
AcDbArc
 50
0.0
 51
180.0000000001
  0
ARC
  5
465
100
AcDbEntity
  8
RUNDUNGEN
100
AcDbCircle
 62
7
  6
CONTINUOUS
 10
133.7542947161
 20
80.1073073652
 40
1.3063499136
100
AcDbArc
 50
180.0
 51
360.0
  0
ARC
  5
466
100
AcDbEntity
  8
RUNDUNGEN
100
AcDbCircle
 62
7
  6
CONTINUOUS
 10
133.7542947161
 20
82.8073073652
 40
1.3063499136
100
AcDbArc
 50
0.0
 51
180.0000000001
  0
ARC
  5
467
100
AcDbEntity
  8
RUNDUNGEN
100
AcDbCircle
 62
7
  6
CONTINUOUS
 10
129.7542947161
 20
80.1073073652
 40
1.3063499136
100
AcDbArc
 50
180.0
 51
360.0
  0
ARC
  5
468
100
AcDbEntity
  8
RUNDUNGEN
100
AcDbCircle
 62
7
  6
CONTINUOUS
 10
129.7542947161
 20
82.8073073652
 40
1.3063499136
100
AcDbArc
 50
0.0
 51
180.0000000001
  0
ARC
  5
469
100
AcDbEntity
  8
0
100
AcDbCircle
 62
7
  6
CONTINUOUS
 10
146.669266738
 20
72.6933072255
 40
0.5
100
AcDbArc
 50
180.348979553
 51
191.8267399782
  0
ARC
  5
46A
100
AcDbEntity
  8
0
100
AcDbCircle
 62
7
  6
CONTINUOUS
 10
150.7892700729
 20
73.5623073652
 40
4.74
100
AcDbArc
 50
305.1561055969
 51
348.1732602423
  0
ARC
  5
46B
100
AcDbEntity
  8
0
100
AcDbCircle
 62
7
  6
CONTINUOUS
 10
147.1042647161
 20
74.4623073652
 40
1.0250053568
100
AcDbArc
 50
135.0
 51
146.1107142171
  0
ARC
  5
46C
100
AcDbEntity
  8
0
100
AcDbCircle
 62
7
  6
CONTINUOUS
 10
146.6684490711
 20
74.7550450435
 40
0.5
100
AcDbArc
 50
146.1107142172
 51
179.9999999996
  0
ARC
  5
46D
100
AcDbEntity
  8
0
100
AcDbCircle
 62
7
  6
CONTINUOUS
 10
150.8192593593
 20
73.5623073652
 40
4.74
100
AcDbArc
 50
191.8267397579
 51
234.8441400767
  0
ARC
  5
46E
100
AcDbEntity
  8
0
100
AcDbCircle
 62
7
  6
CONTINUOUS
 10
154.9392626937
 20
72.6933072225
 40
0.5
100
AcDbArc
 50
348.1732603849
 51
359.6510207173
  0
ARC
  5
46F
100
AcDbEntity
  8
0
100
AcDbCircle
 62
7
  6
CONTINUOUS
 10
154.5042647161
 20
74.4623073652
 40
1.0250053568
100
AcDbArc
 50
33.8892857829
 51
45.0
  0
ARC
  5
470
100
AcDbEntity
  8
0
100
AcDbCircle
 62
7
  6
CONTINUOUS
 10
154.9400803611
 20
74.7550450435
 40
0.5
100
AcDbArc
 50
0.0000000004
 51
33.8892857828
  0
ARC
  5
471
100
AcDbEntity
  8
0
100
AcDbCircle
 62
7
  6
CONTINUOUS
 10
146.3184490711
 20
76.681703116
 40
1.1
100
AcDbArc
 50
315.0
 51
109.6482519961
  0
ARC
  5
472
100
AcDbEntity
  8
0
100
AcDbCircle
 62
7
  6
CONTINUOUS
 10
155.2900803611
 20
76.681703116
 40
1.1
100
AcDbArc
 50
70.3517480039
 51
225.0
  0
ARC
  5
473
100
AcDbEntity
  8
0
100
AcDbCircle
 62
7
  6
CONTINUOUS
 10
156.1311750004
 20
78.0860460749
 40
0.5
100
AcDbArc
 50
252.2815847354
 51
270.0
  0
ARC
  5
474
100
AcDbEntity
  8
RUNDUNGEN
100
AcDbCircle
 62
7
  6
CONTINUOUS
 10
164.5829610331
 20
78.0860460425
 40
0.4999999676
100
AcDbArc
 50
269.9999984525
 51
0.0000037165
  0
ARC
  5
475
100
AcDbEntity
  8
0
100
AcDbCircle
 62
7
  6
CONTINUOUS
 10
149.4973977546
 20
86.2892133754
 40
10.0
100
AcDbArc
 50
107.7184152646
 51
109.6482519961
  0
ARC
  5
476
100
AcDbEntity
  8
0
100
AcDbCircle
 62
7
  6
CONTINUOUS
 10
152.1111316776
 20
86.2892133754
 40
10.0
100
AcDbArc
 50
70.3517554415
 51
72.2815847354
  0
ARC
  5
477
100
AcDbEntity
  8
RUNDUNGEN
100
AcDbCircle
 62
7
  6
CONTINUOUS
 10
162.3292647161
 20
80.1073073652
 40
1.3063499136
100
AcDbArc
 50
180.0
 51
360.0
  0
ARC
  5
478
100
AcDbEntity
  8
RUNDUNGEN
100
AcDbCircle
 62
7
  6
CONTINUOUS
 10
162.3292647161
 20
82.8073073652
 40
1.3063499136
100
AcDbArc
 50
0.0
 51
180.0000000001
  0
ARC
  5
479
100
AcDbEntity
  8
RUNDUNGEN
100
AcDbCircle
 62
7
  6
CONTINUOUS
 10
158.3292647161
 20
80.1073073652
 40
1.3063499136
100
AcDbArc
 50
180.0
 51
360.0
  0
ARC
  5
47A
100
AcDbEntity
  8
RUNDUNGEN
100
AcDbCircle
 62
7
  6
CONTINUOUS
 10
158.3292647161
 20
82.8073073652
 40
1.3063499136
100
AcDbArc
 50
0.0
 51
180.0000000001
  0
ARC
  5
47B
100
AcDbEntity
  8
RUNDUNGEN
100
AcDbCircle
 62
7
  6
CONTINUOUS
 10
152.8042947161
 20
80.1073073652
 40
1.3063499136
100
AcDbArc
 50
180.0
 51
360.0
  0
ARC
  5
47C
100
AcDbEntity
  8
RUNDUNGEN
100
AcDbCircle
 62
7
  6
CONTINUOUS
 10
152.8042947161
 20
82.8073073652
 40
1.3063499136
100
AcDbArc
 50
0.0
 51
180.0000000001
  0
ARC
  5
47D
100
AcDbEntity
  8
RUNDUNGEN
100
AcDbCircle
 62
7
  6
CONTINUOUS
 10
148.8042947161
 20
80.1073073652
 40
1.3063499136
100
AcDbArc
 50
180.0
 51
360.0
  0
ARC
  5
47E
100
AcDbEntity
  8
RUNDUNGEN
100
AcDbCircle
 62
7
  6
CONTINUOUS
 10
148.8042947161
 20
82.8073073652
 40
1.3063499136
100
AcDbArc
 50
0.0
 51
180.0000000001
  0
ARC
  5
47F
100
AcDbEntity
  8
0
100
AcDbCircle
 62
7
  6
CONTINUOUS
 10
142.5861316776
 20
87.1354013551
 40
10.0
100
AcDbArc
 50
287.7184152646
 51
289.6482519961
  0
ARC
  5
480
100
AcDbEntity
  8
0
100
AcDbCircle
 62
7
  6
CONTINUOUS
 10
139.9723977546
 20
87.1354013551
 40
10.0
100
AcDbArc
 50
250.3517480039
 51
252.2815847354
  0
ARC
  5
481
100
AcDbEntity
  8
RUNDUNGEN
100
AcDbCircle
 62
7
  6
CONTINUOUS
 10
129.7542647161
 20
93.3173073652
 40
1.3063499136
100
AcDbArc
 50
0.0
 51
180.0000000001
  0
ARC
  5
482
100
AcDbEntity
  8
RUNDUNGEN
100
AcDbCircle
 62
7
  6
CONTINUOUS
 10
129.7542647161
 20
90.6173073652
 40
1.3063499136
100
AcDbArc
 50
180.0
 51
360.0
  0
ARC
  5
483
100
AcDbEntity
  8
RUNDUNGEN
100
AcDbCircle
 62
7
  6
CONTINUOUS
 10
133.7542647161
 20
93.3173073652
 40
1.3063499136
100
AcDbArc
 50
0.0
 51
180.0000000001
  0
ARC
  5
484
100
AcDbEntity
  8
RUNDUNGEN
100
AcDbCircle
 62
7
  6
CONTINUOUS
 10
133.7542647161
 20
90.6173073652
 40
1.3063499136
100
AcDbArc
 50
180.0
 51
360.0
  0
ARC
  5
485
100
AcDbEntity
  8
RUNDUNGEN
100
AcDbCircle
 62
7
  6
CONTINUOUS
 10
139.2792347161
 20
93.3173073652
 40
1.3063499136
100
AcDbArc
 50
0.0
 51
180.0000000001
  0
ARC
  5
486
100
AcDbEntity
  8
RUNDUNGEN
100
AcDbCircle
 62
7
  6
CONTINUOUS
 10
139.2792347161
 20
90.6173073652
 40
1.3063499136
100
AcDbArc
 50
180.0
 51
360.0
  0
ARC
  5
487
100
AcDbEntity
  8
RUNDUNGEN
100
AcDbCircle
 62
7
  6
CONTINUOUS
 10
143.2792347161
 20
93.3173073652
 40
1.3063499136
100
AcDbArc
 50
0.0
 51
180.0000000001
  0
ARC
  5
488
100
AcDbEntity
  8
RUNDUNGEN
100
AcDbCircle
 62
7
  6
CONTINUOUS
 10
143.2792347161
 20
90.6173073652
 40
1.3063499136
100
AcDbArc
 50
180.0
 51
360.0
  0
ARC
  5
489
100
AcDbEntity
  8
0
100
AcDbCircle
 62
7
  6
CONTINUOUS
 10
127.5561750004
 20
95.3385686555
 40
0.5
100
AcDbArc
 50
90.0
 51
107.7184152646
  0
ARC
  5
48A
100
AcDbEntity
  8
0
100
AcDbCircle
 62
7
  6
CONTINUOUS
 10
135.9523544318
 20
95.3385686555
 40
0.5
100
AcDbArc
 50
72.2815847354
 51
90.0
  0
ARC
  5
48B
100
AcDbEntity
  8
0
100
AcDbCircle
 62
7
  6
CONTINUOUS
 10
145.7650803611
 20
96.7429116145
 40
1.1
100
AcDbArc
 50
135.0
 51
289.6482519961
  0
ARC
  5
48C
100
AcDbEntity
  8
0
100
AcDbCircle
 62
7
  6
CONTINUOUS
 10
136.7934490711
 20
96.7429116145
 40
1.1
100
AcDbArc
 50
250.3517480039
 51
45.0
  0
ARC
  5
48D
100
AcDbEntity
  8
0
100
AcDbCircle
 62
7
  6
CONTINUOUS
 10
137.5792647161
 20
98.9623073652
 40
1.0250053568
100
AcDbArc
 50
213.8892857829
 51
225.0
  0
ARC
  5
48E
100
AcDbEntity
  8
0
100
AcDbCircle
 62
7
  6
CONTINUOUS
 10
137.1434490711
 20
98.669569687
 40
0.5
100
AcDbArc
 50
180.0000000004
 51
213.8892857828
  0
ARC
  5
48F
100
AcDbEntity
  8
0
100
AcDbCircle
 62
7
  6
CONTINUOUS
 10
137.1442667386
 20
100.7313075079
 40
0.5
100
AcDbArc
 50
168.1732603848
 51
179.651020481
  0
ARC
  5
490
100
AcDbEntity
  8
0
100
AcDbCircle
 62
7
  6
CONTINUOUS
 10
141.2642700729
 20
99.8623073652
 40
4.74
100
AcDbArc
 50
11.8267397579
 51
54.8441400767
  0
ARC
  5
491
100
AcDbEntity
  8
0
100
AcDbCircle
 62
7
  6
CONTINUOUS
 10
144.9792647161
 20
98.9623073652
 40
1.0250053568
100
AcDbArc
 50
315.0
 51
326.1107142171
  0
ARC
  5
492
100
AcDbEntity
  8
0
100
AcDbCircle
 62
7
  6
CONTINUOUS
 10
145.4150803611
 20
98.669569687
 40
0.5
100
AcDbArc
 50
326.1107142172
 51
359.9999999996
  0
ARC
  5
493
100
AcDbEntity
  8
0
100
AcDbCircle
 62
7
  6
CONTINUOUS
 10
141.2942593593
 20
99.8623073652
 40
4.74
100
AcDbArc
 50
125.1561055969
 51
168.1732602423
  0
ARC
  5
494
100
AcDbEntity
  8
0
100
AcDbCircle
 62
7
  6
CONTINUOUS
 10
145.4142626943
 20
100.7313075049
 40
0.5
100
AcDbArc
 50
0.348979553
 51
11.8267399782
  0
ARC
  5
495
100
AcDbEntity
  8
0
100
AcDbCircle
 62
7
  6
CONTINUOUS
 10
159.0223977546
 20
87.1354013551
 40
10.0
100
AcDbArc
 50
250.3517480039
 51
252.2815847354
  0
ARC
  5
496
100
AcDbEntity
  8
RUNDUNGEN
100
AcDbCircle
 62
7
  6
CONTINUOUS
 10
148.8042647161
 20
93.3173073652
 40
1.3063499136
100
AcDbArc
 50
0.0
 51
180.0000000001
  0
ARC
  5
497
100
AcDbEntity
  8
RUNDUNGEN
100
AcDbCircle
 62
7
  6
CONTINUOUS
 10
148.8042647161
 20
90.6173073652
 40
1.3063499136
100
AcDbArc
 50
180.0
 51
360.0
  0
ARC
  5
498
100
AcDbEntity
  8
RUNDUNGEN
100
AcDbCircle
 62
7
  6
CONTINUOUS
 10
152.8042647161
 20
93.3173073652
 40
1.3063499136
100
AcDbArc
 50
0.0
 51
180.0000000001
  0
ARC
  5
499
100
AcDbEntity
  8
RUNDUNGEN
100
AcDbCircle
 62
7
  6
CONTINUOUS
 10
152.8042647161
 20
90.6173073652
 40
1.3063499136
100
AcDbArc
 50
180.0
 51
360.0
  0
ARC
  5
49A
100
AcDbEntity
  8
RUNDUNGEN
100
AcDbCircle
 62
7
  6
CONTINUOUS
 10
158.3292347161
 20
93.3173073652
 40
1.3063499136
100
AcDbArc
 50
0.0
 51
180.0000000001
  0
ARC
  5
49B
100
AcDbEntity
  8
RUNDUNGEN
100
AcDbCircle
 62
7
  6
CONTINUOUS
 10
158.3292347161
 20
90.6173073652
 40
1.3063499136
100
AcDbArc
 50
180.0
 51
360.0
  0
ARC
  5
49C
100
AcDbEntity
  8
RUNDUNGEN
100
AcDbCircle
 62
7
  6
CONTINUOUS
 10
162.3292347161
 20
93.3173073652
 40
1.3063499136
100
AcDbArc
 50
0.0
 51
180.0000000001
  0
ARC
  5
49D
100
AcDbEntity
  8
RUNDUNGEN
100
AcDbCircle
 62
7
  6
CONTINUOUS
 10
162.3292347161
 20
90.6173073652
 40
1.3063499136
100
AcDbArc
 50
180.0
 51
360.0
  0
ARC
  5
49E
100
AcDbEntity
  8
0
100
AcDbCircle
 62
7
  6
CONTINUOUS
 10
146.6061750004
 20
95.3385686555
 40
0.5
100
AcDbArc
 50
90.0
 51
107.7184152646
  0
ARC
  5
49F
100
AcDbEntity
  8
0
100
AcDbCircle
 62
7
  6
CONTINUOUS
 10
155.0023544318
 20
95.3385686555
 40
0.5
100
AcDbArc
 50
72.2815847354
 51
90.0
  0
ARC
  5
4A0
100
AcDbEntity
  8
RUNDUNGEN
100
AcDbCircle
 62
7
  6
CONTINUOUS
 10
164.8150803611
 20
96.7429116145
 40
1.1
100
AcDbArc
 50
135.0
 51
261.6584015382
  0
ARC
  5
4A1
100
AcDbEntity
  8
0
100
AcDbCircle
 62
7
  6
CONTINUOUS
 10
155.8434490711
 20
96.7429116145
 40
1.1
100
AcDbArc
 50
250.3517480039
 51
45.0
  0
ARC
  5
4A2
100
AcDbEntity
  8
RUNDUNGEN
100
AcDbCircle
 62
7
  6
CONTINUOUS
 10
164.5829610196
 20
95.1598384604
 40
0.5
100
AcDbArc
 50
0.0
 51
81.6584015382
  0
ARC
  5
4A3
100
AcDbEntity
  8
0
100
AcDbCircle
 62
7
  6
CONTINUOUS
 10
156.6292647161
 20
98.9623073652
 40
1.0250053568
100
AcDbArc
 50
213.8892857829
 51
225.0
  0
ARC
  5
4A4
100
AcDbEntity
  8
0
100
AcDbCircle
 62
7
  6
CONTINUOUS
 10
156.1934490711
 20
98.669569687
 40
0.5
100
AcDbArc
 50
180.0000000004
 51
213.8892857828
  0
ARC
  5
4A5
100
AcDbEntity
  8
0
100
AcDbCircle
 62
7
  6
CONTINUOUS
 10
156.1942667386
 20
100.7313075079
 40
0.5
100
AcDbArc
 50
168.1732603848
 51
179.6510204812
  0
ARC
  5
4A6
100
AcDbEntity
  8
0
100
AcDbCircle
 62
7
  6
CONTINUOUS
 10
160.3142700729
 20
99.8623073652
 40
4.74
100
AcDbArc
 50
11.8267397579
 51
54.8441400767
  0
ARC
  5
4A7
100
AcDbEntity
  8
RUNDUNGEN
100
AcDbCircle
 62
7
  6
CONTINUOUS
 10
164.0292647161
 20
98.9623073652
 40
1.0250053568
100
AcDbArc
 50
315.0
 51
326.1107142171
  0
ARC
  5
4A8
100
AcDbEntity
  8
RUNDUNGEN
100
AcDbCircle
 62
7
  6
CONTINUOUS
 10
164.4650803611
 20
98.669569687
 40
0.5
100
AcDbArc
 50
326.1107142171
 51
359.9999999996
  0
ARC
  5
4A9
100
AcDbEntity
  8
0
100
AcDbCircle
 62
7
  6
CONTINUOUS
 10
160.3442593593
 20
99.8623073652
 40
4.74
100
AcDbArc
 50
125.1561055969
 51
168.1732602423
  0
ARC
  5
4AA
100
AcDbEntity
  8
0
100
AcDbCircle
 62
7
  6
CONTINUOUS
 10
164.4642626943
 20
100.7313075049
 40
0.5
100
AcDbArc
 50
0.3489795533
 51
11.8267399781
  0
ARC
  5
4AB
100
AcDbEntity
  8
0
100
AcDbCircle
 62
7
  6
CONTINUOUS
 10
107.9750408989
 20
127.2414791448
 40
2.0
100
AcDbArc
 50
7.4967607984
 51
43.3206454183
  0
ARC
  5
4AC
100
AcDbEntity
  8
RUNDUNGEN
100
AcDbCircle
 62
7
  6
CONTINUOUS
 10
107.9750408989
 20
127.2414791448
 40
2.0
100
AcDbArc
 50
2.9999881137
 51
7.4967607984
  0
ARC
  5
4AD
100
AcDbEntity
  8
RUNDUNGEN
100
AcDbCircle
 62
7
  6
CONTINUOUS
 10
117.4334885333
 20
127.2414791448
 40
2.0
100
AcDbArc
 50
172.5032392008
 51
177.0000118847
  0
ARC
  5
4AE
100
AcDbEntity
  8
0
100
AcDbCircle
 62
7
  6
CONTINUOUS
 10
117.4334885333
 20
127.2414791448
 40
2.0
100
AcDbArc
 50
136.6788787659
 51
172.5032392008
  0
ARC
  5
4AF
100
AcDbEntity
  8
0
100
AcDbCircle
 62
7
  6
CONTINUOUS
 10
88.9250408989
 20
127.2414791448
 40
2.0
100
AcDbArc
 50
7.496760798
 51
43.32067011
  0
ARC
  5
4B0
100
AcDbEntity
  8
RUNDUNGEN
100
AcDbCircle
 62
7
  6
CONTINUOUS
 10
88.9250408989
 20
127.2414791448
 40
2.0
100
AcDbArc
 50
2.9999881132
 51
7.496760798
  0
ARC
  5
4B1
100
AcDbEntity
  8
RUNDUNGEN
100
AcDbCircle
 62
7
  6
CONTINUOUS
 10
98.3834885333
 20
127.2414791448
 40
2.0
100
AcDbArc
 50
172.5032392008
 51
177.0000118847
  0
ARC
  5
4B2
100
AcDbEntity
  8
0
100
AcDbCircle
 62
7
  6
CONTINUOUS
 10
98.3834885333
 20
127.2414791448
 40
2.0
100
AcDbArc
 50
136.678916702
 51
172.5032392008
  0
ARC
  5
4B3
100
AcDbEntity
  8
RUNDUNGEN
100
AcDbCircle
 62
7
  6
CONTINUOUS
 10
110.6787469967
 20
123.4200000536
 40
0.5
100
AcDbArc
 50
183.0000061465
 51
270.0000003217
  0
ARC
  5
4B4
100
AcDbEntity
  8
RUNDUNGEN
100
AcDbCircle
 62
7
  6
CONTINUOUS
 10
95.679782438
 20
123.4200000995
 40
0.5
100
AcDbArc
 50
269.9999994024
 51
356.9999885807
  0
ARC
  5
4B5
100
AcDbEntity
  8
RUNDUNGEN
100
AcDbCircle
 62
7
  6
CONTINUOUS
 10
114.7297824328
 20
123.42
 40
0.5
100
AcDbArc
 50
270.0
 51
357.0
  0
ARC
  5
4B6
100
AcDbEntity
  8
RUNDUNGEN
100
AcDbCircle
 62
7
  6
CONTINUOUS
 10
91.6287469995
 20
123.42
 40
0.5
100
AcDbArc
 50
183.0
 51
270.0
  0
ARC
  5
4B7
100
AcDbEntity
  8
RUNDUNGEN
100
AcDbCircle
 62
7
  6
CONTINUOUS
 10
89.5604568062
 20
123.4200000675
 40
0.5
100
AcDbArc
 50
181.0000077424
 51
270.0000001351
  0
ARC
  5
4B8
100
AcDbEntity
  8
RUNDUNGEN
100
AcDbCircle
 62
7
  6
CONTINUOUS
 10
90.1012438035
 20
129.9800088614
 40
0.9000088601
100
AcDbArc
 50
184.0005260622
 51
262.6025293686
  0
ARC
  5
4B9
100
AcDbEntity
  8
RUNDUNGEN
100
AcDbCircle
 62
7
  6
CONTINUOUS
 10
97.2072938908
 20
129.98
 40
0.9
100
AcDbArc
 50
277.401841889
 51
356.0
  0
ARC
  5
4BA
100
AcDbEntity
  8
RUNDUNGEN
100
AcDbCircle
 62
7
  6
CONTINUOUS
 10
89.4529336074
 20
129.58
 40
0.5
100
AcDbArc
 50
181.0
 51
270.0
  0
ARC
  5
4BB
100
AcDbEntity
  8
RUNDUNGEN
100
AcDbCircle
 62
7
  6
CONTINUOUS
 10
89.9767249547
 20
129.3799999735
 40
0.3
100
AcDbArc
 50
270.0000008664
 51
279.626317258
  0
ARC
  5
4BC
100
AcDbEntity
  8
RUNDUNGEN
100
AcDbCircle
 62
7
  6
CONTINUOUS
 10
97.331864477
 20
129.38
 40
0.3
100
AcDbArc
 50
260.5344757354
 51
269.9999958021
  0
ARC
  5
4BD
100
AcDbEntity
  8
RUNDUNGEN
100
AcDbCircle
 62
7
  6
CONTINUOUS
 10
99.5016949565
 20
129.3800000571
 40
0.3
100
AcDbArc
 50
269.9999997716
 51
358.7999890946
  0
ARC
  5
4BE
100
AcDbEntity
  8
RUNDUNGEN
100
AcDbCircle
 62
7
  6
CONTINUOUS
 10
102.856834477
 20
129.38
 40
0.3
100
AcDbArc
 50
181.2
 51
270.0
  0
ARC
  5
4BF
100
AcDbEntity
  8
RUNDUNGEN
100
AcDbCircle
 62
7
  6
CONTINUOUS
 10
103.5016949565
 20
129.3800000571
 40
0.3
100
AcDbArc
 50
269.9999997716
 51
358.7999890946
  0
ARC
  5
4C0
100
AcDbEntity
  8
RUNDUNGEN
100
AcDbCircle
 62
7
  6
CONTINUOUS
 10
106.856834477
 20
129.38
 40
0.3
100
AcDbArc
 50
181.2
 51
270.0
  0
ARC
  5
4C1
100
AcDbEntity
  8
0
100
AcDbCircle
 62
7
  6
CONTINUOUS
 10
97.7900803611
 20
132.58
 40
0.5
100
AcDbArc
 50
356.0
 51
90.0
  0
ARC
  5
4C2
100
AcDbEntity
  8
RUNDUNGEN
100
AcDbCircle
 62
7
  6
CONTINUOUS
 10
97.7900803573
 20
132.5799999459
 40
0.5
100
AcDbArc
 50
356.0000062102
 51
89.9999995668
  0
ARC
  5
4C3
100
AcDbEntity
  8
RUNDUNGEN
100
AcDbCircle
 62
7
  6
CONTINUOUS
 10
89.5184490711
 20
132.58
 40
0.5
100
AcDbArc
 50
90.0
 51
184.0
  0
ARC
  5
4C4
100
AcDbEntity
  8
RUNDUNGEN
100
AcDbCircle
 62
7
  6
CONTINUOUS
 10
89.4005684126
 20
132.58
 40
0.5
100
AcDbArc
 50
90.0
 51
180.9999999995
  0
ARC
  5
4C5
100
AcDbEntity
  8
RUNDUNGEN
100
AcDbCircle
 62
7
  6
CONTINUOUS
 10
116.2572938908
 20
129.98
 40
0.9
100
AcDbArc
 50
277.401841889
 51
356.0
  0
ARC
  5
4C6
100
AcDbEntity
  8
RUNDUNGEN
100
AcDbCircle
 62
7
  6
CONTINUOUS
 10
109.1512355413
 20
129.9800000013
 40
0.9
100
AcDbArc
 50
184.0000000858
 51
262.6039196881
  0
ARC
  5
4C7
100
AcDbEntity
  8
RUNDUNGEN
100
AcDbCircle
 62
7
  6
CONTINUOUS
 10
109.0267249454
 20
129.3799995314
 40
0.3
100
AcDbArc
 50
270.0000047985
 51
279.4743341763
  0
ARC
  5
4C8
100
AcDbEntity
  8
RUNDUNGEN
100
AcDbCircle
 62
7
  6
CONTINUOUS
 10
116.381864477
 20
129.38
 40
0.3
100
AcDbArc
 50
260.5344757222
 51
269.9999972403
  0
ARC
  5
4C9
100
AcDbEntity
  8
RUNDUNGEN
100
AcDbCircle
 62
7
  6
CONTINUOUS
 10
118.5516949565
 20
129.3800000571
 40
0.3
100
AcDbArc
 50
269.9999997716
 51
358.7999890942
  0
ARC
  5
4CA
100
AcDbEntity
  8
RUNDUNGEN
100
AcDbCircle
 62
7
  6
CONTINUOUS
 10
121.906834477
 20
129.38
 40
0.3
100
AcDbArc
 50
181.2
 51
270.0
  0
ARC
  5
4CB
100
AcDbEntity
  8
RUNDUNGEN
100
AcDbCircle
 62
7
  6
CONTINUOUS
 10
122.5516949565
 20
129.3800000571
 40
0.3
100
AcDbArc
 50
269.9999997716
 51
358.7999890942
  0
ARC
  5
4CC
100
AcDbEntity
  8
RUNDUNGEN
100
AcDbCircle
 62
7
  6
CONTINUOUS
 10
125.906834477
 20
129.38
 40
0.3
100
AcDbArc
 50
181.2
 51
270.0
  0
ARC
  5
4CD
100
AcDbEntity
  8
0
100
AcDbCircle
 62
7
  6
CONTINUOUS
 10
108.5684490711
 20
132.58
 40
0.5
100
AcDbArc
 50
90.0
 51
184.0
  0
ARC
  5
4CE
100
AcDbEntity
  8
RUNDUNGEN
100
AcDbCircle
 62
7
  6
CONTINUOUS
 10
108.5684490711
 20
132.58
 40
0.5
100
AcDbArc
 50
90.0
 51
184.0
  0
ARC
  5
4CF
100
AcDbEntity
  8
RUNDUNGEN
100
AcDbCircle
 62
7
  6
CONTINUOUS
 10
116.8400803573
 20
132.5799999459
 40
0.5
100
AcDbArc
 50
356.0000062139
 51
89.9999995665
  0
ARC
  5
4D0
100
AcDbEntity
  8
0
100
AcDbCircle
 62
7
  6
CONTINUOUS
 10
116.8400803611
 20
132.58
 40
0.5
100
AcDbArc
 50
356.0
 51
90.0
  0
ARC
  5
4D1
100
AcDbEntity
  8
0
100
AcDbCircle
 62
7
  6
CONTINUOUS
 10
146.0750408989
 20
127.2414791448
 40
2.0
100
AcDbArc
 50
7.496760798
 51
43.320645418
  0
ARC
  5
4D2
100
AcDbEntity
  8
RUNDUNGEN
100
AcDbCircle
 62
7
  6
CONTINUOUS
 10
146.0750408989
 20
127.2414791448
 40
2.0
100
AcDbArc
 50
2.999988113
 51
7.496760798
  0
ARC
  5
4D3
100
AcDbEntity
  8
RUNDUNGEN
100
AcDbCircle
 62
7
  6
CONTINUOUS
 10
155.5334885333
 20
127.2414791448
 40
2.0
100
AcDbArc
 50
172.5032392039
 51
177.0000109742
  0
ARC
  5
4D4
100
AcDbEntity
  8
0
100
AcDbCircle
 62
7
  6
CONTINUOUS
 10
155.5334885333
 20
127.2414791448
 40
2.0
100
AcDbArc
 50
136.6788787683
 51
172.5032392039
  0
ARC
  5
4D5
100
AcDbEntity
  8
0
100
AcDbCircle
 62
7
  6
CONTINUOUS
 10
127.0250408989
 20
127.2414791448
 40
2.0
100
AcDbArc
 50
7.496760798
 51
43.320645418
  0
ARC
  5
4D6
100
AcDbEntity
  8
RUNDUNGEN
100
AcDbCircle
 62
7
  6
CONTINUOUS
 10
127.0250408989
 20
127.2414791448
 40
2.0
100
AcDbArc
 50
2.999988113
 51
7.496760798
  0
ARC
  5
4D7
100
AcDbEntity
  8
RUNDUNGEN
100
AcDbCircle
 62
7
  6
CONTINUOUS
 10
136.4834885333
 20
127.2414791448
 40
2.0
100
AcDbArc
 50
172.5032392008
 51
177.0000118847
  0
ARC
  5
4D8
100
AcDbEntity
  8
0
100
AcDbCircle
 62
7
  6
CONTINUOUS
 10
136.4834885333
 20
127.2414791448
 40
2.0
100
AcDbArc
 50
136.6788787659
 51
172.5032392008
  0
ARC
  5
4D9
100
AcDbEntity
  8
RUNDUNGEN
100
AcDbCircle
 62
7
  6
CONTINUOUS
 10
129.7287469995
 20
123.42
 40
0.5
100
AcDbArc
 50
183.0
 51
270.0
  0
ARC
  5
4DA
100
AcDbEntity
  8
RUNDUNGEN
100
AcDbCircle
 62
7
  6
CONTINUOUS
 10
133.7797824328
 20
123.42
 40
0.5
100
AcDbArc
 50
270.0
 51
357.0
  0
ARC
  5
4DB
100
AcDbEntity
  8
RUNDUNGEN
100
AcDbCircle
 62
7
  6
CONTINUOUS
 10
148.7787469995
 20
123.42
 40
0.5
100
AcDbArc
 50
183.0
 51
270.0
  0
ARC
  5
4DC
100
AcDbEntity
  8
RUNDUNGEN
100
AcDbCircle
 62
7
  6
CONTINUOUS
 10
152.8297824357
 20
123.4200000558
 40
0.5
100
AcDbArc
 50
269.9999996648
 51
356.9999935948
  0
ARC
  5
4DD
100
AcDbEntity
  8
RUNDUNGEN
100
AcDbCircle
 62
7
  6
CONTINUOUS
 10
164.4230726261
 20
123.4200000676
 40
0.5
100
AcDbArc
 50
269.9999998648
 51
358.9999922519
  0
ARC
  5
4DE
100
AcDbEntity
  8
RUNDUNGEN
100
AcDbCircle
 62
7
  6
CONTINUOUS
 10
135.3072938908
 20
129.98
 40
0.9
100
AcDbArc
 50
277.401841889
 51
356.0
  0
ARC
  5
4DF
100
AcDbEntity
  8
RUNDUNGEN
100
AcDbCircle
 62
7
  6
CONTINUOUS
 10
128.2012355413
 20
129.9800000013
 40
0.9
100
AcDbArc
 50
184.0000000858
 51
262.6039196881
  0
ARC
  5
4E0
100
AcDbEntity
  8
RUNDUNGEN
100
AcDbCircle
 62
7
  6
CONTINUOUS
 10
128.0767249454
 20
129.3799995314
 40
0.3
100
AcDbArc
 50
270.0000047985
 51
279.4743341763
  0
ARC
  5
4E1
100
AcDbEntity
  8
RUNDUNGEN
100
AcDbCircle
 62
7
  6
CONTINUOUS
 10
135.431864477
 20
129.38
 40
0.3
100
AcDbArc
 50
260.5344757222
 51
269.9999972403
  0
ARC
  5
4E2
100
AcDbEntity
  8
RUNDUNGEN
100
AcDbCircle
 62
7
  6
CONTINUOUS
 10
144.956834477
 20
129.38
 40
0.3
100
AcDbArc
 50
181.2
 51
270.0
  0
ARC
  5
4E3
100
AcDbEntity
  8
RUNDUNGEN
100
AcDbCircle
 62
7
  6
CONTINUOUS
 10
137.6016949565
 20
129.3800000571
 40
0.3
100
AcDbArc
 50
269.9999997716
 51
358.7999890942
  0
ARC
  5
4E4
100
AcDbEntity
  8
RUNDUNGEN
100
AcDbCircle
 62
7
  6
CONTINUOUS
 10
140.956834477
 20
129.38
 40
0.3
100
AcDbArc
 50
181.2
 51
270.0
  0
ARC
  5
4E5
100
AcDbEntity
  8
RUNDUNGEN
100
AcDbCircle
 62
7
  6
CONTINUOUS
 10
141.6016949565
 20
129.3800000571
 40
0.3
100
AcDbArc
 50
269.9999997716
 51
358.7999890942
  0
ARC
  5
4E6
100
AcDbEntity
  8
0
100
AcDbCircle
 62
7
  6
CONTINUOUS
 10
127.6184490711
 20
132.58
 40
0.5
100
AcDbArc
 50
90.0
 51
184.0
  0
ARC
  5
4E7
100
AcDbEntity
  8
RUNDUNGEN
100
AcDbCircle
 62
7
  6
CONTINUOUS
 10
127.6184490711
 20
132.58
 40
0.5
100
AcDbArc
 50
90.0
 51
184.0
  0
ARC
  5
4E8
100
AcDbEntity
  8
RUNDUNGEN
100
AcDbCircle
 62
7
  6
CONTINUOUS
 10
135.8900803573
 20
132.5799999459
 40
0.5
100
AcDbArc
 50
356.0000062139
 51
89.9999995665
  0
ARC
  5
4E9
100
AcDbEntity
  8
0
100
AcDbCircle
 62
7
  6
CONTINUOUS
 10
135.8900803611
 20
132.58
 40
0.5
100
AcDbArc
 50
356.0
 51
90.0
  0
ARC
  5
4EA
100
AcDbEntity
  8
RUNDUNGEN
100
AcDbCircle
 62
7
  6
CONTINUOUS
 10
154.3572938908
 20
129.98
 40
0.9
100
AcDbArc
 50
277.401841889
 51
356.0
  0
ARC
  5
4EB
100
AcDbEntity
  8
RUNDUNGEN
100
AcDbCircle
 62
7
  6
CONTINUOUS
 10
147.2512355413
 20
129.9800000013
 40
0.9
100
AcDbArc
 50
184.0000000858
 51
262.6039196881
  0
ARC
  5
4EC
100
AcDbEntity
  8
RUNDUNGEN
100
AcDbCircle
 62
7
  6
CONTINUOUS
 10
164.5305958222
 20
129.5799998457
 40
0.4999999486
100
AcDbArc
 50
270.0000003087
 51
359.0000176864
  0
ARC
  5
4ED
100
AcDbEntity
  8
RUNDUNGEN
100
AcDbCircle
 62
7
  6
CONTINUOUS
 10
147.1267249454
 20
129.3799995314
 40
0.3
100
AcDbArc
 50
270.0000047985
 51
279.4743341763
  0
ARC
  5
4EE
100
AcDbEntity
  8
RUNDUNGEN
100
AcDbCircle
 62
7
  6
CONTINUOUS
 10
164.006834477
 20
129.38
 40
0.3
100
AcDbArc
 50
181.2
 51
270.0
  0
ARC
  5
4EF
100
AcDbEntity
  8
RUNDUNGEN
100
AcDbCircle
 62
7
  6
CONTINUOUS
 10
160.6516949565
 20
129.3800000571
 40
0.3
100
AcDbArc
 50
269.9999997716
 51
358.7999890942
  0
ARC
  5
4F0
100
AcDbEntity
  8
RUNDUNGEN
100
AcDbCircle
 62
7
  6
CONTINUOUS
 10
154.481864477
 20
129.38
 40
0.3
100
AcDbArc
 50
260.5344757222
 51
269.9999972403
  0
ARC
  5
4F1
100
AcDbEntity
  8
RUNDUNGEN
100
AcDbCircle
 62
7
  6
CONTINUOUS
 10
160.006834477
 20
129.38
 40
0.3
100
AcDbArc
 50
181.2
 51
270.0
  0
ARC
  5
4F2
100
AcDbEntity
  8
RUNDUNGEN
100
AcDbCircle
 62
7
  6
CONTINUOUS
 10
156.6516949565
 20
129.3800000571
 40
0.3
100
AcDbArc
 50
269.9999997716
 51
358.7999890942
  0
ARC
  5
4F3
100
AcDbEntity
  8
0
100
AcDbCircle
 62
7
  6
CONTINUOUS
 10
146.6684490711
 20
132.58
 40
0.5
100
AcDbArc
 50
90.0
 51
184.0
  0
ARC
  5
4F4
100
AcDbEntity
  8
RUNDUNGEN
100
AcDbCircle
 62
7
  6
CONTINUOUS
 10
146.6684490711
 20
132.58
 40
0.5
100
AcDbArc
 50
90.0
 51
184.0
  0
ARC
  5
4F5
100
AcDbEntity
  8
0
100
AcDbCircle
 62
7
  6
CONTINUOUS
 10
154.9400803611
 20
132.58
 40
0.5
100
AcDbArc
 50
356.0
 51
90.0
  0
ARC
  5
4F6
100
AcDbEntity
  8
RUNDUNGEN
100
AcDbCircle
 62
7
  6
CONTINUOUS
 10
154.9400803611
 20
132.58
 40
0.5
100
AcDbArc
 50
356.0
 51
90.0
  0
ARC
  5
4F7
100
AcDbEntity
  8
RUNDUNGEN
100
AcDbCircle
 62
7
  6
CONTINUOUS
 10
164.5829610196
 20
132.58
 40
0.5
100
AcDbArc
 50
359.0
 51
90.0
  0
ARC
  5
4F8
100
AcDbEntity
  8
RUNDUNGEN
100
AcDbCircle
 62
7
  6
CONTINUOUS
 10
186.7876674107
 20
123.72
 40
0.8
100
AcDbArc
 50
269.9995380245
 51
302.9212362624
  0
ARC
  5
4F9
100
AcDbEntity
  8
RUNDUNGEN
100
AcDbCircle
 62
7
  6
CONTINUOUS
 10
184.3876674107
 20
123.72
 40
0.8
100
AcDbArc
 50
222.6281263054
 51
270.0003631313
  0
ARC
  5
4FA
100
AcDbEntity
  8
0
100
AcDbCircle
 62
7
  6
CONTINUOUS
 10
185.8826674107
 20
128.0
 40
3.5
100
AcDbArc
 50
72.8375278605
 51
112.2865778913
  0
ARC
  5
4FB
100
AcDbEntity
  8
RUNDUNGEN
100
AcDbCircle
 62
7
  6
CONTINUOUS
 10
185.8826674107
 20
128.0
 40
2.695
100
AcDbArc
 50
194.040964594
 51
180.0
  0
ARC
  5
4FC
100
AcDbEntity
  8
0
100
AcDbCircle
 62
7
  6
CONTINUOUS
 10
185.8826674107
 20
128.0
 40
2.695
100
AcDbArc
 50
180.0
 51
194.040964594
  0
ARC
  5
4FD
100
AcDbEntity
  8
RUNDUNGEN
100
AcDbCircle
 62
7
  6
CONTINUOUS
 10
197.8402522624
 20
123.92
 40
1.0
100
AcDbArc
 50
192.4996264714
 51
270.0003594144
  0
ARC
  5
4FE
100
AcDbEntity
  8
RUNDUNGEN
100
AcDbCircle
 62
7
  6
CONTINUOUS
 10
193.6300284456
 20
126.08
 40
3.0
100
AcDbArc
 50
89.9998779861
 51
155.6371058666
  0
ARC
  5
4FF
100
AcDbEntity
  8
RUNDUNGEN
100
AcDbCircle
 62
7
  6
CONTINUOUS
 10
194.8694434372
 20
128.08
 40
1.0
100
AcDbArc
 50
12.499708365
 51
90.0002967835
  0
ARC
  5
500
100
AcDbEntity
  8
0
100
AcDbCircle
 62
7
  6
CONTINUOUS
 10
-8.593449108
 20
131.5271146747
 40
224.0
100
AcDbArc
 50
359.2489537123
 51
359.7390621538
  0
ARC
  5
501
100
AcDbEntity
  8
0
100
AcDbCircle
 62
7
  6
CONTINUOUS
 10
182.3710943907
 20
130.5124540421
 40
1.2
100
AcDbArc
 50
154.5204331547
 51
180.261753929
  0
ARC
  5
502
100
AcDbEntity
  8
0
100
AcDbCircle
 62
7
  6
CONTINUOUS
 10
184.5376674107
 20
129.48
 40
3.6
100
AcDbArc
 50
89.9998754126
 51
154.5204331548
  0
ARC
  5
503
100
AcDbEntity
  8
0
100
AcDbCircle
 62
7
  6
CONTINUOUS
 10
185.3876674107
 20
128.646
 40
4.2
100
AcDbArc
 50
180.7509356644
 51
196.9449499242
  0
ARC
  5
504
100
AcDbEntity
  8
0
100
AcDbCircle
 62
7
  6
CONTINUOUS
 10
185.6930477059
 20
128.4626492922
 40
3.0
100
AcDbArc
 50
112.286577891
 51
153.6314175106
  0
ARC
  5
505
100
AcDbEntity
  8
RUNDUNGEN
100
AcDbCircle
 62
7
  6
CONTINUOUS
 10
181.7876674107
 20
131.4426938305
 40
10.0
100
AcDbArc
 50
302.9207746668
 51
335.637077793
  0
ARC
  5
506
100
AcDbEntity
  8
RUNDUNGEN
100
AcDbCircle
 62
7
  6
CONTINUOUS
 10
191.892463562
 20
130.6278241674
 40
11.0
100
AcDbArc
 50
196.944476438
 51
222.6281571948
  0
ARC
  5
507
100
AcDbEntity
  8
0
100
AcDbCircle
 62
7
  6
CONTINUOUS
 10
193.7826222496
 20
131.08
 40
2.0
100
AcDbArc
 50
229.9999819284
 51
232.1427333403
  0
ARC
  5
508
100
AcDbEntity
  8
0
100
AcDbCircle
 62
7
  6
CONTINUOUS
 10
193.7826222496
 20
131.08
 40
2.0
100
AcDbArc
 50
267.8097005707
 51
270.0001134919
  0
ARC
  5
509
100
AcDbEntity
  8
RUNDUNGEN
100
AcDbCircle
 62
7
  6
CONTINUOUS
 10
193.7826222496
 20
131.08
 40
2.0
100
AcDbArc
 50
229.9998340016
 51
270.0001735496
  0
ARC
  5
50A
100
AcDbEntity
  8
RUNDUNGEN
100
AcDbCircle
 62
7
  6
CONTINUOUS
 10
191.2876674107
 20
131.9
 40
2.82
100
AcDbArc
 50
234.3315836111
 51
264.5967975039
  0
ARC
  5
50B
100
AcDbEntity
  8
RUNDUNGEN
100
AcDbCircle
 62
7
  6
CONTINUOUS
 10
189.6614061204
 20
132.58
 40
0.5
100
AcDbArc
 50
90.0
 51
230.0
  0
ARC
  5
50C
100
AcDbEntity
  8
RUNDUNGEN
100
AcDbCircle
 62
7
  6
CONTINUOUS
 10
198.735082559
 20
123.92
 40
1.0
100
AcDbArc
 50
269.999640587
 51
347.5003735295
  0
ARC
  5
50D
100
AcDbEntity
  8
RUNDUNGEN
100
AcDbCircle
 62
7
  6
CONTINUOUS
 10
202.9453063759
 20
126.08
 40
3.0
100
AcDbArc
 50
24.362894279
 51
90.0001232287
  0
ARC
  5
50E
100
AcDbEntity
  8
RUNDUNGEN
100
AcDbCircle
 62
7
  6
CONTINUOUS
 10
201.7058913843
 20
128.08
 40
1.0
100
AcDbArc
 50
89.9997034174
 51
167.5002918798
  0
ARC
  5
50F
100
AcDbEntity
  8
RUNDUNGEN
100
AcDbCircle
 62
7
  6
CONTINUOUS
 10
209.7876674107
 20
123.72
 40
0.8
100
AcDbArc
 50
237.0787637376
 51
270.0004619755
  0
ARC
  5
510
100
AcDbEntity
  8
RUNDUNGEN
100
AcDbCircle
 62
7
  6
CONTINUOUS
 10
212.1876674107
 20
123.72
 40
0.8
100
AcDbArc
 50
269.9996369287
 51
317.3718736946
  0
ARC
  5
511
100
AcDbEntity
  8
RUNDUNGEN
100
AcDbCircle
 62
7
  6
CONTINUOUS
 10
210.6926674107
 20
128.0
 40
3.5
100
AcDbArc
 50
67.7134515491
 51
107.1624562827
  0
CIRCLE
  5
512
100
AcDbEntity
  8
RUNDUNGEN
100
AcDbCircle
 62
7
  6
CONTINUOUS
 10
210.6926674107
 20
128.0
 40
2.695
  0
ARC
  5
513
100
AcDbEntity
  8
0
100
AcDbCircle
 62
7
  6
CONTINUOUS
 10
210.8822871155
 20
128.4626492922
 40
3.0
100
AcDbArc
 50
26.3685855818
 51
67.7134564561
  0
ARC
  5
514
100
AcDbEntity
  8
0
100
AcDbCircle
 62
7
  6
CONTINUOUS
 10
211.1876674107
 20
128.646
 40
4.2
100
AcDbArc
 50
343.0550500758
 51
359.2490643356
  0
ARC
  5
515
100
AcDbEntity
  8
0
100
AcDbCircle
 62
7
  6
CONTINUOUS
 10
212.0376674107
 20
129.48
 40
3.6
100
AcDbArc
 50
25.4794970016
 51
90.0001245874
  0
ARC
  5
516
100
AcDbEntity
  8
RUNDUNGEN
100
AcDbCircle
 62
7
  6
CONTINUOUS
 10
204.6828712595
 20
130.6278241674
 40
11.0
100
AcDbArc
 50
317.3718428052
 51
343.0553469165
  0
ARC
  5
517
100
AcDbEntity
  8
RUNDUNGEN
100
AcDbCircle
 62
7
  6
CONTINUOUS
 10
205.2876674107
 20
131.9
 40
2.82
100
AcDbArc
 50
275.3999229835
 51
305.6684163888
  0
ARC
  5
518
100
AcDbEntity
  8
0
100
AcDbCircle
 62
7
  6
CONTINUOUS
 10
214.2042404307
 20
130.5124540421
 40
1.2
100
AcDbArc
 50
359.738246071
 51
25.4793573143
  0
ARC
  5
519
100
AcDbEntity
  8
RUNDUNGEN
100
AcDbCircle
 62
7
  6
CONTINUOUS
 10
214.7876674107
 20
131.4426938305
 40
10.0
100
AcDbArc
 50
204.3629221633
 51
237.0792253332
  0
ARC
  5
51A
100
AcDbEntity
  8
0
100
AcDbCircle
 62
7
  6
CONTINUOUS
 10
405.1687839295
 20
131.5271146747
 40
224.0
100
AcDbArc
 50
180.2609334508
 51
180.7510484015
  0
SPLINE
  5
51B
100
AcDbEntity
  8
RUNDUNGEN
100
AcDbSpline
 62
7
  6
CONTINUOUS
 70
0
 71
3
 72
12
 73
8
 74
6
 42
0.0000001
 43
0.0000001
 44
0.0000000001
 12
0.0517597024
 22
0.0074146095
 32
0.0
 13
-0.0465064216
 23
-0.0240668186
 33
0.0
 40
0.0
 40
0.0
 40
0.0
 40
0.0
 40
0.4258055275
 40
0.7212739511
 40
0.8942447273
 40
0.9593738213
 40
1.0
 40
1.0
 40
1.0
 40
1.0
 10
154.4850747231
 20
129.0891172108
 30
0.0
 10
154.4924212456
 20
129.0901696047
 30
0.0
 10
154.5043836507
 20
129.0919846986
 30
0.0
 10
154.5212895479
 20
129.0945624355
 30
0.0
 10
154.5280424731
 20
129.0952631689
 30
0.0
 10
154.5361108409
 20
129.0958710067
 30
0.0
 10
154.5339519448
 20
129.0939403216
 30
0.0
 10
154.533322152
 20
129.0936144074
 30
0.0
 11
154.4850747231
 21
129.0891172108
 31
0.0
 11
154.5071285254
 21
129.0924047154
 31
0.0
 11
154.5224407741
 21
129.0946230819
 31
0.0
 11
154.5314544293
 21
129.0955138012
 31
0.0
 11
154.5348402704
 21
129.0951047254
 31
0.0
 11
154.533322152
 21
129.0936144074
 31
0.0
  0
SPLINE
  5
51C
100
AcDbEntity
  8
RUNDUNGEN
100
AcDbSpline
 62
7
  6
CONTINUOUS
 70
0
 71
3
 72
12
 73
8
 74
6
 42
0.0000001
 43
0.0000001
 44
0.0000000001
 12
0.0517597024
 22
0.0074146095
 32
0.0
 13
-0.0465064216
 23
-0.0240668187
 33
0.0
 40
0.0
 40
0.0
 40
0.0
 40
0.0
 40
0.4258055285
 40
0.7212739517
 40
0.8942447276
 40
0.9593738213
 40
1.0
 40
1.0
 40
1.0
 40
1.0
 10
135.4350747231
 20
129.0891172108
 30
0.0
 10
135.4424212455
 20
129.0901696047
 30
0.0
 10
135.4543836507
 20
129.0919846986
 30
0.0
 10
135.4712895479
 20
129.0945624355
 30
0.0
 10
135.4780424731
 20
129.0952631689
 30
0.0
 10
135.4861108409
 20
129.0958710067
 30
0.0
 10
135.4839519448
 20
129.0939403216
 30
0.0
 10
135.483322152
 20
129.0936144074
 30
0.0
 11
135.4350747231
 21
129.0891172108
 31
0.0
 11
135.4571285255
 21
129.0924047154
 31
0.0
 11
135.4724407741
 21
129.0946230819
 31
0.0
 11
135.4814544293
 21
129.0955138012
 31
0.0
 11
135.4848402704
 21
129.0951047254
 31
0.0
 11
135.483322152
 21
129.0936144074
 31
0.0
  0
SPLINE
  5
51D
100
AcDbEntity
  8
RUNDUNGEN
100
AcDbSpline
 62
7
  6
CONTINUOUS
 70
0
 71
3
 72
12
 73
8
 74
6
 42
0.0000001
 43
0.0000001
 44
0.0000000001
 12
0.0517597024
 22
0.0074146095
 32
0.0
 13
-0.0465064216
 23
-0.0240668187
 33
0.0
 40
0.0
 40
0.0
 40
0.0
 40
0.0
 40
0.4258055284
 40
0.7212739517
 40
0.8942447276
 40
0.9593738213
 40
1.0
 40
1.0
 40
1.0
 40
1.0
 10
116.3850747231
 20
129.0891172108
 30
0.0
 10
116.3924212455
 20
129.0901696047
 30
0.0
 10
116.4043836507
 20
129.0919846986
 30
0.0
 10
116.4212895479
 20
129.0945624355
 30
0.0
 10
116.4280424731
 20
129.0952631689
 30
0.0
 10
116.4361108409
 20
129.0958710067
 30
0.0
 10
116.4339519448
 20
129.0939403216
 30
0.0
 10
116.433322152
 20
129.0936144074
 30
0.0
 11
116.3850747231
 21
129.0891172108
 31
0.0
 11
116.4071285255
 21
129.0924047154
 31
0.0
 11
116.4224407741
 21
129.0946230819
 31
0.0
 11
116.4314544293
 21
129.0955138012
 31
0.0
 11
116.4348402704
 21
129.0951047254
 31
0.0
 11
116.433322152
 21
129.0936144074
 31
0.0
  0
SPLINE
  5
51E
100
AcDbEntity
  8
RUNDUNGEN
100
AcDbSpline
 62
7
  6
CONTINUOUS
 70
0
 71
3
 72
12
 73
8
 74
6
 42
0.0000001
 43
0.0000001
 44
0.0000000001
 12
0.0517807048
 22
0.0074163111
 32
0.0
 13
-0.0465209074
 23
-0.0240768019
 33
0.0
 40
0.0
 40
0.0
 40
0.0
 40
0.0
 40
0.4261551523
 40
0.7208924032
 40
0.8938896948
 40
0.9593795485
 40
1.0
 40
1.0
 40
1.0
 40
1.0
 10
97.3350544112
 20
129.0891143007
 30
0.0
 10
97.3424099493
 20
129.0901678004
 30
0.0
 10
97.3543691216
 20
129.0919796834
 30
0.0
 10
97.371271831
 20
129.0945652478
 30
0.0
 10
97.3780220367
 20
129.0952522648
 30
0.0
 10
97.3861100396
 20
129.0958835704
 30
0.0
 10
97.3839520555
 20
129.0939403992
 30
0.0
 10
97.3833221555
 20
129.0936143957
 30
0.0
 11
97.3350544112
 21
129.0891143007
 31
0.0
 11
97.3571336647
 21
129.0924054906
 31
0.0
 11
97.3724130605
 21
129.0946194635
 31
0.0
 11
97.3814308723
 21
129.0955129393
 31
0.0
 11
97.3848374112
 21
129.0951082069
 31
0.0
 11
97.3833221555
 21
129.0936143957
 31
0.0
  0
SPLINE
  5
51F
100
AcDbEntity
  8
RUNDUNGEN
100
AcDbSpline
 62
7
  6
CONTINUOUS
 70
0
 71
3
 72
12
 73
8
 74
6
 42
0.0000001
 43
0.0000001
 44
0.0000000001
 12
-0.0465099689
 22
0.0240572686
 32
0.0
 13
0.0517589906
 23
-0.0074093649
 33
0.0
 40
0.0
 40
0.0
 40
0.0
 40
0.0
 40
0.0406121718
 40
0.1056269273
 40
0.2785321184
 40
0.5739347643
 40
1.0
 40
1.0
 40
1.0
 40
1.0
 10
108.9752965548
 20
129.093598737
 30
0.0
 10
108.9746669312
 20
129.0939244096
 30
0.0
 10
108.9725076717
 20
129.0958506074
 30
0.0
 10
108.9805694044
 20
129.09524949
 30
0.0
 10
108.9873186264
 20
129.094546149
 30
0.0
 10
109.0042270499
 20
129.0919719769
 30
0.0
 10
109.0161922704
 20
129.0901568181
 30
0.0
 10
109.0235431726
 20
129.0891045272
 30
0.0
 11
108.9752965548
 21
129.093598737
 31
0.0
 11
108.9737776714
 21
129.0950871558
 31
0.0
 11
108.9771572774
 21
129.0954972474
 31
0.0
 11
108.9861674264
 21
129.0946081477
 31
0.0
 11
109.0014761269
 21
129.0923918642
 31
0.0
 11
109.0235431726
 21
129.0891045272
 31
0.0
  0
SPLINE
  5
520
100
AcDbEntity
  8
RUNDUNGEN
100
AcDbSpline
 62
7
  6
CONTINUOUS
 70
0
 71
3
 72
12
 73
8
 74
6
 42
0.0000001
 43
0.0000001
 44
0.0000000001
 12
-0.0465099689
 22
0.0240572686
 32
0.0
 13
0.0517589906
 23
-0.0074093649
 33
0.0
 40
0.0
 40
0.0
 40
0.0
 40
0.0
 40
0.0406121718
 40
0.1056269272
 40
0.2785321183
 40
0.5739347642
 40
1.0
 40
1.0
 40
1.0
 40
1.0
 10
128.0252965548
 20
129.093598737
 30
0.0
 10
128.0246669312
 20
129.0939244096
 30
0.0
 10
128.0225076717
 20
129.0958506074
 30
0.0
 10
128.0305694044
 20
129.09524949
 30
0.0
 10
128.0373186264
 20
129.094546149
 30
0.0
 10
128.0542270499
 20
129.0919719769
 30
0.0
 10
128.0661922704
 20
129.0901568181
 30
0.0
 10
128.0735431726
 20
129.0891045272
 30
0.0
 11
128.0252965548
 21
129.093598737
 31
0.0
 11
128.0237776714
 21
129.0950871558
 31
0.0
 11
128.0271572774
 21
129.0954972474
 31
0.0
 11
128.0361674264
 21
129.0946081477
 31
0.0
 11
128.0514761269
 21
129.0923918642
 31
0.0
 11
128.0735431726
 21
129.0891045272
 31
0.0
  0
SPLINE
  5
521
100
AcDbEntity
  8
RUNDUNGEN
100
AcDbSpline
 62
7
  6
CONTINUOUS
 70
0
 71
3
 72
12
 73
8
 74
6
 42
0.0000001
 43
0.0000001
 44
0.0000000001
 12
-0.0465099689
 22
0.0240572686
 32
0.0
 13
0.0517589906
 23
-0.0074093649
 33
0.0
 40
0.0
 40
0.0
 40
0.0
 40
0.0
 40
0.0406121718
 40
0.1056269272
 40
0.2785321183
 40
0.5739347642
 40
1.0
 40
1.0
 40
1.0
 40
1.0
 10
147.0752965548
 20
129.093598737
 30
0.0
 10
147.0746669312
 20
129.0939244096
 30
0.0
 10
147.0725076717
 20
129.0958506074
 30
0.0
 10
147.0805694044
 20
129.09524949
 30
0.0
 10
147.0873186264
 20
129.094546149
 30
0.0
 10
147.1042270499
 20
129.0919719769
 30
0.0
 10
147.1161922704
 20
129.0901568181
 30
0.0
 10
147.1235431726
 20
129.0891045272
 30
0.0
 11
147.0752965548
 21
129.093598737
 31
0.0
 11
147.0737776714
 21
129.0950871558
 31
0.0
 11
147.0771572774
 21
129.0954972474
 31
0.0
 11
147.0861674264
 21
129.0946081477
 31
0.0
 11
147.1014761269
 21
129.0923918642
 31
0.0
 11
147.1235431726
 21
129.0891045272
 31
0.0
  0
ENDSEC
  0
SECTION
  2
OBJECTS
  0
DICTIONARY
  5
C
100
AcDbDictionary
280
0
281
1
  3
ACAD_GROUP
350
D
  3
ACAD_MLINESTYLE
350
17
  3
ACAD_LAYOUT
350
1A
  3
ACAD_PLOTSETTINGS
350
19
  3
ACAD_PLOTSTYLENAME
350
E
  0
DICTIONARY
  5
D
102
{ACAD_REACTORS
330
C
102
}
100
AcDbDictionary
280
0
281
1
  0
ACDBDICTIONARYWDFLT
  5
E
102
{ACAD_REACTORS
330
C
102
}
100
AcDbDictionary
281
1
  3
Normal
350
F
100
AcDbDictionaryWithDefault
340
F
  0
DICTIONARY
  5
17
102
{ACAD_REACTORS
330
C
102
}
100
AcDbDictionary
280
0
281
1
  3
Standard
350
18
  0
DICTIONARY
  5
19
102
{ACAD_REACTORS
330
C
102
}
100
AcDbDictionary
281
1
  0
DICTIONARY
  5
1A
102
{ACAD_REACTORS
330
C
102
}
100
AcDbDictionary
281
1
  3
Model
350
522
  3
Layout1
350
523
  0
ACDBPLACEHOLDER
  5
F
102
{ACAD_REACTORS
330
E
102
}
  0
MLINESTYLE
  5
18
102
{ACAD_REACTORS
330
17
102
}
100
AcDbMlineStyle
  2
STANDARD
 70
0
  3

 62
256
 51
90.0
 52
90.0
 71
2
 49
0.5
 62
256
  6
BYLAYER
 49
-0.5
 62
256
  6
BYLAYER
  0
LAYOUT
  5
522
102
{ACAD_REACTORS
330
1A
102
}
100
AcDbPlotSettings
  1

  2
none_device
  4
ISO_A4_(297.00_x_210.00_MM)
  6

 40
0.0
 41
0.0
 42
0.0
 43
0.0
 44
297.0
 45
210.0
 46
0.0
 47
0.0
 48
0.0
 49
0.0
140
0.0
141
0.0
142
1.0
143
1.0
 70
1024
 72
1
 73
0
 74
0
  7

 75
0
147
1.0
148
0.0
149
0.0
100
AcDbLayout
  1
Model
 70
0
 71
0
 10
0.0
 20
0.0
 11
297.0
 21
210.0
 12
0.0
 22
0.0
 32
0.0
 14
0.0
 24
0.0
 34
0.0
 15
0.0
 25
0.0
 35
0.0
146
0.0
 13
0.0
 23
0.0
 33
0.0
 16
1.0
 26
0.0
 36
0.0
 17
0.0
 27
1.0
 37
0.0
 76
0
330
216
345
0
346
0
  0
LAYOUT
  5
523
102
{ACAD_REACTORS
330
1A
102
}
100
AcDbPlotSettings
  1

  2
none_device
  4
ISO_A4_(297.00_x_210.00_MM)
  6

 40
0.0
 41
0.0
 42
0.0
 43
0.0
 44
297.0
 45
210.0
 46
0.0
 47
0.0
 48
0.0
 49
0.0
140
0.0
141
0.0
142
1.0
143
1.0
 70
0
 72
1
 73
0
 74
0
  7

 75
0
147
1.0
148
0.0
149
0.0
100
AcDbLayout
  1
Layout1
 70
0
 71
1
 10
0.0
 20
0.0
 11
297.0
 21
210.0
 12
0.0
 22
0.0
 32
0.0
 14
0.0
 24
0.0
 34
0.0
 15
0.0
 25
0.0
 35
0.0
146
0.0
 13
0.0
 23
0.0
 33
0.0
 16
1.0
 26
0.0
 36
0.0
 17
0.0
 27
1.0
 37
0.0
 76
0
330
217
345
0
346
0
  0
ENDSEC
  0
EOF
