999
DXF file: vorlage_xmx-tv-s10.dxf
999
Pro/ENGINEER 2008490 by Parametric Technology Corporation
  0
SECTION
  2
HEADER
  9
$ACADVER
  1
AC1021
  9
$DWGCODEPAGE
  3
ANSI_1252
  9
$EXTMAX
 10
297.0
 20
210.0
 30
0.0
  9
$EXTMIN
 10
0.0
 20
0.0
 30
0.0
  9
$LIMMIN
 10
0.0
 20
0.0
  9
$LIMMAX
 10
297.0
 20
210.0
  9
$VIEWCTR
 10
148.5
 20
105.0
  9
$VIEWSIZE
 40
210.0
  9
$CLAYER
  8
0
  9
$LTSCALE
 40
16.335
  9
$CELTYPE
  6
BYLAYER
  9
$DIMSCALE
 40
1.0
  9
$DIMASZ
 40
3.5
  9
$DIMEXO
 40
1.85625
  9
$DIMDLI
 40
11.286
  9
$DIMEXE
 40
5.346
  9
$DIMCEN
 40
2.673
  9
$DIMLFAC
 40
1.0
  9
$DIMBLK
  1
_FILLED
  9
$DIMTXT
 40
3.5
  9
$DIMTOL
 70
1
  9
$DIMLIM
 70
0
  9
$DIMTFAC
 40
1.0
  9
$DIMTP
 40
0.005
  9
$DIMTM
 40
0.005
  9
$PDMODE
 70
3
  9
$PDSIZE
 40
0.3125
  9
$HANDSEED
  5
35D
  9
$TILEMODE
 70
1
  9
$MEASUREMENT
 70
1
  9
$INSUNITS
 70
4
  0
ENDSEC
  0
SECTION
  2
CLASSES
  0
CLASS
  1
ACDBDICTIONARYWDFLT
  2
AcDbDictionaryWithDefault
  3
AutoCAD 2000
 90
0
 91
1
280
0
281
0
  0
CLASS
  1
ACDBPLACEHOLDER
  2
AcDbPlaceHolder
  3
AutoCAD 2000
 90
0
 91
1
280
0
281
0
  0
CLASS
  1
LAYOUT
  2
AcDbLayout
  3
AutoCAD 2000
 90
0
 91
0
280
0
281
0
  0
ENDSEC
  0
SECTION
  2
TABLES
  0
TABLE
  2
VPORT
  5
8
100
AcDbSymbolTable
 70
2
  0
VPORT
  5
1F4
100
AcDbSymbolTableRecord
100
AcDbViewportTableRecord
  2
*ACTIVE
 70
0
 10
0.0
 20
0.0
 11
1.0
 21
1.0
 12
148.5
 22
105.0
 13
0.0
 23
0.0
 14
1.0
 24
1.0
 15
0.0
 25
0.0
 16
0.0
 26
0.0
 36
1.0
 17
0.0
 27
0.0
 37
0.0
 40
210.0
 41
1.4142857143
 42
50.0
 43
0.0
 44
0.0
 50
0.0
 51
0.0
 71
0
 72
100
 73
1
 74
1
 75
0
 76
0
 77
0
 78
0
  0
ENDTAB
  0
TABLE
  2
LTYPE
  5
5
100
AcDbSymbolTable
 70
6
  0
LTYPE
  5
14
100
AcDbSymbolTableRecord
100
AcDbLinetypeTableRecord
  2
BYBLOCK
 70
0
  3

 72
65
 73
0
 40
0.0
  0
LTYPE
  5
15
100
AcDbSymbolTableRecord
100
AcDbLinetypeTableRecord
  2
BYLAYER
 70
0
  3

 72
65
 73
0
 40
0.0
  0
LTYPE
  5
16
100
AcDbSymbolTableRecord
100
AcDbLinetypeTableRecord
  2
CONTINUOUS
 70
64
  3
Solid line
 72
65
 73
0
 40
0.0
  0
LTYPE
  5
1F5
100
AcDbSymbolTableRecord
100
AcDbLinetypeTableRecord
  2
CENTER
 70
64
  3
____ _ ____ _ ____ _ ____ _ ____ _ ____ _ ____
 72
65
 73
4
 40
0.6
 49
0.375
 74
0
 49
-0.075
 74
0
 49
0.075
 74
0
 49
-0.075
 74
0
  0
LTYPE
  5
1F6
100
AcDbSymbolTableRecord
100
AcDbLinetypeTableRecord
  2
HIDDEN
 70
64
  3
- - - - - - - - - - - - - - - - - - - -
 72
65
 73
2
 40
0.2
 49
0.1
 74
0
 49
-0.1
 74
0
  0
LTYPE
  5
1F7
100
AcDbSymbolTableRecord
100
AcDbLinetypeTableRecord
  2
PHANTOM
 70
64
  3
_____ _ _ _____ _ _ _____ _ _ _____
 72
65
 73
6
 40
0.8
 49
0.45
 74
0
 49
-0.05
 74
0
 49
0.1
 74
0
 49
-0.05
 74
0
 49
0.1
 74
0
 49
-0.05
 74
0
  0
LTYPE
  5
1F8
100
AcDbSymbolTableRecord
100
AcDbLinetypeTableRecord
  2
DOT
 70
64
  3
. . . . . . . . . . . . . . . . . . . .
 72
65
 73
2
 40
0.2
 49
0.1
 74
0
 49
-0.1
 74
0
  0
LTYPE
  5
1F9
100
AcDbSymbolTableRecord
100
AcDbLinetypeTableRecord
  2
DASHED
 70
64
  3
- - - - - - - - - - - - - - - - - - - -
 72
65
 73
2
 40
0.2
 49
0.1
 74
0
 49
-0.1
 74
0
  0
ENDTAB
  0
TABLE
  2
LAYER
  5
2
100
AcDbSymbolTable
 70
36
  0
LAYER
  5
10
100
AcDbSymbolTableRecord
100
AcDbLayerTableRecord
  2
0
 70
0
 62
7
  6
CONTINUOUS
370
-3
390
F
  0
LAYER
  5
1FA
100
AcDbSymbolTableRecord
100
AcDbLayerTableRecord
  2
DEFAULT_1
 70
0
 62
7
  6
CENTER
370
-3
390
F
  0
LAYER
  5
1FB
100
AcDbSymbolTableRecord
100
AcDbLayerTableRecord
  2
DEFAULT_2
 70
0
 62
8
  6
HIDDEN
370
-3
390
F
  0
LAYER
  5
1FC
100
AcDbSymbolTableRecord
100
AcDbLayerTableRecord
  2
DEFAULT_3
 70
0
 62
7
  6
PHANTOM
370
-3
390
F
  0
LAYER
  5
1FD
100
AcDbSymbolTableRecord
100
AcDbLayerTableRecord
  2
01___PRT_ALL_DTM_PLN
 70
0
 62
7
  6
CONTINUOUS
370
-3
390
F
  0
LAYER
  5
1FE
100
AcDbSymbolTableRecord
100
AcDbLayerTableRecord
  2
01___PRT_DEF_DTM_PLN
 70
0
 62
7
  6
CONTINUOUS
370
-3
390
F
  0
LAYER
  5
1FF
100
AcDbSymbolTableRecord
100
AcDbLayerTableRecord
  2
02___PRT_ALL_AXES
 70
0
 62
7
  6
CONTINUOUS
370
-3
390
F
  0
LAYER
  5
200
100
AcDbSymbolTableRecord
100
AcDbLayerTableRecord
  2
03___PRT_ALL_CURVES
 70
0
 62
7
  6
CONTINUOUS
370
-3
390
F
  0
LAYER
  5
201
100
AcDbSymbolTableRecord
100
AcDbLayerTableRecord
  2
04___PRT_ALL_DTM_PNT
 70
0
 62
7
  6
CONTINUOUS
370
-3
390
F
  0
LAYER
  5
202
100
AcDbSymbolTableRecord
100
AcDbLayerTableRecord
  2
05___PRT_ALL_DTM_CSYS
 70
0
 62
7
  6
CONTINUOUS
370
-3
390
F
  0
LAYER
  5
203
100
AcDbSymbolTableRecord
100
AcDbLayerTableRecord
  2
05___PRT_DEF_DTM_CSYS
 70
0
 62
7
  6
CONTINUOUS
370
-3
390
F
  0
LAYER
  5
204
100
AcDbSymbolTableRecord
100
AcDbLayerTableRecord
  2
06___PRT_ALL_SURFS
 70
0
 62
7
  6
CONTINUOUS
370
-3
390
F
  0
LAYER
  5
205
100
AcDbSymbolTableRecord
100
AcDbLayerTableRecord
  2
ALLE
 70
0
 62
7
  6
CONTINUOUS
370
-3
390
F
  0
LAYER
  5
206
100
AcDbSymbolTableRecord
100
AcDbLayerTableRecord
  2
AUSFORMSCHRAEGEN
 70
0
 62
7
  6
CONTINUOUS
370
-3
390
F
  0
LAYER
  5
207
100
AcDbSymbolTableRecord
100
AcDbLayerTableRecord
  2
BEZUGSACHSEN
 70
0
 62
7
  6
CONTINUOUS
370
-3
390
F
  0
LAYER
  5
208
100
AcDbSymbolTableRecord
100
AcDbLayerTableRecord
  2
BEZUGSEBENE
 70
0
 62
7
  6
CONTINUOUS
370
-3
390
F
  0
LAYER
  5
209
100
AcDbSymbolTableRecord
100
AcDbLayerTableRecord
  2
BEZUGSEBENEN
 70
0
 62
7
  6
CONTINUOUS
370
-3
390
F
  0
LAYER
  5
20A
100
AcDbSymbolTableRecord
100
AcDbLayerTableRecord
  2
BEZUGSEBENEN-KES
 70
0
 62
7
  6
CONTINUOUS
370
-3
390
F
  0
LAYER
  5
20B
100
AcDbSymbolTableRecord
100
AcDbLayerTableRecord
  2
BOHRUNGEN
 70
0
 62
7
  6
CONTINUOUS
370
-3
390
F
  0
LAYER
  5
20C
100
AcDbSymbolTableRecord
100
AcDbLayerTableRecord
  2
FLAECHEN
 70
0
 62
7
  6
CONTINUOUS
370
-3
390
F
  0
LAYER
  5
20D
100
AcDbSymbolTableRecord
100
AcDbLayerTableRecord
  2
GEOMETRISCHE_TOLERANZEN
 70
0
 62
7
  6
CONTINUOUS
370
-3
390
F
  0
LAYER
  5
20E
100
AcDbSymbolTableRecord
100
AcDbLayerTableRecord
  2
GESTEUERTE
 70
0
 62
7
  6
CONTINUOUS
370
-3
390
F
  0
LAYER
  5
20F
100
AcDbSymbolTableRecord
100
AcDbLayerTableRecord
  2
KURVEN
 70
0
 62
7
  6
CONTINUOUS
370
-3
390
F
  0
LAYER
  5
210
100
AcDbSymbolTableRecord
100
AcDbLayerTableRecord
  2
RUNDUNGEN
 70
0
 62
7
  6
CONTINUOUS
370
-3
390
F
  0
LAYER
  5
211
100
AcDbSymbolTableRecord
100
AcDbLayerTableRecord
  2
SAMMELFLÄCHEN
 70
0
 62
7
  6
CONTINUOUS
370
-3
390
F
  0
LAYER
  5
212
100
AcDbSymbolTableRecord
100
AcDbLayerTableRecord
  2
ZEICHNUNGSBEMASSUNGEN
 70
0
 62
7
  6
CONTINUOUS
370
-3
390
F
  0
LAYER
  5
213
100
AcDbSymbolTableRecord
100
AcDbLayerTableRecord
  2
ZEICHNUNGSNOTIZEN
 70
0
 62
7
  6
CONTINUOUS
370
-3
390
F
  0
ENDTAB
  0
TABLE
  2
STYLE
  5
3
100
AcDbSymbolTable
 70
1
  0
STYLE
  5
11
100
AcDbSymbolTableRecord
100
AcDbTextStyleTableRecord
  2
STANDARD
 70
0
 40
0.0
 41
0.7
 50
0.0
 71
0
 42
0.2
  3
txt
  4

  0
STYLE
  5
214
100
AcDbSymbolTableRecord
100
AcDbTextStyleTableRecord
  2
TEXTSTYLE_1
 70
0
 40
0.0
 41
0.8
 50
0.0
 71
0
 42
0.2
  3
gdt
  4

  0
ENDTAB
  0
TABLE
  2
VIEW
  5
6
100
AcDbSymbolTable
 70
0
  0
ENDTAB
  0
TABLE
  2
UCS
  5
7
100
AcDbSymbolTable
 70
0
  0
ENDTAB
  0
TABLE
  2
APPID
  5
9
100
AcDbSymbolTable
 70
1
  0
APPID
  5
215
100
AcDbSymbolTableRecord
100
AcDbRegAppTableRecord
  2
ACAD
 70
0
  0
ENDTAB
  0
TABLE
  2
BLOCK_RECORD
  5
1
100
AcDbSymbolTable
 70
0
  0
BLOCK_RECORD
  5
216
100
AcDbSymbolTableRecord
100
AcDbBlockTableRecord
  2
*Model_Space
  0
BLOCK_RECORD
  5
217
100
AcDbSymbolTableRecord
100
AcDbBlockTableRecord
  2
*Paper_Space
  0
ENDTAB
  0
TABLE
  2
DIMSTYLE
  5
A
100
AcDbSymbolTable
 70
1
100
AcDbDimStyleTable
 71
0
  0
DIMSTYLE
105
218
100
AcDbSymbolTableRecord
100
AcDbDimStyleTableRecord
  2
STANDARD
 70
0
  3

  4

 40
1.0
 41
3.5
 42
0.0625
 43
0.38
 44
0.18
 45
0.0
 46
0.0
 47
0.005
 48
0.005
140
3.5
141
0.09
142
0.0
143
25.4
144
1.0
145
0.0
146
1.0
147
0.09
 71
1.0
 72
0.0
 73
0
 74
0
 75
0
 76
0
 77
1
 78
8
170
0
171
2
172
0
173
0
174
0
175
0
176
0
177
0
178
5
270
2
271
3
272
3
273
2
274
2
275
0
280
0
281
0
282
0
283
1
284
8
285
0
286
0
287
3
288
0
340
11
  0
ENDTAB
  0
ENDSEC
  0
SECTION
  2
BLOCKS
  0
BLOCK
  5
20
100
AcDbEntity
  8
0
100
AcDbBlockBegin
  2
*Model_Space
 70
0
 10
0.0
 20
0.0
 30
0.0
  3
*Model_Space
  1

  0
ENDBLK
  5
21
100
AcDbEntity
  8
0
100
AcDbBlockEnd
  0
BLOCK
  5
1C
100
AcDbEntity
  8
0
100
AcDbBlockBegin
  2
*Paper_Space
 70
0
 10
0.0
 20
0.0
 30
0.0
  3
*Paper_Space
  1

  0
ENDBLK
  5
1D
100
AcDbEntity
  8
0
100
AcDbBlockEnd
  0
ENDSEC
  0
SECTION
  2
ENTITIES
  0
LINE
  5
219
100
AcDbEntity
  8
0
100
AcDbLine
 62
7
  6
CONTINUOUS
 10
0.0
 20
0.0
 11
0.0
 21
210.0
  0
LINE
  5
21A
100
AcDbEntity
  8
0
100
AcDbLine
 62
7
  6
CONTINUOUS
 10
0.0
 20
0.0
 11
297.0
 21
0.0
  0
LINE
  5
21B
100
AcDbEntity
  8
0
100
AcDbLine
 62
7
  6
CONTINUOUS
 10
0.0
 20
210.0
 11
297.0
 21
210.0
  0
LINE
  5
21C
100
AcDbEntity
  8
0
100
AcDbLine
 62
7
  6
CONTINUOUS
 10
297.0
 20
0.0
 11
297.0
 21
210.0
  0
LWPOLYLINE
  5
21D
100
AcDbEntity
  8
RUNDUNGEN
100
AcDbPolyline
 62
7
  6
CONTINUOUS
 90
29
 70
0
 10
89.1586662453
 20
70.0267867975
 10
89.1608636098
 20
70.0168444952
 10
89.1660712428
 20
69.9958401125
 10
89.1724337274
 20
69.9736996565
 10
89.1800525006
 20
69.9507000419
 10
89.1890374624
 20
69.9270371552
 10
89.1994508801
 20
69.9029815537
 10
89.2113243911
 20
69.8787984493
 10
89.2246653732
 20
69.8547301637
 10
89.2394387745
 20
69.8310264447
 10
89.2555816489
 20
69.8079123001
 10
89.2729523309
 20
69.7856519722
 10
89.2915327316
 20
69.7642979556
 10
89.3112406943
 20
69.7439656888
 10
89.3320476544
 20
69.7246992468
 10
89.353911795
 20
69.7065547189
 10
89.3767633687
 20
69.6896051869
 10
89.4005312643
 20
69.6739143031
 10
89.4251425191
 20
69.6595382757
 10
89.4505185268
 20
69.6465286991
 10
89.4765784854
 20
69.6349305276
 10
89.5032373872
 20
69.6247831169
 10
89.5304103931
 20
69.6161186459
 10
89.5580113196
 20
69.6089632665
 10
89.5859486075
 20
69.60333792
 10
89.6141317432
 20
69.5992564358
 10
89.6424678759
 20
69.596726281
 10
89.6708614396
 20
69.5957480091
 10
89.6746169152
 20
69.5957345367
  0
LWPOLYLINE
  5
21E
100
AcDbEntity
  8
RUNDUNGEN
100
AcDbPolyline
 62
7
  6
CONTINUOUS
 90
7
 70
0
 10
89.1472659631
 20
70.0912283341
 10
89.1485716287
 20
70.0825363274
 10
89.1507223746
 20
70.0690630883
 10
89.1529485869
 20
70.0561186614
 10
89.1552576012
 20
70.0436489861
 10
89.1576571426
 20
70.0316021073
 10
89.1586737072
 20
70.0267512822
  0
LWPOLYLINE
  5
21F
100
AcDbEntity
  8
RUNDUNGEN
100
AcDbPolyline
 62
7
  6
CONTINUOUS
 90
29
 70
0
 10
89.0189870217
 20
72.7428159729
 10
89.0196987038
 20
72.6280453215
 10
89.0207052118
 20
72.5136815335
 10
89.0220057439
 20
72.3998605122
 10
89.0235990544
 20
72.2867290352
 10
89.0254836987
 20
72.1744314986
 10
89.0276578504
 20
72.0631106638
 10
89.0301194174
 20
71.9529099907
 10
89.0328661335
 20
71.8439650551
 10
89.035895258
 20
71.7364201619
 10
89.0392047703
 20
71.6303852064
 10
89.0427923017
 20
71.5259811753
 10
89.0466559015
 20
71.4233160426
 10
89.0507936566
 20
71.3224984022
 10
89.0552033179
 20
71.2236469822
 10
89.0598829297
 20
71.1268729567
 10
89.0648298256
 20
71.0323038529
 10
89.0700408584
 20
70.9400712918
 10
89.0755155963
 20
70.850262139
 10
89.0812483161
 20
70.7630480359
 10
89.0872541674
 20
70.6783045679
 10
89.093542865
 20
70.5960440874
 10
89.1001386683
 20
70.5161511048
 10
89.1070655079
 20
70.4385972856
 10
89.1143563176
 20
70.3633402729
 10
89.1220453498
 20
70.2904185427
 10
89.1301868011
 20
70.2197942494
 10
89.1388639658
 20
70.1513483375
 10
89.1472703896
 20
70.0911980867
  0
LINE
  5
220
100
AcDbEntity
  8
RUNDUNGEN
100
AcDbLine
 62
7
  6
CONTINUOUS
 10
89.0184490759
 20
72.9623073652
 11
89.0189870217
 21
72.7428159729
  0
LINE
  5
221
100
AcDbEntity
  8
RUNDUNGEN
100
AcDbLine
 62
7
  6
CONTINUOUS
 10
88.9005684135
 20
95.3385686555
 11
88.9005684135
 21
77.5694336375
  0
LINE
  5
222
100
AcDbEntity
  8
RUNDUNGEN
100
AcDbLine
 62
7
  6
CONTINUOUS
 10
89.0184490721
 20
72.9623073652
 11
89.0184490721
 21
76.8792900971
  0
LWPOLYLINE
  5
223
100
AcDbEntity
  8
RUNDUNGEN
100
AcDbPolyline
 62
7
  6
CONTINUOUS
 90
11
 70
0
 10
88.9314869397
 20
77.3963367997
 10
88.9441373904
 20
77.3603290922
 10
88.9589255884
 20
77.3130456626
 10
88.972302129
 20
77.2638121093
 10
88.9841875735
 20
77.2126414976
 10
88.9944887668
 20
77.1595721845
 10
89.00310304
 20
77.104657023
 10
89.0099232782
 20
77.0479428257
 10
89.0148320151
 20
76.9894982352
 10
89.0177059133
 20
76.9293690959
 10
89.0184491333
 20
76.8792900962
  0
LWPOLYLINE
  5
224
100
AcDbEntity
  8
RUNDUNGEN
100
AcDbPolyline
 62
7
  6
CONTINUOUS
 90
7
 70
0
 10
98.6836736735
 20
103.3978632936
 10
98.6826571154
 20
103.393012498
 10
98.6802575653
 20
103.3809655552
 10
98.6779486272
 20
103.3684962512
 10
98.6757224644
 20
103.3555521757
 10
98.673571659
 20
103.3420786541
 10
98.6722659133
 20
103.3333861116
  0
LWPOLYLINE
  5
225
100
AcDbEntity
  8
RUNDUNGEN
100
AcDbPolyline
 62
7
  6
CONTINUOUS
 90
79
 70
0
 10
98.5435707974
 20
100.5667506586
 10
98.5434346683
 20
96.803700873
 10
98.5432507094
 20
96.7836519529
 10
98.542857596
 20
96.763715706
 10
98.5422578783
 20
96.7438938836
 10
98.5414540797
 20
96.724188931
 10
98.5404487147
 20
96.7046036079
 10
98.5392442651
 20
96.685140396
 10
98.5378430581
 20
96.6658020611
 10
98.5362471808
 20
96.646591066
 10
98.53445874
 20
96.6275101998
 10
98.5324798351
 20
96.6085620006
 10
98.5303126176
 20
96.589749351
 10
98.5279592344
 20
96.5710748982
 10
98.5254218883
 20
96.5525416034
 10
98.5227026365
 20
96.5341524584
 10
98.5198034477
 20
96.5159109884
 10
98.5167262895
 20
96.497820402
 10
98.5134733287
 20
96.4798846887
 10
98.5100465201
 20
96.4621063186
 10
98.5064488827
 20
96.4444927344
 10
98.5026839223
 20
96.4270528008
 10
98.4987527689
 20
96.409784908
 10
98.4946571861
 20
96.3926908755
 10
98.4903982807
 20
96.3757699639
 10
98.485977149
 20
96.3590218661
 10
98.481395097
 20
96.3424474249
 10
98.4766531814
 20
96.3260472681
 10
98.471752602
 20
96.3098234957
 10
98.4666944013
 20
96.2937778131
 10
98.4614799629
 20
96.2779130415
 10
98.4561105382
 20
96.2622315692
 10
98.4505877106
 20
96.2467368846
 10
98.4449129463
 20
96.231432666
 10
98.439088123
 20
96.2163236608
 10
98.4331150645
 20
96.2014142118
 10
98.426996064
 20
96.1867095853
 10
98.4207334237
 20
96.17221497
 10
98.4143299953
 20
96.1579368783
 10
98.407788951
 20
96.1438820936
 10
98.401112926
 20
96.1300558399
 10
98.3943061218
 20
96.116466249
 10
98.3873684385
 20
96.1031129424
 10
98.3803008908
 20
96.0899982276
 10
98.3731050017
 20
96.0771256014
 10
98.3657819763
 20
96.0644982432
 10
98.3583353584
 20
96.0521234897
 10
98.3507680586
 20
96.0400074406
 10
98.3430852502
 20
96.0281595872
 10
98.33529073
 20
96.0165868192
 10
98.3273960436
 20
96.0053067715
 10
98.3194165582
 20
95.9943405465
 10
98.3113491705
 20
95.9836827275
 10
98.3032000022
 20
95.9733409566
 10
98.2949602695
 20
95.9633048966
 10
98.2866244272
 20
95.95357027
 10
98.2781948796
 20
95.9441436154
 10
98.2696717367
 20
95.9350297331
 10
98.2610640841
 20
95.9262428412
 10
98.2523795253
 20
95.9177954341
 10
98.2436335008
 20
95.9097068389
 10
98.2348470175
 20
95.9019989765
 10
98.2260257881
 20
95.8946795183
 10
98.2171803912
 20
95.887759705
 10
98.208334459
 20
95.8812598959
 10
98.1995111817
 20
95.8751975992
 10
98.190736384
 20
95.8695887651
 10
98.1820526786
 20
95.8644565526
 10
98.1734396096
 20
95.8597842204
 10
98.1648968821
 20
95.8555708702
 10
98.1564224659
 20
95.8518164611
 10
98.1480135784
 20
95.848522523
 10
98.1396597291
 20
95.8456905108
 10
98.1312799249
 20
95.8433058042
 10
98.1230016605
 20
95.8414142906
 10
98.1148403732
 20
95.8400133968
 10
98.1067985392
 20
95.8390924957
 10
98.0988952895
 20
95.8386336707
 10
98.0945742197
 20
95.8385686477
  0
LWPOLYLINE
  5
226
100
AcDbEntity
  8
RUNDUNGEN
100
AcDbPolyline
 62
7
  6
CONTINUOUS
 90
79
 70
0
 10
98.2899608512
 20
72.8588185257
 10
98.2900991552
 20
76.6219620479
 10
98.2902941399
 20
76.6420089413
 10
98.2906982295
 20
76.6619433395
 10
98.2913088863
 20
76.6817634651
 10
98.2921235984
 20
76.7014668519
 10
98.2931398616
 20
76.721050718
 10
98.2943552048
 20
76.7405125606
 10
98.2957673149
 20
76.7598495964
 10
98.2973741138
 20
76.7790593511
 10
98.299173501
 20
76.7981390223
 10
98.3011633833
 20
76.8170860586
 10
98.3033416142
 20
76.8358975627
 10
98.3057060514
 20
76.8545708723
 10
98.3082544978
 20
76.8731030088
 10
98.3109849121
 20
76.8914909434
 10
98.313895327
 20
76.9097311282
 10
98.3169837739
 20
76.9278203383
 10
98.3202480822
 20
76.9457545608
 10
98.3236862952
 20
76.9635313085
 10
98.3272953842
 20
76.9811431021
 10
98.3310718437
 20
76.9985810005
 10
98.3350145552
 20
77.0158466138
 10
98.339121751
 20
77.0329381277
 10
98.3433923234
 20
77.0498562879
 10
98.3478251747
 20
77.0666014053
 10
98.352419
 20
77.0831726386
 10
98.3571727593
 20
77.0995692985
 10
98.3620852503
 20
77.1157892634
 10
98.3671554253
 20
77.1318308349
 10
98.3723818922
 20
77.1476911888
 10
98.3777633925
 20
77.1633679336
 10
98.3832983414
 20
77.1788575033
 10
98.3889852688
 20
77.1941561704
 10
98.3948222796
 20
77.2092591811
 10
98.4008075352
 20
77.2241621892
 10
98.4069387313
 20
77.2388599272
 10
98.4132135386
 20
77.2533470772
 10
98.4196290777
 20
77.2676170845
 10
98.4261821475
 20
77.2816631535
 10
98.4328701299
 20
77.2954801364
 10
98.4396887466
 20
77.309059737
 10
98.4466382034
 20
77.3224025313
 10
98.4537175775
 20
77.3355063886
 10
98.4609254956
 20
77.3483680593
 10
98.468260809
 20
77.3609843918
 10
98.4757201048
 20
77.3733482038
 10
98.4833006368
 20
77.3854535673
 10
98.4909973316
 20
77.3972910556
 10
98.4988065444
 20
77.4088538822
 10
98.5067167564
 20
77.4201243058
 10
98.5147125935
 20
77.4310811341
 10
98.5227969894
 20
77.4417294173
 10
98.5309639776
 20
77.4520615279
 10
98.5392217339
 20
77.4620869413
 10
98.5475753824
 20
77.4718093881
 10
98.5560220017
 20
77.4812216346
 10
98.5645607833
 20
77.4903183473
 10
98.5731817361
 20
77.4990845517
 10
98.5818766567
 20
77.5075073097
 10
98.5906288763
 20
77.5155668522
 10
98.5994166704
 20
77.5232410017
 10
98.6082333784
 20
77.5305219575
 10
98.6170685655
 20
77.537399492
 10
98.6258947961
 20
77.5438509957
 10
98.6346833496
 20
77.5498570314
 10
98.6434154279
 20
77.5554076995
 10
98.6520530532
 20
77.5604838856
 10
98.6606186978
 20
77.5651036645
 10
98.6691156578
 20
77.5692693553
 10
98.6775479856
 20
77.5729818578
 10
98.6859209622
 20
77.5762397715
 10
98.6942446894
 20
77.5790408077
 10
98.7025999682
 20
77.5813984519
 10
98.7108587845
 20
77.5832663233
 10
98.7190019293
 20
77.5846456502
 10
98.7270343587
 20
77.5855480988
 10
98.7349431953
 20
77.5859899895
 10
98.7389552756
 20
77.5860461101
  0
LWPOLYLINE
  5
227
100
AcDbEntity
  8
RUNDUNGEN
100
AcDbPolyline
 62
7
  6
CONTINUOUS
 90
30
 70
0
 10
98.6722703877
 20
103.3334166282
 10
98.6638639406
 20
103.2732662082
 10
98.6551867423
 20
103.2048199926
 10
98.6470452347
 20
103.1341951441
 10
98.6393561344
 20
103.0612726411
 10
98.6320652569
 20
102.9860147502
 10
98.6251383538
 20
102.9084599608
 10
98.6185424939
 20
102.8285659728
 10
98.6122537512
 20
102.7463045084
 10
98.6062478703
 20
102.6615601603
 10
98.6005151372
 20
102.5743453437
 10
98.5950404061
 20
102.484535726
 10
98.5898293952
 20
102.3923029694
 10
98.5848825367
 20
102.297733952
 10
98.580202972
 20
102.2009603141
 10
98.5757933696
 20
102.1021096086
 10
98.5716556722
 20
102.0012928709
 10
98.5677921277
 20
101.8986287016
 10
98.5642046372
 20
101.794225486
 10
98.5608951493
 20
101.6881908856
 10
98.5578660309
 20
101.5806458591
 10
98.5551193053
 20
101.4716999994
 10
98.5526577226
 20
101.3614979968
 10
98.5504835602
 20
101.2501755776
 10
98.5485989127
 20
101.1378765491
 10
98.547005614
 20
101.0247439918
 10
98.5457051042
 20
100.9109226593
 10
98.5446986305
 20
100.7965596352
 10
98.5439869826
 20
100.6817906423
 10
98.5435707974
 20
100.5667506586
  0
LWPOLYLINE
  5
228
100
AcDbEntity
  8
RUNDUNGEN
100
AcDbPolyline
 62
7
  6
CONTINUOUS
 90
30
 70
0
 10
98.1612593668
 20
70.091200282
 10
98.1697288473
 20
70.1518241933
 10
98.178401724
 20
70.2202838245
 10
98.1865397983
 20
70.2909245139
 10
98.1942260718
 20
70.3638647601
 10
98.2015145448
 20
70.4391419146
 10
98.2084393584
 20
70.5167173872
 10
98.2150333364
 20
70.5966331069
 10
98.221320328
 20
70.6789170361
 10
98.2273245068
 20
70.7636839784
 10
98.2330555564
 20
70.8509213655
 10
98.2385285735
 20
70.9407529913
 10
98.243737849
 20
71.0330073775
 10
98.248682947
 20
71.1275976238
 10
98.2533607229
 20
71.2243921267
 10
98.2577685111
 20
71.3232633972
 10
98.2619043554
 20
71.4241002355
 10
98.2657660055
 20
71.526783925
 10
98.269351548
 20
71.6312058453
 10
98.2726590305
 20
71.7372580257
 10
98.2756860842
 20
71.8448194362
 10
98.2784306868
 20
71.9537801848
 10
98.2808900971
 20
72.0639958523
 10
98.2830620472
 20
72.1753307923
 10
98.2849444458
 20
72.2876414341
 10
98.2865354663
 20
72.4007849121
 10
98.2878336669
 20
72.5146167157
 10
98.2888378033
 20
72.6289899657
 10
98.2895470781
 20
72.7437687626
 10
98.2899608512
 20
72.8588185257
  0
LWPOLYLINE
  5
229
100
AcDbEntity
  8
RUNDUNGEN
100
AcDbPolyline
 62
7
  6
CONTINUOUS
 90
7
 70
0
 10
98.1498556567
 20
70.0267509519
 10
98.1509860999
 20
70.0321541632
 10
98.1533741947
 20
70.0441827404
 10
98.1556731363
 20
70.0566365313
 10
98.1578905595
 20
70.069567701
 10
98.1600336999
 20
70.0830305437
 10
98.1612635066
 20
70.0912285764
  0
LWPOLYLINE
  5
22A
100
AcDbEntity
  8
RUNDUNGEN
100
AcDbPolyline
 62
7
  6
CONTINUOUS
 90
29
 70
0
 10
108.2086662451
 20
70.026786798
 10
108.210863611
 20
70.0168444901
 10
108.2160712453
 20
69.9958401031
 10
108.2224337313
 20
69.9736996438
 10
108.2300525057
 20
69.9507000274
 10
108.2390374681
 20
69.9270371412
 10
108.2494508859
 20
69.9029815412
 10
108.2613243965
 20
69.8787984388
 10
108.2746653782
 20
69.8547301552
 10
108.2894387788
 20
69.831026438
 10
108.3055816524
 20
69.8079122953
 10
108.322952333
 20
69.7856519697
 10
108.3415327318
 20
69.7642979554
 10
108.3612406928
 20
69.7439656903
 10
108.3820476512
 20
69.7246992495
 10
108.4039117903
 20
69.7065547225
 10
108.4267633626
 20
69.6896051911
 10
108.4505312572
 20
69.6739143074
 10
108.4751425113
 20
69.6595382799
 10
108.5005185179
 20
69.6465287034
 10
108.5265784756
 20
69.6349305318
 10
108.5532373762
 20
69.6247831208
 10
108.5804103812
 20
69.6161186494
 10
108.6080113075
 20
69.6089632693
 10
108.6359485959
 20
69.603337922
 10
108.6641317328
 20
69.5992564369
 10
108.6924678676
 20
69.5967262814
 10
108.7208614343
 20
69.595748009
 10
108.7246169145
 20
69.5957345366
  0
LWPOLYLINE
  5
22B
100
AcDbEntity
  8
RUNDUNGEN
100
AcDbPolyline
 62
7
  6
CONTINUOUS
 90
7
 70
0
 10
108.197265963
 20
70.0912283347
 10
108.1985716287
 20
70.0825363268
 10
108.2007223748
 20
70.069063087
 10
108.202948587
 20
70.0561186608
 10
108.2052576011
 20
70.0436489864
 10
108.2076571425
 20
70.0316021075
 10
108.2086737071
 20
70.0267512825
  0
LWPOLYLINE
  5
22C
100
AcDbEntity
  8
RUNDUNGEN
100
AcDbPolyline
 62
7
  6
CONTINUOUS
 90
29
 70
0
 10
107.8145424124
 20
100.6817987465
 10
107.8138307304
 20
100.7965693957
 10
107.8128242225
 20
100.9109331827
 10
107.8115236904
 20
101.0247542044
 10
107.8099303799
 20
101.1378856828
 10
107.8080457356
 20
101.2501832215
 10
107.8058715839
 20
101.3615040585
 10
107.8034100169
 20
101.4717047334
 10
107.8006633008
 20
101.5806496703
 10
107.7976341763
 20
101.6881945638
 10
107.794324664
 20
101.794229519
 10
107.7907371326
 20
101.898633549
 10
107.7868735329
 20
102.0012986805
 10
107.7827357778
 20
102.1021163198
 10
107.7783261166
 20
102.2009677389
 10
107.7736465049
 20
102.297741764
 10
107.7686996091
 20
102.3923108677
 10
107.7634885762
 20
102.4845434291
 10
107.7580138384
 20
102.5743525825
 10
107.7522811186
 20
102.6615666865
 10
107.7462752672
 20
102.7463101556
 10
107.7399865696
 20
102.8285706374
 10
107.7333907662
 20
102.9084636213
 10
107.7264639265
 20
102.9860174418
 10
107.7191731167
 20
103.0612744555
 10
107.7114840844
 20
103.1341961866
 10
107.703342633
 20
103.2048204805
 10
107.6946654683
 20
103.2732663928
 10
107.6862590445
 20
103.3334166438
  0
LWPOLYLINE
  5
22D
100
AcDbEntity
  8
RUNDUNGEN
100
AcDbPolyline
 62
7
  6
CONTINUOUS
 90
29
 70
0
 10
108.0689870217
 20
72.7428159839
 10
108.0696987037
 20
72.6280453348
 10
108.0707052116
 20
72.5136815478
 10
108.0720057437
 20
72.3998605261
 10
108.0735990542
 20
72.2867290477
 10
108.0754836985
 20
72.174431509
 10
108.0776578502
 20
72.063110672
 10
108.0801194172
 20
71.952909997
 10
108.0828661333
 20
71.8439650601
 10
108.0858952578
 20
71.7364201667
 10
108.0892047701
 20
71.6303852115
 10
108.0927923015
 20
71.5259811814
 10
108.0966559013
 20
71.4233160499
 10
108.1007936563
 20
71.3224984106
 10
108.1052033175
 20
71.2236469915
 10
108.1098829292
 20
71.1268729665
 10
108.114829825
 20
71.0323038628
 10
108.1200408579
 20
70.9400713014
 10
108.1255155957
 20
70.8502621479
 10
108.1312483155
 20
70.7630480439
 10
108.1372541669
 20
70.6783045748
 10
108.1435428645
 20
70.596044093
 10
108.1501386679
 20
70.5161511092
 10
108.1570655076
 20
70.4385972887
 10
108.1643563174
 20
70.3633402749
 10
108.1720453497
 20
70.2904185438
 10
108.1801868011
 20
70.2197942499
 10
108.1888639658
 20
70.1513483377
 10
108.1972703896
 20
70.0911980867
  0
LINE
  5
22E
100
AcDbEntity
  8
RUNDUNGEN
100
AcDbLine
 62
7
  6
CONTINUOUS
 10
107.8145424124
 20
100.6817987465
 11
107.8150948008
 21
96.803689759
  0
LINE
  5
22F
100
AcDbEntity
  8
RUNDUNGEN
100
AcDbLine
 62
7
  6
CONTINUOUS
 10
108.0689870217
 20
72.7428159839
 11
108.0684346334
 21
76.6209249714
  0
LWPOLYLINE
  5
230
100
AcDbEntity
  8
RUNDUNGEN
100
AcDbPolyline
 62
7
  6
CONTINUOUS
 90
28
 70
0
 10
154.7839121552
 20
69.595734557
 10
154.8150203977
 20
69.5966630261
 10
154.8434057206
 20
69.5991414429
 10
154.8716398201
 20
69.6031761278
 10
154.8996294951
 20
69.6087596664
 10
154.9272839277
 20
69.6158782656
 10
154.954511175
 20
69.6245109819
 10
154.9812248858
 20
69.6346317099
 10
155.0073400175
 20
69.6462083231
 10
155.0327712072
 20
69.659201472
 10
155.0574373472
 20
69.6735662147
 10
155.0812594346
 20
69.6892508826
 10
155.1041641011
 20
69.706199145
 10
155.126079988
 20
69.7243473234
 10
155.1469372069
 20
69.7436224273
 10
155.1666931972
 20
69.7639678205
 10
155.1853187855
 20
69.7853388042
 10
155.2027316773
 20
69.8076198467
 10
155.2189137495
 20
69.8307584928
 10
155.2337224633
 20
69.8544894295
 10
155.2470943861
 20
69.8785865179
 10
155.2589945678
 20
69.9027995761
 10
155.269430332
 20
69.9268852583
 10
155.2784340349
 20
69.9505790163
 10
155.2860687459
 20
69.973612142
 10
155.2924434531
 20
69.9957849186
 10
155.2976594334
 20
70.0168169222
 10
155.299863055
 20
70.0267864847
  0
LWPOLYLINE
  5
231
100
AcDbEntity
  8
RUNDUNGEN
100
AcDbPolyline
 62
7
  6
CONTINUOUS
 90
29
 70
0
 10
135.7339124986
 20
69.5957345366
 10
135.7377162858
 20
69.5957483583
 10
135.7661579932
 20
69.5967322487
 10
135.7945417191
 20
69.5992732988
 10
135.8227714235
 20
69.6033709173
 10
135.850753792
 20
69.6090175544
 10
135.878397868
 20
69.6161992583
 10
135.90561165
 20
69.6248949198
 10
135.932308547
 20
69.6350781879
 10
135.9584033388
 20
69.6467166532
 10
135.9838106076
 20
69.6597706655
 10
136.0084491865
 20
69.6741949442
 10
136.0322401415
 20
69.6899375335
 10
136.0551102307
 20
69.7069418424
 10
136.0769880804
 20
69.7251437829
 10
136.0978039163
 20
69.7444699792
 10
136.1175152604
 20
69.7648634145
 10
136.1360928571
 20
69.7862787872
 10
136.1534554003
 20
69.8086008673
 10
136.1695859284
 20
69.831778341
 10
136.1843412409
 20
69.8555434768
 10
136.1976584164
 20
69.8796692782
 10
136.2095018999
 20
69.9039019387
 10
136.2198793436
 20
69.9279951424
 10
136.2288238306
 20
69.9516811658
 10
136.2363989837
 20
69.9746860066
 10
136.242716862
 20
69.9968131112
 10
136.2478805734
 20
70.0177835674
 10
136.2498642507
 20
70.0267917924
  0
LWPOLYLINE
  5
232
100
AcDbEntity
  8
RUNDUNGEN
100
AcDbPolyline
 62
7
  6
CONTINUOUS
 90
29
 70
0
 10
116.6839124986
 20
69.5957345366
 10
116.6877162858
 20
69.5957483583
 10
116.7161579932
 20
69.5967322487
 10
116.7445417191
 20
69.5992732988
 10
116.7727714235
 20
69.6033709173
 10
116.800753792
 20
69.6090175544
 10
116.828397868
 20
69.6161992583
 10
116.85561165
 20
69.6248949198
 10
116.882308547
 20
69.6350781879
 10
116.9084033388
 20
69.6467166532
 10
116.9338106076
 20
69.6597706655
 10
116.9584491865
 20
69.6741949442
 10
116.9822401415
 20
69.6899375335
 10
117.0051102307
 20
69.7069418424
 10
117.0269880804
 20
69.7251437829
 10
117.0478039163
 20
69.7444699792
 10
117.0675152604
 20
69.7648634145
 10
117.0860928571
 20
69.7862787872
 10
117.1034554003
 20
69.8086008673
 10
117.1195859284
 20
69.831778341
 10
117.1343412409
 20
69.8555434768
 10
117.1476584164
 20
69.8796692782
 10
117.1595018999
 20
69.9039019387
 10
117.1698793436
 20
69.9279951424
 10
117.1788238306
 20
69.9516811658
 10
117.1863989837
 20
69.9746860066
 10
117.192716862
 20
69.9968131112
 10
117.1978805734
 20
70.0177835674
 10
117.1998642507
 20
70.0267917924
  0
LWPOLYLINE
  5
233
100
AcDbEntity
  8
RUNDUNGEN
100
AcDbPolyline
 62
7
  6
CONTINUOUS
 90
29
 70
0
 10
97.6339124993
 20
69.5957345365
 10
97.6377162911
 20
69.5957483582
 10
97.6661580015
 20
69.5967322491
 10
97.6945417295
 20
69.5992732999
 10
97.7227714352
 20
69.6033709193
 10
97.7507538041
 20
69.6090175572
 10
97.77839788
 20
69.6161992619
 10
97.805611661
 20
69.6248949237
 10
97.8323085568
 20
69.6350781921
 10
97.8584033476
 20
69.6467166574
 10
97.8838106154
 20
69.6597706698
 10
97.9084491934
 20
69.6741949484
 10
97.9322401474
 20
69.6899375376
 10
97.9551102353
 20
69.706941846
 10
97.9769880835
 20
69.7251437857
 10
97.9978039177
 20
69.7444699806
 10
98.0175152601
 20
69.7648634143
 10
98.0360928549
 20
69.7862787846
 10
98.0534553967
 20
69.8086008624
 10
98.0695859239
 20
69.8317783342
 10
98.0843412358
 20
69.8555434681
 10
98.0976584107
 20
69.8796692672
 10
98.1095018939
 20
69.9039019256
 10
98.1198793377
 20
69.9279951277
 10
98.1288238253
 20
69.9516811507
 10
98.1363989796
 20
69.9746859932
 10
98.1427168594
 20
69.9968131012
 10
98.1478805721
 20
70.0177835619
 10
98.1498642508
 20
70.0267917929
  0
LINE
  5
234
100
AcDbEntity
  8
02___PRT_ALL_AXES
100
AcDbLine
 62
7
  6
CONTINUOUS
 10
154.7838791918
 20
69.5957343452
 11
146.8246502445
 21
69.5957343452
  0
LINE
  5
235
100
AcDbEntity
  8
02___PRT_ALL_AXES
100
AcDbLine
 62
7
  6
CONTINUOUS
 10
135.7338791896
 20
69.5957343452
 11
127.7746502445
 21
69.5957343452
  0
LINE
  5
236
100
AcDbEntity
  8
02___PRT_ALL_AXES
100
AcDbLine
 62
7
  6
CONTINUOUS
 10
116.6838791896
 20
69.5957343452
 11
108.7246502445
 21
69.5957343452
  0
LINE
  5
237
100
AcDbEntity
  8
02___PRT_ALL_AXES
100
AcDbLine
 62
7
  6
CONTINUOUS
 10
97.6338791896
 20
69.5957343452
 11
89.6746502445
 21
69.5957343452
  0
LINE
  5
238
100
AcDbEntity
  8
RUNDUNGEN
100
AcDbLine
 62
7
  6
CONTINUOUS
 10
107.6862634837
 20
103.3333863976
 11
107.6862590445
 21
103.3334166438
  0
LWPOLYLINE
  5
239
100
AcDbEntity
  8
RUNDUNGEN
100
AcDbPolyline
 62
7
  6
CONTINUOUS
 90
29
 70
0
 10
107.674863189
 20
103.3978279324
 10
107.6726658231
 20
103.4077702404
 10
107.6674581888
 20
103.4287746274
 10
107.6610957028
 20
103.4509150867
 10
107.6534769284
 20
103.473914703
 10
107.644491966
 20
103.4975775893
 10
107.6340785482
 20
103.5216331893
 10
107.6222050376
 20
103.5458162916
 10
107.6088640559
 20
103.5698845752
 10
107.5940906553
 20
103.5935882924
 10
107.5779477817
 20
103.6167024352
 10
107.5605771011
 20
103.6389627607
 10
107.5419967023
 20
103.6603167751
 10
107.5222887413
 20
103.6806490401
 10
107.5014817829
 20
103.6999154809
 10
107.4796176438
 20
103.7180600079
 10
107.4567660715
 20
103.7350095394
 10
107.4329981769
 20
103.7507004231
 10
107.4083869228
 20
103.7650764505
 10
107.3830109162
 20
103.7780860271
 10
107.3569509585
 20
103.7896841987
 10
107.330292058
 20
103.7998316096
 10
107.3031190529
 20
103.808496081
 10
107.2755181266
 20
103.8156514611
 10
107.2475808383
 20
103.8212768084
 10
107.2193977013
 20
103.8253582935
 10
107.1910615665
 20
103.8278884491
 10
107.1626679998
 20
103.8288667215
 10
107.1589125196
 20
103.8288801939
  0
LWPOLYLINE
  5
23A
100
AcDbEntity
  8
RUNDUNGEN
100
AcDbPolyline
 62
7
  6
CONTINUOUS
 90
7
 70
0
 10
107.6862634712
 20
103.3333863958
 10
107.6849578054
 20
103.3420784037
 10
107.6828070593
 20
103.3555516434
 10
107.6805808471
 20
103.3684960696
 10
107.678271833
 20
103.3809657441
 10
107.6758722916
 20
103.3930126229
 10
107.674855727
 20
103.3978634479
  0
LWPOLYLINE
  5
23B
100
AcDbEntity
  8
RUNDUNGEN
100
AcDbPolyline
 62
7
  6
CONTINUOUS
 90
30
 70
0
 10
117.7222700674
 20
103.3334144484
 10
117.7138005868
 20
103.2727905373
 10
117.7051277101
 20
103.2043309065
 10
117.6969896359
 20
103.1336902177
 10
117.6893033625
 20
103.0607499724
 10
117.6820148896
 20
102.985472819
 10
117.675090076
 20
102.9078973477
 10
117.6684960982
 20
102.8279816293
 10
117.6622091066
 20
102.7456977014
 10
117.6562049279
 20
102.6609307602
 10
117.6504738783
 20
102.5736933741
 10
117.6450008612
 20
102.4838617489
 10
117.6397915857
 20
102.391607363
 10
117.6348464877
 20
102.2970171166
 10
117.6301687116
 20
102.2002226132
 10
117.6257609234
 20
102.1013513418
 10
117.621625079
 20
102.0005145024
 10
117.6177634289
 20
101.8978308117
 10
117.6141778862
 20
101.7934088904
 10
117.6108704038
 20
101.6873567097
 10
117.6078433501
 20
101.5797952995
 10
117.6050987474
 20
101.4708345522
 10
117.6026393372
 20
101.3606188866
 10
117.6004673871
 20
101.2492839487
 10
117.5985849886
 20
101.136973309
 10
117.596993968
 20
101.0238298324
 10
117.5956957674
 20
100.9099980292
 10
117.5946916309
 20
100.7956247781
 10
117.593982356
 20
100.6808459789
 10
117.5935685829
 20
100.5657962115
  0
LWPOLYLINE
  5
23C
100
AcDbEntity
  8
RUNDUNGEN
100
AcDbPolyline
 62
7
  6
CONTINUOUS
 90
7
 70
0
 10
117.7336737775
 20
103.3978637788
 10
117.7325433342
 20
103.3924605675
 10
117.7301552394
 20
103.3804319904
 10
117.7278562977
 20
103.3679781986
 10
117.7256388744
 20
103.3550470281
 10
117.7234957342
 20
103.3415841861
 10
117.7222659276
 20
103.3333861546
  0
LINE
  5
23D
100
AcDbEntity
  8
02___PRT_ALL_AXES
100
AcDbLine
 62
7
  6
CENTER
 10
87.7467817152
 20
74.3073073652
 11
99.5617477191
 21
74.3073073652
  0
LWPOLYLINE
  5
23E
100
AcDbEntity
  8
RUNDUNGEN
100
AcDbPolyline
 62
7
  6
CONTINUOUS
 90
79
 70
0
 10
117.3399608512
 20
72.8588185189
 10
117.3400991356
 20
76.6219619436
 10
117.3402941276
 20
76.6420088243
 10
117.3406982294
 20
76.6619432049
 10
117.3413088961
 20
76.681763306
 10
117.3421236092
 20
76.7014666617
 10
117.3431398581
 20
76.7210504908
 10
117.3443551708
 20
76.740512292
 10
117.3457672673
 20
76.7598492932
 10
117.3473740693
 20
76.7790590254
 10
117.3491734687
 20
76.7981386892
 10
117.3511633645
 20
76.8170857361
 10
117.3533416032
 20
76.8358972719
 10
117.3557060355
 20
76.8545706359
 10
117.3582544657
 20
76.8731028461
 10
117.360984879
 20
76.89149083
 10
117.3638953041
 20
76.9097310398
 10
117.3669837644
 20
76.9278202596
 10
117.370248082
 20
76.9457544839
 10
117.3736862924
 20
76.9635312279
 10
117.3772953645
 20
76.981143033
 10
117.3810718138
 20
76.99858093
 10
117.3850145255
 20
77.0158465217
 10
117.3891217267
 20
77.0329380129
 10
117.3933923031
 20
77.0498561589
 10
117.3978251516
 20
77.0666012806
 10
117.4024189673
 20
77.0831725457
 10
117.4071727244
 20
77.0995692149
 10
117.4120852187
 20
77.1157891691
 10
117.4171553981
 20
77.1318307284
 10
117.4223818674
 20
77.1476910861
 10
117.4277633656
 20
77.1633678629
 10
117.4332983129
 20
77.1788574459
 10
117.4389852418
 20
77.1941561048
 10
117.4448222544
 20
77.2092591035
 10
117.4508075105
 20
77.2241621135
 10
117.4569387094
 20
77.2388598832
 10
117.4632135165
 20
77.253347036
 10
117.469629052
 20
77.2676170262
 10
117.4761821182
 20
77.2816630831
 10
117.4828701063
 20
77.2954800894
 10
117.489688723
 20
77.3090596951
 10
117.4966381733
 20
77.3224024746
 10
117.503717547
 20
77.3355063302
 10
117.5109254788
 20
77.3483680296
 10
117.5182607922
 20
77.360984365
 10
117.5257200845
 20
77.373348172
 10
117.5333006284
 20
77.3854535517
 10
117.5409973214
 20
77.3972910397
 10
117.5488065181
 20
77.4088538477
 10
117.5567167358
 20
77.4201242741
 10
117.5647125703
 20
77.4310811014
 10
117.5727969514
 20
77.4417293739
 10
117.5809639571
 20
77.4520614967
 10
117.5892217146
 20
77.4620869169
 10
117.5975753541
 20
77.4718093645
 10
117.6060220007
 20
77.4812216235
 10
117.6145607801
 20
77.4903183455
 10
117.6231817273
 20
77.4990845523
 10
117.6318766666
 20
77.5075073078
 10
117.6406288688
 20
77.5155668548
 10
117.6494166624
 20
77.5232409885
 10
117.6582333634
 20
77.5305219437
 10
117.6670685233
 20
77.5373994703
 10
117.6758947497
 20
77.5438509509
 10
117.6846833207
 20
77.5498570252
 10
117.6934154039
 20
77.5554076727
 10
117.702053069
 20
77.5604838983
 10
117.7106186816
 20
77.5651036566
 10
117.7191156612
 20
77.5692693503
 10
117.7275479465
 20
77.5729818515
 10
117.7359208882
 20
77.5762397359
 10
117.7442445758
 20
77.5790407822
 10
117.7525998146
 20
77.5813984019
 10
117.7608585841
 20
77.5832663023
 10
117.7690017438
 20
77.5846456035
 10
117.7770341618
 20
77.5855480931
 10
117.7849430995
 20
77.5859899876
 10
117.7889552733
 20
77.5860461129
  0
LWPOLYLINE
  5
23F
100
AcDbEntity
  8
RUNDUNGEN
100
AcDbPolyline
 62
7
  6
CONTINUOUS
 90
79
 70
0
 10
117.5935685829
 20
100.5657962115
 10
117.5934302985
 20
96.8026527868
 10
117.5932353065
 20
96.7826059061
 10
117.5928312047
 20
96.7626715256
 10
117.592220538
 20
96.7428514244
 10
117.5914058249
 20
96.7231480687
 10
117.590389576
 20
96.7035642396
 10
117.5891742633
 20
96.6841024384
 10
117.5877621669
 20
96.6647654373
 10
117.5861553648
 20
96.645555705
 10
117.5843559654
 20
96.6264760412
 10
117.5823660696
 20
96.6075289943
 10
117.5801878309
 20
96.5887174586
 10
117.5778233986
 20
96.5700440946
 10
117.5752749684
 20
96.5515118844
 10
117.5725445551
 20
96.5331239005
 10
117.56963413
 20
96.5148836907
 10
117.5665456697
 20
96.4967944708
 10
117.5632813521
 20
96.4788602465
 10
117.5598431417
 20
96.4610835025
 10
117.5562340696
 20
96.4434716975
 10
117.5524576203
 20
96.4260338005
 10
117.5485149086
 20
96.4087682088
 10
117.5444077074
 20
96.3916767176
 10
117.540137131
 20
96.3747585715
 10
117.5357042825
 20
96.3580134499
 10
117.5311104668
 20
96.3414421847
 10
117.5263567097
 20
96.3250455155
 10
117.5214442154
 20
96.3088255613
 10
117.516374036
 20
96.292784002
 10
117.5111475667
 20
96.2769236443
 10
117.5057660685
 20
96.2612468676
 10
117.5002311212
 20
96.2457572845
 10
117.4945441923
 20
96.2304586257
 10
117.4887071797
 20
96.215355627
 10
117.4827219236
 20
96.2004526169
 10
117.4765907247
 20
96.1857548472
 10
117.4703159176
 20
96.1712676944
 10
117.4639003821
 20
96.1569977042
 10
117.4573473159
 20
96.1429516473
 10
117.4506593278
 20
96.1291346411
 10
117.4438407111
 20
96.1155550354
 10
117.4368912608
 20
96.1022122558
 10
117.4298118871
 20
96.0891084003
 10
117.4226039553
 20
96.0762467008
 10
117.4152686419
 20
96.0636303655
 10
117.4078093496
 20
96.0512665584
 10
117.4002288057
 20
96.0391611787
 10
117.3925321127
 20
96.0273236907
 10
117.384722916
 20
96.0157608828
 10
117.3768126983
 20
96.0044904563
 10
117.3688168638
 20
95.9935336291
 10
117.3607324827
 20
95.9828853566
 10
117.352565477
 20
95.9725532338
 10
117.3443077195
 20
95.9625278136
 10
117.33595408
 20
95.952805366
 10
117.3275074335
 20
95.943393107
 10
117.318968654
 20
95.934296385
 10
117.3103477069
 20
95.9255301782
 10
117.3016527675
 20
95.9171074226
 10
117.2929005653
 20
95.9090478756
 10
117.2841127717
 20
95.9013737419
 10
117.2752960707
 20
95.8940927868
 10
117.2664609108
 20
95.8872152602
 10
117.2576346844
 20
95.8807637795
 10
117.2488461135
 20
95.8747577052
 10
117.2401140302
 20
95.8692070577
 10
117.2314763651
 20
95.8641308322
 10
117.2229107525
 20
95.8595110738
 10
117.2144137729
 20
95.8553453801
 10
117.2059814876
 20
95.851632879
 10
117.1976085459
 20
95.8483749945
 10
117.1892848583
 20
95.8455739483
 10
117.1809296195
 20
95.8432163286
 10
117.17267085
 20
95.8413484282
 10
117.1645276903
 20
95.8399691269
 10
117.1564952723
 20
95.8390666374
 10
117.1485863346
 20
95.8386247428
 10
117.1445741609
 20
95.8385686175
  0
LINE
  5
240
100
AcDbEntity
  8
RUNDUNGEN
100
AcDbLine
 62
7
  6
CONTINUOUS
 10
145.7195742197
 20
77.5860460749
 11
136.8389552731
 21
77.5860460749
  0
LINE
  5
241
100
AcDbEntity
  8
RUNDUNGEN
100
AcDbLine
 62
7
  6
CONTINUOUS
 10
126.6695742197
 20
77.5860460749
 11
117.7889552731
 21
77.5860460749
  0
LINE
  5
242
100
AcDbEntity
  8
RUNDUNGEN
100
AcDbLine
 62
7
  6
CONTINUOUS
 10
107.6195742197
 20
77.5860460749
 11
98.7389552755
 21
77.5860460749
  0
LINE
  5
243
100
AcDbEntity
  8
RUNDUNGEN
100
AcDbLine
 62
7
  6
CONTINUOUS
 10
155.8889552144
 20
77.5860460749
 11
164.5829610206
 21
77.5860460749
  0
LWPOLYLINE
  5
244
100
AcDbEntity
  8
RUNDUNGEN
100
AcDbPolyline
 62
7
  6
CONTINUOUS
 90
78
 70
0
 10
107.6195742197
 20
77.586046111
 10
107.6239139424
 20
77.5859804342
 10
107.6318247535
 20
77.5855200638
 10
107.6398611129
 20
77.5845982884
 10
107.6480098892
 20
77.5831988256
 10
107.6562744639
 20
77.5813103144
 10
107.6646356587
 20
77.5789317295
 10
107.6729652111
 20
77.5761098599
 10
107.6813438408
 20
77.5728311176
 10
107.6897826483
 20
77.5690972742
 10
107.6982859811
 20
77.5649100474
 10
107.7068575814
 20
77.5602686451
 10
107.7155005378
 20
77.5551708549
 10
107.7242373246
 20
77.5495985794
 10
107.7330291499
 20
77.543571583
 10
107.7418561049
 20
77.5371007925
 10
107.7506902907
 20
77.5302053073
 10
107.7595047956
 20
77.5229075376
 10
107.7682893113
 20
77.5152177162
 10
107.7770374286
 20
77.5071434906
 10
107.7857276475
 20
77.4987069613
 10
107.7943434989
 20
77.4899277076
 10
107.8028769015
 20
77.4808185855
 10
107.811318026
 20
77.4713944288
 10
107.819666033
 20
77.4616605344
 10
107.82791811
 20
77.4516240273
 10
107.8360793586
 20
77.4412811782
 10
107.8441577944
 20
77.43062265
 10
107.8521477515
 20
77.4196556938
 10
107.8600523803
 20
77.4083748988
 10
107.8678561904
 20
77.3968015697
 10
107.8755477
 20
77.3849533715
 10
107.8831232171
 20
77.3728371158
 10
107.8905775982
 20
77.3604622923
 10
107.8979080727
 20
77.3478348328
 10
107.9051111983
 20
77.3349619409
 10
107.9121857506
 20
77.3218468823
 10
107.9191303037
 20
77.308492983
 10
107.9259439489
 20
77.2949023254
 10
107.9326268619
 20
77.2810743792
 10
107.9391747819
 20
77.2670174256
 10
107.9455851187
 20
77.2527365298
 10
107.9518546689
 20
77.2382384642
 10
107.9579805532
 20
77.2235297622
 10
107.9639604345
 20
77.2086157887
 10
107.9697920094
 20
77.1935017872
 10
107.9754734329
 20
77.1781920821
 10
107.9810028032
 20
77.1626914043
 10
107.9863786469
 20
77.1470034819
 10
107.9915993778
 20
77.1311319222
 10
107.9966637276
 20
77.1150791072
 10
108.0015702945
 20
77.0988478459
 10
108.0063180186
 20
77.0824398247
 10
108.0109056884
 20
77.0658571671
 10
108.0153322682
 20
77.0491006158
 10
108.0195964446
 20
77.0321710123
 10
108.0236971061
 20
77.0150680492
 10
108.0276331262
 20
76.9977910026
 10
108.0314027381
 20
76.9803416277
 10
108.0350048245
 20
76.9627182957
 10
108.0384358992
 20
76.9449299492
 10
108.041692934
 20
76.9269840141
 10
108.0447739551
 20
76.9088829903
 10
108.0476767782
 20
76.8906308909
 10
108.0503994224
 20
76.8722309252
 10
108.0529399104
 20
76.8536866373
 10
108.0552962144
 20
76.835001088
 10
108.0574661303
 20
76.8161772586
 10
108.059447502
 20
76.7972178112
 10
108.0612381693
 20
76.7781256422
 10
108.0628360242
 20
76.7589033025
 10
108.0642389514
 20
76.7395535947
 10
108.0654448632
 20
76.7200789923
 10
108.0664514602
 20
76.7004822694
 10
108.0672562604
 20
76.6807659236
 10
108.0678567452
 20
76.6609327319
 10
108.0682503874
 20
76.6409851566
 10
108.0684346334
 20
76.6209249714
  0
LWPOLYLINE
  5
245
100
AcDbEntity
  8
RUNDUNGEN
100
AcDbPolyline
 62
7
  6
CONTINUOUS
 90
78
 70
0
 10
126.6695742197
 20
77.586046111
 10
126.6739139424
 20
77.5859804342
 10
126.6818247535
 20
77.5855200638
 10
126.6898611129
 20
77.5845982884
 10
126.6980098892
 20
77.5831988256
 10
126.7062744639
 20
77.5813103144
 10
126.7146356587
 20
77.5789317295
 10
126.7229652111
 20
77.5761098599
 10
126.7313438408
 20
77.5728311176
 10
126.7397826483
 20
77.5690972742
 10
126.7482859811
 20
77.5649100474
 10
126.7568575814
 20
77.5602686451
 10
126.7655005378
 20
77.5551708549
 10
126.7742373246
 20
77.5495985794
 10
126.7830291499
 20
77.543571583
 10
126.7918561049
 20
77.5371007925
 10
126.8006902907
 20
77.5302053073
 10
126.8095047956
 20
77.5229075376
 10
126.8182893113
 20
77.5152177162
 10
126.8270374286
 20
77.5071434906
 10
126.8357276475
 20
77.4987069613
 10
126.8443434989
 20
77.4899277076
 10
126.8528769015
 20
77.4808185855
 10
126.861318026
 20
77.4713944288
 10
126.869666033
 20
77.4616605344
 10
126.87791811
 20
77.4516240273
 10
126.8860793586
 20
77.4412811782
 10
126.8941577944
 20
77.43062265
 10
126.9021477515
 20
77.4196556938
 10
126.9100523803
 20
77.4083748988
 10
126.9178561904
 20
77.3968015697
 10
126.9255477
 20
77.3849533715
 10
126.9331232171
 20
77.3728371158
 10
126.9405775982
 20
77.3604622923
 10
126.9479080727
 20
77.3478348328
 10
126.9551111983
 20
77.3349619409
 10
126.9621857506
 20
77.3218468823
 10
126.9691303037
 20
77.308492983
 10
126.9759439489
 20
77.2949023254
 10
126.9826268619
 20
77.2810743792
 10
126.9891747819
 20
77.2670174256
 10
126.9955851187
 20
77.2527365298
 10
127.0018546689
 20
77.2382384642
 10
127.0079805532
 20
77.2235297622
 10
127.0139604345
 20
77.2086157887
 10
127.0197920094
 20
77.1935017872
 10
127.0254734329
 20
77.1781920821
 10
127.0310028032
 20
77.1626914043
 10
127.0363786469
 20
77.1470034819
 10
127.0415993778
 20
77.1311319222
 10
127.0466637276
 20
77.1150791072
 10
127.0515702945
 20
77.0988478459
 10
127.0563180186
 20
77.0824398247
 10
127.0609056884
 20
77.0658571671
 10
127.0653322682
 20
77.0491006158
 10
127.0695964446
 20
77.0321710123
 10
127.0736971061
 20
77.0150680492
 10
127.0776331262
 20
76.9977910026
 10
127.0814027381
 20
76.9803416277
 10
127.0850048245
 20
76.9627182957
 10
127.0884358992
 20
76.9449299492
 10
127.091692934
 20
76.9269840141
 10
127.0947739551
 20
76.9088829903
 10
127.0976767782
 20
76.8906308909
 10
127.1003994224
 20
76.8722309252
 10
127.1029399104
 20
76.8536866373
 10
127.1052962144
 20
76.835001088
 10
127.1074661303
 20
76.8161772586
 10
127.109447502
 20
76.7972178112
 10
127.1112381693
 20
76.7781256422
 10
127.1128360242
 20
76.7589033025
 10
127.1142389514
 20
76.7395535947
 10
127.1154448632
 20
76.7200789923
 10
127.1164514602
 20
76.7004822694
 10
127.1172562604
 20
76.6807659236
 10
127.1178567452
 20
76.6609327319
 10
127.1182503874
 20
76.6409851566
 10
127.1184346334
 20
76.6209249714
  0
LWPOLYLINE
  5
246
100
AcDbEntity
  8
RUNDUNGEN
100
AcDbPolyline
 62
7
  6
CONTINUOUS
 90
78
 70
0
 10
145.7195742197
 20
77.586046111
 10
145.7239139424
 20
77.5859804342
 10
145.7318247535
 20
77.5855200638
 10
145.7398611129
 20
77.5845982884
 10
145.7480098892
 20
77.5831988256
 10
145.7562744639
 20
77.5813103144
 10
145.7646356587
 20
77.5789317295
 10
145.7729652111
 20
77.5761098599
 10
145.7813438408
 20
77.5728311176
 10
145.7897826483
 20
77.5690972742
 10
145.7982859811
 20
77.5649100474
 10
145.8068575814
 20
77.5602686451
 10
145.8155005378
 20
77.5551708549
 10
145.8242373246
 20
77.5495985794
 10
145.8330291499
 20
77.543571583
 10
145.8418561049
 20
77.5371007925
 10
145.8506902907
 20
77.5302053073
 10
145.8595047956
 20
77.5229075376
 10
145.8682893113
 20
77.5152177162
 10
145.8770374286
 20
77.5071434906
 10
145.8857276475
 20
77.4987069613
 10
145.8943434989
 20
77.4899277076
 10
145.9028769015
 20
77.4808185855
 10
145.911318026
 20
77.4713944288
 10
145.919666033
 20
77.4616605344
 10
145.92791811
 20
77.4516240273
 10
145.9360793586
 20
77.4412811782
 10
145.9441577944
 20
77.43062265
 10
145.9521477515
 20
77.4196556938
 10
145.9600523803
 20
77.4083748988
 10
145.9678561904
 20
77.3968015697
 10
145.9755477
 20
77.3849533715
 10
145.9831232171
 20
77.3728371158
 10
145.9905775982
 20
77.3604622923
 10
145.9979080727
 20
77.3478348328
 10
146.0051111983
 20
77.3349619409
 10
146.0121857506
 20
77.3218468823
 10
146.0191303037
 20
77.308492983
 10
146.0259439489
 20
77.2949023254
 10
146.0326268619
 20
77.2810743792
 10
146.0391747819
 20
77.2670174256
 10
146.0455851187
 20
77.2527365298
 10
146.0518546689
 20
77.2382384642
 10
146.0579805532
 20
77.2235297622
 10
146.0639604345
 20
77.2086157887
 10
146.0697920094
 20
77.1935017872
 10
146.0754734329
 20
77.1781920821
 10
146.0810028032
 20
77.1626914043
 10
146.0863786469
 20
77.1470034819
 10
146.0915993778
 20
77.1311319222
 10
146.0966637276
 20
77.1150791072
 10
146.1015702945
 20
77.0988478459
 10
146.1063180186
 20
77.0824398247
 10
146.1109056884
 20
77.0658571671
 10
146.1153322682
 20
77.0491006158
 10
146.1195964446
 20
77.0321710123
 10
146.1236971061
 20
77.0150680492
 10
146.1276331262
 20
76.9977910026
 10
146.1314027381
 20
76.9803416277
 10
146.1350048245
 20
76.9627182957
 10
146.1384358992
 20
76.9449299492
 10
146.141692934
 20
76.9269840141
 10
146.1447739551
 20
76.9088829903
 10
146.1476767782
 20
76.8906308909
 10
146.1503994224
 20
76.8722309252
 10
146.1529399104
 20
76.8536866373
 10
146.1552962144
 20
76.835001088
 10
146.1574661303
 20
76.8161772586
 10
146.159447502
 20
76.7972178112
 10
146.1612381693
 20
76.7781256422
 10
146.1628360242
 20
76.7589033025
 10
146.1642389514
 20
76.7395535947
 10
146.1654448632
 20
76.7200789923
 10
146.1664514602
 20
76.7004822694
 10
146.1672562604
 20
76.6807659236
 10
146.1678567452
 20
76.6609327319
 10
146.1682503874
 20
76.6409851566
 10
146.1684346334
 20
76.6209249714
  0
LWPOLYLINE
  5
247
100
AcDbEntity
  8
RUNDUNGEN
100
AcDbPolyline
 62
7
  6
CONTINUOUS
 90
30
 70
0
 10
117.2112593668
 20
70.091200282
 10
117.2197288473
 20
70.1518241932
 10
117.228401724
 20
70.220283824
 10
117.2365397982
 20
70.2909245127
 10
117.2442260716
 20
70.363864758
 10
117.2515145445
 20
70.4391419114
 10
117.2584393581
 20
70.5167173828
 10
117.2650333359
 20
70.5966331012
 10
117.2713203275
 20
70.6789170291
 10
117.2773245062
 20
70.7636839702
 10
117.2830555558
 20
70.8509213564
 10
117.2885285729
 20
70.9407529816
 10
117.2937378485
 20
71.0330073675
 10
117.2986829465
 20
71.1275976138
 10
117.3033607225
 20
71.2243921172
 10
117.3077685107
 20
71.3232633886
 10
117.3119043551
 20
71.424100228
 10
117.3157660052
 20
71.5267839187
 10
117.3193515479
 20
71.63120584
 10
117.3226590303
 20
71.7372580208
 10
117.325686084
 20
71.844819431
 10
117.3284306867
 20
71.9537801783
 10
117.3308900969
 20
72.0639958439
 10
117.333062047
 20
72.1753307817
 10
117.3349444456
 20
72.2876414214
 10
117.3365354661
 20
72.400784898
 10
117.3378336667
 20
72.5146167012
 10
117.3388378032
 20
72.6289899524
 10
117.3395470781
 20
72.7437687515
 10
117.3399608512
 20
72.8588185189
  0
LWPOLYLINE
  5
248
100
AcDbEntity
  8
RUNDUNGEN
100
AcDbPolyline
 62
7
  6
CONTINUOUS
 90
7
 70
0
 10
117.1998556566
 20
70.0267509516
 10
117.2009860999
 20
70.0321541629
 10
117.2033741947
 20
70.04418274
 10
117.2056731364
 20
70.0566365319
 10
117.2078905597
 20
70.0695677023
 10
117.2100336999
 20
70.0830305443
 10
117.2112635065
 20
70.0912285758
  0
LINE
  5
249
100
AcDbEntity
  8
0
100
AcDbLine
 62
7
  6
CONTINUOUS
 10
165.0829610206
 20
83.7748073652
 11
165.0993554359
 21
83.7748073652
  0
LWPOLYLINE
  5
24A
100
AcDbEntity
  8
RUNDUNGEN
100
AcDbPolyline
 62
7
  6
CONTINUOUS
 90
29
 70
0
 10
127.2586662451
 20
70.026786798
 10
127.260863611
 20
70.0168444901
 10
127.2660712453
 20
69.9958401031
 10
127.2724337313
 20
69.9736996438
 10
127.2800525057
 20
69.9507000274
 10
127.2890374681
 20
69.9270371412
 10
127.2994508859
 20
69.9029815412
 10
127.3113243966
 20
69.8787984388
 10
127.3246653782
 20
69.8547301552
 10
127.3394387788
 20
69.831026438
 10
127.3555816524
 20
69.8079122953
 10
127.372952333
 20
69.7856519697
 10
127.3915327318
 20
69.7642979554
 10
127.4112406928
 20
69.7439656903
 10
127.4320476512
 20
69.7246992495
 10
127.4539117903
 20
69.7065547225
 10
127.4767633626
 20
69.6896051911
 10
127.5005312573
 20
69.6739143074
 10
127.5251425113
 20
69.6595382799
 10
127.5505185179
 20
69.6465287034
 10
127.5765784756
 20
69.6349305318
 10
127.6032373762
 20
69.6247831208
 10
127.6304103812
 20
69.6161186494
 10
127.6580113075
 20
69.6089632693
 10
127.6859485959
 20
69.603337922
 10
127.7141317328
 20
69.5992564369
 10
127.7424678676
 20
69.5967262814
 10
127.7708614343
 20
69.595748009
 10
127.7746169145
 20
69.5957345366
  0
LWPOLYLINE
  5
24B
100
AcDbEntity
  8
RUNDUNGEN
100
AcDbPolyline
 62
7
  6
CONTINUOUS
 90
29
 70
0
 10
126.8645424124
 20
100.6817987465
 10
126.8638307304
 20
100.7965693957
 10
126.8628242225
 20
100.9109331827
 10
126.8615236904
 20
101.0247542044
 10
126.8599303799
 20
101.1378856828
 10
126.8580457356
 20
101.2501832215
 10
126.8558715839
 20
101.3615040585
 10
126.8534100169
 20
101.4717047334
 10
126.8506633008
 20
101.5806496703
 10
126.8476341763
 20
101.6881945638
 10
126.844324664
 20
101.794229519
 10
126.8407371326
 20
101.898633549
 10
126.8368735329
 20
102.0012986805
 10
126.8327357778
 20
102.1021163198
 10
126.8283261166
 20
102.2009677389
 10
126.8236465049
 20
102.297741764
 10
126.8186996091
 20
102.3923108677
 10
126.8134885762
 20
102.4845434291
 10
126.8080138384
 20
102.5743525825
 10
126.8022811186
 20
102.6615666865
 10
126.7962752672
 20
102.7463101556
 10
126.7899865696
 20
102.8285706374
 10
126.7833907662
 20
102.9084636213
 10
126.7764639265
 20
102.9860174418
 10
126.7691731167
 20
103.0612744555
 10
126.7614840844
 20
103.1341961866
 10
126.753342633
 20
103.2048204805
 10
126.7446654683
 20
103.2732663928
 10
126.7362590445
 20
103.3334166438
  0
LWPOLYLINE
  5
24C
100
AcDbEntity
  8
RUNDUNGEN
100
AcDbPolyline
 62
7
  6
CONTINUOUS
 90
29
 70
0
 10
127.1189870217
 20
72.7428159839
 10
127.1196987037
 20
72.6280453348
 10
127.1207052116
 20
72.5136815478
 10
127.1220057437
 20
72.3998605261
 10
127.1235990542
 20
72.2867290477
 10
127.1254836985
 20
72.174431509
 10
127.1276578502
 20
72.063110672
 10
127.1301194172
 20
71.952909997
 10
127.1328661333
 20
71.8439650601
 10
127.1358952578
 20
71.7364201666
 10
127.1392047701
 20
71.6303852115
 10
127.1427923015
 20
71.5259811814
 10
127.1466559013
 20
71.4233160499
 10
127.1507936563
 20
71.3224984106
 10
127.1552033175
 20
71.2236469915
 10
127.1598829292
 20
71.1268729665
 10
127.164829825
 20
71.0323038628
 10
127.1700408579
 20
70.9400713014
 10
127.1755155957
 20
70.8502621479
 10
127.1812483155
 20
70.7630480439
 10
127.1872541669
 20
70.6783045748
 10
127.1935428645
 20
70.596044093
 10
127.2001386679
 20
70.5161511092
 10
127.2070655076
 20
70.4385972887
 10
127.2143563174
 20
70.3633402749
 10
127.2220453497
 20
70.2904185438
 10
127.2301868011
 20
70.2197942499
 10
127.2388639658
 20
70.1513483377
 10
127.2472703896
 20
70.0911980867
  0
LINE
  5
24D
100
AcDbEntity
  8
RUNDUNGEN
100
AcDbLine
 62
7
  6
CONTINUOUS
 10
126.8645424124
 20
100.6817987465
 11
126.8650948008
 21
96.803689759
  0
LINE
  5
24E
100
AcDbEntity
  8
RUNDUNGEN
100
AcDbLine
 62
7
  6
CONTINUOUS
 10
127.1189870217
 20
72.7428159839
 11
127.1184346334
 21
76.6209249714
  0
LINE
  5
24F
100
AcDbEntity
  8
0
100
AcDbLine
 62
7
  6
CONTINUOUS
 10
165.0829610206
 20
84.7748073652
 11
165.0993554359
 21
84.7748073652
  0
LINE
  5
250
100
AcDbEntity
  8
0
100
AcDbLine
 62
7
  6
CONTINUOUS
 10
165.0829610206
 20
84.9831407383
 11
165.0986127804
 21
84.9831407383
  0
LINE
  5
251
100
AcDbEntity
  8
0
100
AcDbLine
 62
7
  6
CONTINUOUS
 10
165.0829610206
 20
85.1498073652
 11
165.0963848139
 21
85.1498073652
  0
LINE
  5
252
100
AcDbEntity
  8
0
100
AcDbLine
 62
7
  6
CONTINUOUS
 10
165.0829610206
 20
85.2748073652
 11
165.0934141919
 21
85.2748073652
  0
LINE
  5
253
100
AcDbEntity
  8
0
100
AcDbLine
 62
7
  6
CONTINUOUS
 10
165.0829610206
 20
85.3164739922
 11
165.0911862254
 21
85.3164739922
  0
LINE
  5
254
100
AcDbEntity
  8
0
100
AcDbLine
 62
7
  6
CONTINUOUS
 10
165.0829610206
 20
85.6498073652
 11
165.0874729458
 21
85.6498073652
  0
LINE
  5
255
100
AcDbEntity
  8
0
100
AcDbLine
 62
7
  6
CONTINUOUS
 10
165.0829610206
 20
85.6914739922
 11
165.0911862254
 21
85.6914739922
  0
LINE
  5
256
100
AcDbEntity
  8
0
100
AcDbLine
 62
7
  6
CONTINUOUS
 10
165.0829610206
 20
85.7748073652
 11
165.0941568474
 21
85.7748073652
  0
LINE
  5
257
100
AcDbEntity
  8
0
100
AcDbLine
 62
7
  6
CONTINUOUS
 10
165.0829610206
 20
85.9414741114
 11
165.0971274694
 21
85.9414741114
  0
LINE
  5
258
100
AcDbEntity
  8
0
100
AcDbLine
 62
7
  6
CONTINUOUS
 10
165.0829610206
 20
86.1081406191
 11
165.0986127804
 21
86.1081406191
  0
LINE
  5
259
100
AcDbEntity
  8
0
100
AcDbLine
 62
7
  6
CONTINUOUS
 10
165.0829610206
 20
86.3164741114
 11
165.0993554359
 21
86.3164741114
  0
LINE
  5
25A
100
AcDbEntity
  8
0
100
AcDbLine
 62
7
  6
CONTINUOUS
 10
165.0829610206
 20
86.6498073652
 11
165.0993554359
 21
86.6498073652
  0
LINE
  5
25B
100
AcDbEntity
  8
0
100
AcDbLine
 62
7
  6
CONTINUOUS
 10
165.0829610206
 20
86.8581406191
 11
165.0986127804
 21
86.8581406191
  0
LINE
  5
25C
100
AcDbEntity
  8
0
100
AcDbLine
 62
7
  6
CONTINUOUS
 10
165.0829610206
 20
87.0248073652
 11
165.0971274694
 21
87.0248073652
  0
LWPOLYLINE
  5
25D
100
AcDbEntity
  8
RUNDUNGEN
100
AcDbPolyline
 62
7
  6
CONTINUOUS
 90
7
 70
0
 10
127.247265963
 20
70.0912283347
 10
127.2485716287
 20
70.0825363267
 10
127.2507223748
 20
70.069063087
 10
127.252948587
 20
70.0561186608
 10
127.2552576011
 20
70.0436489864
 10
127.2576571425
 20
70.0316021075
 10
127.2586737071
 20
70.0267512825
  0
LINE
  5
25E
100
AcDbEntity
  8
0
100
AcDbLine
 62
7
  6
CONTINUOUS
 10
165.0829610206
 20
87.1914741114
 11
165.0941568474
 21
87.1914741114
  0
LINE
  5
25F
100
AcDbEntity
  8
0
100
AcDbLine
 62
7
  6
CONTINUOUS
 10
165.0829610206
 20
87.2748073652
 11
165.0911862254
 21
87.2748073652
  0
LINE
  5
260
100
AcDbEntity
  8
0
100
AcDbLine
 62
7
  6
CONTINUOUS
 10
165.0829610206
 20
87.3164741114
 11
165.0874729458
 21
87.3164741114
  0
LINE
  5
261
100
AcDbEntity
  8
0
100
AcDbLine
 62
7
  6
CONTINUOUS
 10
165.0829610206
 20
87.6498073652
 11
165.0993554359
 21
87.6498073652
  0
LINE
  5
262
100
AcDbEntity
  8
0
100
AcDbLine
 62
7
  6
CONTINUOUS
 10
165.0829610206
 20
88.0248073652
 11
165.0993554359
 21
88.0248073652
  0
LINE
  5
263
100
AcDbEntity
  8
0
100
AcDbLine
 62
7
  6
CONTINUOUS
 10
165.0829610206
 20
89.2748073652
 11
165.0993554359
 21
89.2748073652
  0
LINE
  5
264
100
AcDbEntity
  8
0
100
AcDbLine
 62
7
  6
CONTINUOUS
 10
165.0829610206
 20
89.6498073652
 11
165.0993554359
 21
89.6498073652
  0
LWPOLYLINE
  5
265
100
AcDbEntity
  8
RUNDUNGEN
100
AcDbPolyline
 62
7
  6
CONTINUOUS
 90
7
 70
0
 10
126.7362634712
 20
103.3333863958
 10
126.7349578054
 20
103.3420784037
 10
126.7328070593
 20
103.3555516434
 10
126.7305808471
 20
103.3684960696
 10
126.728271833
 20
103.3809657441
 10
126.7258722916
 20
103.3930126229
 10
126.724855727
 20
103.3978634479
  0
LWPOLYLINE
  5
266
100
AcDbEntity
  8
RUNDUNGEN
100
AcDbPolyline
 62
7
  6
CONTINUOUS
 90
29
 70
0
 10
126.724863189
 20
103.3978279324
 10
126.7226658231
 20
103.4077702404
 10
126.7174581888
 20
103.4287746274
 10
126.7110957028
 20
103.4509150867
 10
126.7034769284
 20
103.473914703
 10
126.694491966
 20
103.4975775893
 10
126.6840785482
 20
103.5216331893
 10
126.6722050376
 20
103.5458162916
 10
126.6588640559
 20
103.5698845752
 10
126.6440906553
 20
103.5935882924
 10
126.6279477817
 20
103.6167024352
 10
126.6105771011
 20
103.6389627607
 10
126.5919967023
 20
103.6603167751
 10
126.5722887413
 20
103.6806490401
 10
126.5514817829
 20
103.6999154809
 10
126.5296176438
 20
103.7180600079
 10
126.5067660715
 20
103.7350095394
 10
126.4829981769
 20
103.7507004231
 10
126.4583869228
 20
103.7650764505
 10
126.4330109162
 20
103.7780860271
 10
126.4069509585
 20
103.7896841987
 10
126.380292058
 20
103.7998316096
 10
126.3531190529
 20
103.808496081
 10
126.3255181266
 20
103.8156514611
 10
126.2975808383
 20
103.8212768084
 10
126.2693977013
 20
103.8253582935
 10
126.2410615665
 20
103.8278884491
 10
126.2126679998
 20
103.8288667215
 10
126.2089125196
 20
103.8288801939
  0
LWPOLYLINE
  5
267
100
AcDbEntity
  8
RUNDUNGEN
100
AcDbPolyline
 62
7
  6
CONTINUOUS
 90
30
 70
0
 10
136.7722700674
 20
103.3334144484
 10
136.7638005868
 20
103.2727905373
 10
136.7551277101
 20
103.2043309065
 10
136.7469896359
 20
103.1336902177
 10
136.7393033625
 20
103.0607499724
 10
136.7320148896
 20
102.985472819
 10
136.725090076
 20
102.9078973477
 10
136.7184960982
 20
102.8279816293
 10
136.7122091066
 20
102.7456977014
 10
136.7062049279
 20
102.6609307602
 10
136.7004738783
 20
102.5736933741
 10
136.6950008612
 20
102.4838617489
 10
136.6897915857
 20
102.391607363
 10
136.6848464877
 20
102.2970171166
 10
136.6801687116
 20
102.2002226132
 10
136.6757609234
 20
102.1013513418
 10
136.671625079
 20
102.0005145024
 10
136.6677634289
 20
101.8978308117
 10
136.6641778862
 20
101.7934088904
 10
136.6608704038
 20
101.6873567097
 10
136.6578433501
 20
101.5797952995
 10
136.6550987474
 20
101.4708345522
 10
136.6526393372
 20
101.3606188866
 10
136.6504673871
 20
101.2492839487
 10
136.6485849886
 20
101.136973309
 10
136.646993968
 20
101.0238298324
 10
136.6456957674
 20
100.9099980292
 10
136.6446916309
 20
100.7956247781
 10
136.643982356
 20
100.6808459789
 10
136.6435685829
 20
100.5657962115
  0
LWPOLYLINE
  5
268
100
AcDbEntity
  8
RUNDUNGEN
100
AcDbPolyline
 62
7
  6
CONTINUOUS
 90
7
 70
0
 10
136.7836737775
 20
103.3978637788
 10
136.7825433342
 20
103.3924605675
 10
136.7801552394
 20
103.3804319904
 10
136.7778562977
 20
103.3679781986
 10
136.7756388744
 20
103.3550470281
 10
136.7734957342
 20
103.3415841861
 10
136.7722659276
 20
103.3333861546
  0
LWPOLYLINE
  5
269
100
AcDbEntity
  8
RUNDUNGEN
100
AcDbPolyline
 62
7
  6
CONTINUOUS
 90
78
 70
0
 10
108.2639552144
 20
95.8385686194
 10
108.2596154917
 20
95.8386342962
 10
108.2517046806
 20
95.8390946667
 10
108.2436683212
 20
95.8400164421
 10
108.2355195449
 20
95.8414159049
 10
108.2272549702
 20
95.843304416
 10
108.2188937754
 20
95.845683001
 10
108.210564223
 20
95.8485048705
 10
108.2021855933
 20
95.8517836129
 10
108.1937467858
 20
95.8555174562
 10
108.185243453
 20
95.859704683
 10
108.1766718527
 20
95.8643460854
 10
108.1680288963
 20
95.8694438755
 10
108.1592921095
 20
95.8750161511
 10
108.1505002842
 20
95.8810431474
 10
108.1416733292
 20
95.8875139379
 10
108.1328391434
 20
95.8944094232
 10
108.1240246386
 20
95.9017071928
 10
108.1152401228
 20
95.9093970142
 10
108.1064920055
 20
95.9174712398
 10
108.0978017866
 20
95.9259077691
 10
108.0891859352
 20
95.9346870229
 10
108.0806525326
 20
95.943796145
 10
108.0722114082
 20
95.9532203016
 10
108.0638634012
 20
95.962954196
 10
108.0556113241
 20
95.9729907031
 10
108.0474500755
 20
95.9833335523
 10
108.0393716397
 20
95.9939920804
 10
108.0313816826
 20
96.0049590366
 10
108.0234770538
 20
96.0162398316
 10
108.0156732438
 20
96.0278131608
 10
108.0079817341
 20
96.039661359
 10
108.0004062171
 20
96.0517776146
 10
107.992951836
 20
96.0641524381
 10
107.9856213614
 20
96.0767798976
 10
107.9784182358
 20
96.0896527895
 10
107.9713436836
 20
96.1027678482
 10
107.9643991304
 20
96.1161217474
 10
107.9575854852
 20
96.129712405
 10
107.9509025722
 20
96.1435403512
 10
107.9443546523
 20
96.1575973048
 10
107.9379443154
 20
96.1718782006
 10
107.9316747652
 20
96.1863762662
 10
107.9255488809
 20
96.2010849682
 10
107.9195689996
 20
96.2159989418
 10
107.9137374247
 20
96.2311129432
 10
107.9080560012
 20
96.2464226483
 10
107.902526631
 20
96.2619233261
 10
107.8971507873
 20
96.2776112486
 10
107.8919300563
 20
96.2934828082
 10
107.8868657065
 20
96.3095356233
 10
107.8819591396
 20
96.3257668845
 10
107.8772114155
 20
96.3421749057
 10
107.8726237457
 20
96.3587575634
 10
107.868197166
 20
96.3755141147
 10
107.8639329895
 20
96.3924437181
 10
107.8598323281
 20
96.4095466813
 10
107.8558963079
 20
96.4268237279
 10
107.852126696
 20
96.4442731027
 10
107.8485246096
 20
96.4618964347
 10
107.8450935349
 20
96.4796847813
 10
107.8418365001
 20
96.4976307163
 10
107.838755479
 20
96.5157317401
 10
107.8358526559
 20
96.5339838396
 10
107.8331300117
 20
96.5523838052
 10
107.8305895237
 20
96.5709280931
 10
107.8282332197
 20
96.5896136425
 10
107.8260633038
 20
96.6084374718
 10
107.8240819321
 20
96.6273969192
 10
107.8222912648
 20
96.6464890883
 10
107.8206934099
 20
96.665711428
 10
107.8192904828
 20
96.6850611357
 10
107.8180845709
 20
96.7045357382
 10
107.8170779739
 20
96.7241324611
 10
107.8162731737
 20
96.7438488069
 10
107.8156726889
 20
96.7636819985
 10
107.8152790467
 20
96.7836295739
 10
107.8150948008
 20
96.803689759
  0
LWPOLYLINE
  5
26A
100
AcDbEntity
  8
RUNDUNGEN
100
AcDbPolyline
 62
7
  6
CONTINUOUS
 90
79
 70
0
 10
136.3899608512
 20
72.8588185189
 10
136.3900991356
 20
76.6219619436
 10
136.3902941276
 20
76.6420088243
 10
136.3906982294
 20
76.6619432049
 10
136.3913088961
 20
76.681763306
 10
136.3921236092
 20
76.7014666617
 10
136.3931398581
 20
76.7210504908
 10
136.3943551708
 20
76.740512292
 10
136.3957672673
 20
76.7598492932
 10
136.3973740693
 20
76.7790590254
 10
136.3991734687
 20
76.7981386892
 10
136.4011633645
 20
76.8170857361
 10
136.4033416032
 20
76.8358972719
 10
136.4057060355
 20
76.8545706359
 10
136.4082544657
 20
76.8731028461
 10
136.410984879
 20
76.89149083
 10
136.4138953041
 20
76.9097310398
 10
136.4169837644
 20
76.9278202596
 10
136.420248082
 20
76.9457544839
 10
136.4236862924
 20
76.9635312279
 10
136.4272953645
 20
76.981143033
 10
136.4310718138
 20
76.99858093
 10
136.4350145255
 20
77.0158465217
 10
136.4391217267
 20
77.0329380129
 10
136.4433923031
 20
77.0498561589
 10
136.4478251516
 20
77.0666012806
 10
136.4524189673
 20
77.0831725457
 10
136.4571727244
 20
77.0995692149
 10
136.4620852187
 20
77.1157891691
 10
136.4671553981
 20
77.1318307284
 10
136.4723818674
 20
77.1476910861
 10
136.4777633656
 20
77.1633678629
 10
136.4832983129
 20
77.1788574459
 10
136.4889852418
 20
77.1941561048
 10
136.4948222544
 20
77.2092591035
 10
136.5008075105
 20
77.2241621135
 10
136.5069387094
 20
77.2388598832
 10
136.5132135165
 20
77.253347036
 10
136.519629052
 20
77.2676170262
 10
136.5261821182
 20
77.2816630831
 10
136.5328701063
 20
77.2954800894
 10
136.539688723
 20
77.3090596951
 10
136.5466381733
 20
77.3224024746
 10
136.553717547
 20
77.3355063302
 10
136.5609254788
 20
77.3483680296
 10
136.5682607922
 20
77.360984365
 10
136.5757200845
 20
77.373348172
 10
136.5833006284
 20
77.3854535517
 10
136.5909973214
 20
77.3972910397
 10
136.5988065181
 20
77.4088538477
 10
136.6067167358
 20
77.4201242741
 10
136.6147125703
 20
77.4310811014
 10
136.6227969514
 20
77.4417293739
 10
136.6309639571
 20
77.4520614967
 10
136.6392217146
 20
77.4620869169
 10
136.6475753541
 20
77.4718093645
 10
136.6560220007
 20
77.4812216235
 10
136.6645607801
 20
77.4903183455
 10
136.6731817273
 20
77.4990845523
 10
136.6818766666
 20
77.5075073078
 10
136.6906288688
 20
77.5155668548
 10
136.6994166624
 20
77.5232409885
 10
136.7082333634
 20
77.5305219437
 10
136.7170685233
 20
77.5373994703
 10
136.7258947497
 20
77.5438509509
 10
136.7346833207
 20
77.5498570252
 10
136.7434154039
 20
77.5554076727
 10
136.752053069
 20
77.5604838983
 10
136.7606186816
 20
77.5651036566
 10
136.7691156612
 20
77.5692693503
 10
136.7775479465
 20
77.5729818515
 10
136.7859208882
 20
77.5762397359
 10
136.7942445758
 20
77.5790407822
 10
136.8025998146
 20
77.5813984019
 10
136.8108585841
 20
77.5832663023
 10
136.8190017438
 20
77.5846456035
 10
136.8270341618
 20
77.5855480931
 10
136.8349430995
 20
77.5859899876
 10
136.8389552733
 20
77.5860461129
  0
LWPOLYLINE
  5
26B
100
AcDbEntity
  8
RUNDUNGEN
100
AcDbPolyline
 62
7
  6
CONTINUOUS
 90
79
 70
0
 10
136.6435685829
 20
100.5657962115
 10
136.6434302985
 20
96.8026527868
 10
136.6432353065
 20
96.7826059061
 10
136.6428312047
 20
96.7626715256
 10
136.642220538
 20
96.7428514244
 10
136.6414058249
 20
96.7231480687
 10
136.640389576
 20
96.7035642396
 10
136.6391742633
 20
96.6841024384
 10
136.6377621669
 20
96.6647654373
 10
136.6361553648
 20
96.645555705
 10
136.6343559654
 20
96.6264760412
 10
136.6323660696
 20
96.6075289943
 10
136.6301878309
 20
96.5887174586
 10
136.6278233986
 20
96.5700440946
 10
136.6252749684
 20
96.5515118844
 10
136.6225445551
 20
96.5331239005
 10
136.61963413
 20
96.5148836907
 10
136.6165456697
 20
96.4967944708
 10
136.6132813521
 20
96.4788602465
 10
136.6098431417
 20
96.4610835025
 10
136.6062340696
 20
96.4434716975
 10
136.6024576203
 20
96.4260338005
 10
136.5985149086
 20
96.4087682088
 10
136.5944077074
 20
96.3916767176
 10
136.590137131
 20
96.3747585715
 10
136.5857042825
 20
96.3580134499
 10
136.5811104668
 20
96.3414421847
 10
136.5763567097
 20
96.3250455155
 10
136.5714442154
 20
96.3088255613
 10
136.566374036
 20
96.292784002
 10
136.5611475667
 20
96.2769236443
 10
136.5557660685
 20
96.2612468676
 10
136.5502311212
 20
96.2457572845
 10
136.5445441923
 20
96.2304586257
 10
136.5387071797
 20
96.215355627
 10
136.5327219236
 20
96.2004526169
 10
136.5265907247
 20
96.1857548472
 10
136.5203159176
 20
96.1712676944
 10
136.5139003821
 20
96.1569977042
 10
136.5073473159
 20
96.1429516473
 10
136.5006593278
 20
96.1291346411
 10
136.4938407111
 20
96.1155550354
 10
136.4868912608
 20
96.1022122558
 10
136.4798118871
 20
96.0891084003
 10
136.4726039553
 20
96.0762467008
 10
136.4652686419
 20
96.0636303655
 10
136.4578093496
 20
96.0512665584
 10
136.4502288057
 20
96.0391611787
 10
136.4425321127
 20
96.0273236907
 10
136.434722916
 20
96.0157608828
 10
136.4268126983
 20
96.0044904563
 10
136.4188168638
 20
95.9935336291
 10
136.4107324827
 20
95.9828853566
 10
136.402565477
 20
95.9725532338
 10
136.3943077195
 20
95.9625278136
 10
136.38595408
 20
95.952805366
 10
136.3775074335
 20
95.943393107
 10
136.368968654
 20
95.934296385
 10
136.3603477069
 20
95.9255301782
 10
136.3516527675
 20
95.9171074226
 10
136.3429005653
 20
95.9090478756
 10
136.3341127717
 20
95.9013737419
 10
136.3252960707
 20
95.8940927868
 10
136.3164609108
 20
95.8872152602
 10
136.3076346844
 20
95.8807637795
 10
136.2988461135
 20
95.8747577052
 10
136.2901140302
 20
95.8692070577
 10
136.2814763651
 20
95.8641308322
 10
136.2729107525
 20
95.8595110738
 10
136.2644137729
 20
95.8553453801
 10
136.2559814876
 20
95.851632879
 10
136.2476085459
 20
95.8483749945
 10
136.2392848583
 20
95.8455739483
 10
136.2309296195
 20
95.8432163286
 10
136.22267085
 20
95.8413484282
 10
136.2145276903
 20
95.8399691269
 10
136.2064952723
 20
95.8390666374
 10
136.1985863346
 20
95.8386247428
 10
136.1945741609
 20
95.8385686175
  0
LWPOLYLINE
  5
26C
100
AcDbEntity
  8
RUNDUNGEN
100
AcDbPolyline
 62
7
  6
CONTINUOUS
 90
30
 70
0
 10
136.2612593668
 20
70.091200282
 10
136.2697288473
 20
70.1518241932
 10
136.278401724
 20
70.220283824
 10
136.2865397982
 20
70.2909245127
 10
136.2942260716
 20
70.363864758
 10
136.3015145445
 20
70.4391419114
 10
136.3084393581
 20
70.5167173828
 10
136.3150333359
 20
70.5966331012
 10
136.3213203275
 20
70.6789170291
 10
136.3273245062
 20
70.7636839702
 10
136.3330555558
 20
70.8509213564
 10
136.3385285729
 20
70.9407529816
 10
136.3437378485
 20
71.0330073675
 10
136.3486829465
 20
71.1275976138
 10
136.3533607225
 20
71.2243921172
 10
136.3577685107
 20
71.3232633886
 10
136.3619043551
 20
71.424100228
 10
136.3657660052
 20
71.5267839187
 10
136.3693515479
 20
71.63120584
 10
136.3726590303
 20
71.7372580208
 10
136.375686084
 20
71.844819431
 10
136.3784306867
 20
71.9537801783
 10
136.3808900969
 20
72.0639958439
 10
136.383062047
 20
72.1753307817
 10
136.3849444456
 20
72.2876414214
 10
136.3865354661
 20
72.400784898
 10
136.3878336667
 20
72.5146167012
 10
136.3888378032
 20
72.6289899524
 10
136.3895470781
 20
72.7437687515
 10
136.3899608512
 20
72.8588185189
  0
LINE
  5
26D
100
AcDbEntity
  8
RUNDUNGEN
100
AcDbLine
 62
7
  6
CONTINUOUS
 10
98.0945742197
 20
95.8385686555
 11
89.4005684135
 21
95.8385686555
  0
LINE
  5
26E
100
AcDbEntity
  8
RUNDUNGEN
100
AcDbLine
 62
7
  6
CONTINUOUS
 10
108.2639552144
 20
95.8385686555
 11
117.144574161
 21
95.8385686555
  0
LINE
  5
26F
100
AcDbEntity
  8
RUNDUNGEN
100
AcDbLine
 62
7
  6
CONTINUOUS
 10
127.3139552144
 20
95.8385686555
 11
136.194574161
 21
95.8385686555
  0
LINE
  5
270
100
AcDbEntity
  8
RUNDUNGEN
100
AcDbLine
 62
7
  6
CONTINUOUS
 10
146.3639552144
 20
95.8385686555
 11
155.2445741586
 21
95.8385686555
  0
LWPOLYLINE
  5
271
100
AcDbEntity
  8
RUNDUNGEN
100
AcDbPolyline
 62
7
  6
CONTINUOUS
 90
78
 70
0
 10
127.3139552144
 20
95.8385686194
 10
127.3096154917
 20
95.8386342962
 10
127.3017046806
 20
95.8390946667
 10
127.2936683212
 20
95.8400164421
 10
127.2855195449
 20
95.8414159049
 10
127.2772549702
 20
95.843304416
 10
127.2688937754
 20
95.845683001
 10
127.260564223
 20
95.8485048705
 10
127.2521855933
 20
95.8517836129
 10
127.2437467858
 20
95.8555174562
 10
127.235243453
 20
95.859704683
 10
127.2266718527
 20
95.8643460854
 10
127.2180288963
 20
95.8694438755
 10
127.2092921095
 20
95.8750161511
 10
127.2005002842
 20
95.8810431474
 10
127.1916733292
 20
95.8875139379
 10
127.1828391434
 20
95.8944094232
 10
127.1740246386
 20
95.9017071928
 10
127.1652401228
 20
95.9093970142
 10
127.1564920055
 20
95.9174712398
 10
127.1478017866
 20
95.9259077691
 10
127.1391859352
 20
95.9346870229
 10
127.1306525326
 20
95.943796145
 10
127.1222114082
 20
95.9532203016
 10
127.1138634012
 20
95.962954196
 10
127.1056113241
 20
95.9729907031
 10
127.0974500755
 20
95.9833335523
 10
127.0893716397
 20
95.9939920804
 10
127.0813816826
 20
96.0049590366
 10
127.0734770538
 20
96.0162398316
 10
127.0656732438
 20
96.0278131608
 10
127.0579817341
 20
96.039661359
 10
127.0504062171
 20
96.0517776146
 10
127.042951836
 20
96.0641524381
 10
127.0356213614
 20
96.0767798976
 10
127.0284182358
 20
96.0896527895
 10
127.0213436836
 20
96.1027678482
 10
127.0143991304
 20
96.1161217474
 10
127.0075854852
 20
96.129712405
 10
127.0009025722
 20
96.1435403512
 10
126.9943546523
 20
96.1575973048
 10
126.9879443154
 20
96.1718782006
 10
126.9816747652
 20
96.1863762662
 10
126.9755488809
 20
96.2010849682
 10
126.9695689996
 20
96.2159989418
 10
126.9637374247
 20
96.2311129432
 10
126.9580560012
 20
96.2464226483
 10
126.952526631
 20
96.2619233261
 10
126.9471507873
 20
96.2776112486
 10
126.9419300563
 20
96.2934828082
 10
126.9368657065
 20
96.3095356233
 10
126.9319591396
 20
96.3257668845
 10
126.9272114155
 20
96.3421749057
 10
126.9226237457
 20
96.3587575634
 10
126.918197166
 20
96.3755141147
 10
126.9139329895
 20
96.3924437181
 10
126.9098323281
 20
96.4095466813
 10
126.9058963079
 20
96.4268237279
 10
126.902126696
 20
96.4442731027
 10
126.8985246096
 20
96.4618964347
 10
126.8950935349
 20
96.4796847813
 10
126.8918365001
 20
96.4976307163
 10
126.888755479
 20
96.5157317401
 10
126.8858526559
 20
96.5339838396
 10
126.8831300117
 20
96.5523838052
 10
126.8805895237
 20
96.5709280931
 10
126.8782332197
 20
96.5896136425
 10
126.8760633038
 20
96.6084374718
 10
126.8740819321
 20
96.6273969192
 10
126.8722912648
 20
96.6464890883
 10
126.8706934099
 20
96.665711428
 10
126.8692904828
 20
96.6850611357
 10
126.8680845709
 20
96.7045357382
 10
126.8670779739
 20
96.7241324611
 10
126.8662731737
 20
96.7438488069
 10
126.8656726889
 20
96.7636819985
 10
126.8652790467
 20
96.7836295739
 10
126.8650948008
 20
96.803689759
  0
LWPOLYLINE
  5
272
100
AcDbEntity
  8
RUNDUNGEN
100
AcDbPolyline
 62
7
  6
CONTINUOUS
 90
78
 70
0
 10
146.3639552144
 20
95.8385686194
 10
146.3596154917
 20
95.8386342962
 10
146.3517046806
 20
95.8390946667
 10
146.3436683212
 20
95.8400164421
 10
146.3355195449
 20
95.8414159049
 10
146.3272549702
 20
95.843304416
 10
146.3188937754
 20
95.845683001
 10
146.310564223
 20
95.8485048705
 10
146.3021855933
 20
95.8517836129
 10
146.2937467858
 20
95.8555174562
 10
146.285243453
 20
95.859704683
 10
146.2766718527
 20
95.8643460854
 10
146.2680288963
 20
95.8694438755
 10
146.2592921095
 20
95.8750161511
 10
146.2505002842
 20
95.8810431474
 10
146.2416733292
 20
95.8875139379
 10
146.2328391434
 20
95.8944094232
 10
146.2240246386
 20
95.9017071928
 10
146.2152401228
 20
95.9093970142
 10
146.2064920055
 20
95.9174712398
 10
146.1978017866
 20
95.9259077691
 10
146.1891859352
 20
95.9346870229
 10
146.1806525326
 20
95.943796145
 10
146.1722114082
 20
95.9532203016
 10
146.1638634012
 20
95.962954196
 10
146.1556113241
 20
95.9729907031
 10
146.1474500755
 20
95.9833335523
 10
146.1393716397
 20
95.9939920804
 10
146.1313816826
 20
96.0049590366
 10
146.1234770538
 20
96.0162398316
 10
146.1156732438
 20
96.0278131608
 10
146.1079817341
 20
96.039661359
 10
146.1004062171
 20
96.0517776146
 10
146.092951836
 20
96.0641524381
 10
146.0856213614
 20
96.0767798976
 10
146.0784182358
 20
96.0896527895
 10
146.0713436836
 20
96.1027678482
 10
146.0643991304
 20
96.1161217474
 10
146.0575854852
 20
96.129712405
 10
146.0509025722
 20
96.1435403512
 10
146.0443546523
 20
96.1575973048
 10
146.0379443154
 20
96.1718782006
 10
146.0316747652
 20
96.1863762662
 10
146.0255488809
 20
96.2010849682
 10
146.0195689996
 20
96.2159989418
 10
146.0137374247
 20
96.2311129432
 10
146.0080560012
 20
96.2464226483
 10
146.002526631
 20
96.2619233261
 10
145.9971507873
 20
96.2776112486
 10
145.9919300563
 20
96.2934828082
 10
145.9868657065
 20
96.3095356233
 10
145.9819591396
 20
96.3257668845
 10
145.9772114155
 20
96.3421749057
 10
145.9726237457
 20
96.3587575634
 10
145.968197166
 20
96.3755141147
 10
145.9639329895
 20
96.3924437181
 10
145.9598323281
 20
96.4095466813
 10
145.9558963079
 20
96.4268237279
 10
145.952126696
 20
96.4442731027
 10
145.9485246096
 20
96.4618964347
 10
145.9450935349
 20
96.4796847813
 10
145.9418365001
 20
96.4976307163
 10
145.938755479
 20
96.5157317401
 10
145.9358526559
 20
96.5339838396
 10
145.9331300117
 20
96.5523838052
 10
145.9305895237
 20
96.5709280931
 10
145.9282332197
 20
96.5896136425
 10
145.9260633038
 20
96.6084374718
 10
145.9240819321
 20
96.6273969192
 10
145.9222912648
 20
96.6464890883
 10
145.9206934099
 20
96.665711428
 10
145.9192904828
 20
96.6850611357
 10
145.9180845709
 20
96.7045357382
 10
145.9170779739
 20
96.7241324611
 10
145.9162731737
 20
96.7438488069
 10
145.9156726889
 20
96.7636819985
 10
145.9152790467
 20
96.7836295739
 10
145.9150948008
 20
96.803689759
  0
LWPOLYLINE
  5
273
100
AcDbEntity
  8
RUNDUNGEN
100
AcDbPolyline
 62
7
  6
CONTINUOUS
 90
7
 70
0
 10
136.2498556566
 20
70.0267509516
 10
136.2509860999
 20
70.0321541629
 10
136.2533741947
 20
70.04418274
 10
136.2556731364
 20
70.0566365319
 10
136.2578905597
 20
70.0695677023
 10
136.2600336999
 20
70.0830305443
 10
136.2612635065
 20
70.0912285758
  0
LINE
  5
274
100
AcDbEntity
  8
02___PRT_ALL_AXES
100
AcDbLine
 62
7
  6
CENTER
 10
166.2367352161
 20
99.1173073652
 11
154.421794218
 21
99.1173073652
  0
LWPOLYLINE
  5
275
100
AcDbEntity
  8
RUNDUNGEN
100
AcDbPolyline
 62
7
  6
CONTINUOUS
 90
29
 70
0
 10
156.3496169349
 20
103.828880194
 10
156.345813143
 20
103.8288663723
 10
156.3173714326
 20
103.8278824813
 10
156.2889877046
 20
103.8253414305
 10
156.2607579989
 20
103.8212438112
 10
156.23277563
 20
103.8155971732
 10
156.2051315541
 20
103.8084154686
 10
156.1779177731
 20
103.7997198067
 10
156.1512208773
 20
103.7895365384
 10
156.1251260865
 20
103.777898073
 10
156.0997188187
 20
103.7648440607
 10
156.0750802407
 20
103.750419782
 10
156.0512892867
 20
103.7346771928
 10
156.0284191988
 20
103.7176728845
 10
156.0065413506
 20
103.6994709448
 10
155.9857255164
 20
103.6801447498
 10
155.966014174
 20
103.6597513162
 10
155.9474365792
 20
103.6383359458
 10
155.9300740374
 20
103.616013868
 10
155.9139435102
 20
103.5928363963
 10
155.8991881983
 20
103.5690712624
 10
155.8858710234
 20
103.5449454633
 10
155.8740275402
 20
103.5207128048
 10
155.8636500964
 20
103.4966196027
 10
155.8547056088
 20
103.4729335798
 10
155.8471304545
 20
103.4499287372
 10
155.8408125747
 20
103.4278016292
 10
155.835648862
 20
103.4068311685
 10
155.8336651833
 20
103.3978229376
  0
LWPOLYLINE
  5
276
100
AcDbEntity
  8
RUNDUNGEN
100
AcDbPolyline
 62
7
  6
CONTINUOUS
 90
29
 70
0
 10
137.2996169355
 20
103.8288801938
 10
137.2958131483
 20
103.8288663722
 10
137.2673714409
 20
103.8278824817
 10
137.238987715
 20
103.8253414317
 10
137.2107580106
 20
103.8212438132
 10
137.1827756421
 20
103.815597176
 10
137.1551315661
 20
103.8084154721
 10
137.1279177841
 20
103.7997198107
 10
137.1012208872
 20
103.7895365425
 10
137.0751260953
 20
103.7778980773
 10
137.0497188265
 20
103.7648440649
 10
137.0250802476
 20
103.7504197863
 10
137.0012892926
 20
103.7346771969
 10
136.9784192035
 20
103.7176728881
 10
136.9565413537
 20
103.6994709475
 10
136.9357255178
 20
103.6801447513
 10
136.9160141738
 20
103.6597513159
 10
136.8974365771
 20
103.6383359433
 10
136.8800740338
 20
103.6160138631
 10
136.8639435057
 20
103.5928363894
 10
136.8491881932
 20
103.5690712536
 10
136.8358710177
 20
103.5449454523
 10
136.8240275342
 20
103.5207127918
 10
136.8136500905
 20
103.4966195881
 10
136.8047056035
 20
103.4729335647
 10
136.7971304504
 20
103.4499287239
 10
136.7908125721
 20
103.4278016192
 10
136.7856488608
 20
103.406831163
 10
136.7836651835
 20
103.3978229381
  0
LWPOLYLINE
  5
277
100
AcDbEntity
  8
RUNDUNGEN
100
AcDbPolyline
 62
7
  6
CONTINUOUS
 90
29
 70
0
 10
118.2496169355
 20
103.8288801938
 10
118.2458131483
 20
103.8288663722
 10
118.2173714409
 20
103.8278824817
 10
118.188987715
 20
103.8253414317
 10
118.1607580106
 20
103.8212438132
 10
118.1327756421
 20
103.815597176
 10
118.1051315661
 20
103.8084154721
 10
118.0779177841
 20
103.7997198107
 10
118.0512208872
 20
103.7895365425
 10
118.0251260953
 20
103.7778980773
 10
117.9997188265
 20
103.7648440649
 10
117.9750802476
 20
103.7504197863
 10
117.9512892926
 20
103.7346771969
 10
117.9284192035
 20
103.7176728881
 10
117.9065413537
 20
103.6994709475
 10
117.8857255178
 20
103.6801447513
 10
117.8660141738
 20
103.6597513159
 10
117.8474365771
 20
103.6383359433
 10
117.8300740338
 20
103.6160138631
 10
117.8139435057
 20
103.5928363894
 10
117.7991881932
 20
103.5690712536
 10
117.7858710177
 20
103.5449454523
 10
117.7740275342
 20
103.5207127918
 10
117.7636500905
 20
103.4966195881
 10
117.7547056035
 20
103.4729335647
 10
117.7471304504
 20
103.4499287239
 10
117.7408125721
 20
103.4278016192
 10
117.7356488608
 20
103.406831163
 10
117.7336651835
 20
103.3978229381
  0
LINE
  5
278
100
AcDbEntity
  8
02___PRT_ALL_AXES
100
AcDbLine
 62
7
  6
CONTINUOUS
 10
99.1996502423
 20
103.8288803852
 11
107.1588791896
 21
103.8288803852
  0
LINE
  5
279
100
AcDbEntity
  8
02___PRT_ALL_AXES
100
AcDbLine
 62
7
  6
CONTINUOUS
 10
118.2496502445
 20
103.8288803852
 11
126.2088791896
 21
103.8288803852
  0
LINE
  5
27A
100
AcDbEntity
  8
02___PRT_ALL_AXES
100
AcDbLine
 62
7
  6
CONTINUOUS
 10
137.2996502445
 20
103.8288803852
 11
145.2588791896
 21
103.8288803852
  0
LINE
  5
27B
100
AcDbEntity
  8
02___PRT_ALL_AXES
100
AcDbLine
 62
7
  6
CONTINUOUS
 10
156.3496502445
 20
103.8288803852
 11
164.3088791896
 21
103.8288803852
  0
LWPOLYLINE
  5
27C
100
AcDbEntity
  8
RUNDUNGEN
100
AcDbPolyline
 62
7
  6
CONTINUOUS
 90
29
 70
0
 10
146.3086662451
 20
70.026786798
 10
146.310863611
 20
70.0168444901
 10
146.3160712453
 20
69.9958401031
 10
146.3224337313
 20
69.9736996438
 10
146.3300525057
 20
69.9507000274
 10
146.3390374681
 20
69.9270371412
 10
146.3494508859
 20
69.9029815412
 10
146.3613243966
 20
69.8787984388
 10
146.3746653782
 20
69.8547301552
 10
146.3894387788
 20
69.831026438
 10
146.4055816524
 20
69.8079122953
 10
146.422952333
 20
69.7856519697
 10
146.4415327318
 20
69.7642979554
 10
146.4612406928
 20
69.7439656903
 10
146.4820476512
 20
69.7246992495
 10
146.5039117903
 20
69.7065547225
 10
146.5267633626
 20
69.6896051911
 10
146.5505312573
 20
69.6739143074
 10
146.5751425113
 20
69.6595382799
 10
146.6005185179
 20
69.6465287034
 10
146.6265784756
 20
69.6349305318
 10
146.6532373762
 20
69.6247831208
 10
146.6804103812
 20
69.6161186494
 10
146.7080113075
 20
69.6089632693
 10
146.7359485959
 20
69.603337922
 10
146.7641317328
 20
69.5992564369
 10
146.7924678676
 20
69.5967262814
 10
146.8208614343
 20
69.595748009
 10
146.8246169145
 20
69.5957345366
  0
LWPOLYLINE
  5
27D
100
AcDbEntity
  8
RUNDUNGEN
100
AcDbPolyline
 62
7
  6
CONTINUOUS
 90
7
 70
0
 10
146.297265963
 20
70.0912283347
 10
146.2985716287
 20
70.0825363267
 10
146.3007223748
 20
70.069063087
 10
146.302948587
 20
70.0561186608
 10
146.3052576011
 20
70.0436489864
 10
146.3076571425
 20
70.0316021075
 10
146.3086737071
 20
70.0267512825
  0
LWPOLYLINE
  5
27E
100
AcDbEntity
  8
RUNDUNGEN
100
AcDbPolyline
 62
7
  6
CONTINUOUS
 90
29
 70
0
 10
145.9145424124
 20
100.6817987465
 10
145.9138307304
 20
100.7965693957
 10
145.9128242225
 20
100.9109331827
 10
145.9115236904
 20
101.0247542044
 10
145.9099303799
 20
101.1378856828
 10
145.9080457356
 20
101.2501832215
 10
145.9058715839
 20
101.3615040585
 10
145.9034100169
 20
101.4717047334
 10
145.9006633008
 20
101.5806496703
 10
145.8976341763
 20
101.6881945638
 10
145.894324664
 20
101.794229519
 10
145.8907371326
 20
101.898633549
 10
145.8868735329
 20
102.0012986805
 10
145.8827357778
 20
102.1021163198
 10
145.8783261166
 20
102.2009677389
 10
145.8736465049
 20
102.297741764
 10
145.8686996091
 20
102.3923108677
 10
145.8634885762
 20
102.4845434291
 10
145.8580138384
 20
102.5743525825
 10
145.8522811186
 20
102.6615666865
 10
145.8462752672
 20
102.7463101556
 10
145.8399865696
 20
102.8285706374
 10
145.8333907662
 20
102.9084636213
 10
145.8264639265
 20
102.9860174418
 10
145.8191731167
 20
103.0612744555
 10
145.8114840844
 20
103.1341961866
 10
145.803342633
 20
103.2048204805
 10
145.7946654683
 20
103.2732663928
 10
145.7862590445
 20
103.3334166438
  0
LWPOLYLINE
  5
27F
100
AcDbEntity
  8
RUNDUNGEN
100
AcDbPolyline
 62
7
  6
CONTINUOUS
 90
29
 70
0
 10
146.1689870217
 20
72.7428159839
 10
146.1696987037
 20
72.6280453348
 10
146.1707052116
 20
72.5136815478
 10
146.1720057437
 20
72.3998605261
 10
146.1735990542
 20
72.2867290477
 10
146.1754836985
 20
72.174431509
 10
146.1776578502
 20
72.063110672
 10
146.1801194172
 20
71.952909997
 10
146.1828661333
 20
71.8439650601
 10
146.1858952578
 20
71.7364201667
 10
146.1892047701
 20
71.6303852115
 10
146.1927923015
 20
71.5259811814
 10
146.1966559013
 20
71.4233160499
 10
146.2007936563
 20
71.3224984106
 10
146.2052033175
 20
71.2236469915
 10
146.2098829292
 20
71.1268729665
 10
146.214829825
 20
71.0323038628
 10
146.2200408579
 20
70.9400713014
 10
146.2255155957
 20
70.8502621479
 10
146.2312483155
 20
70.7630480439
 10
146.2372541669
 20
70.6783045748
 10
146.2435428645
 20
70.596044093
 10
146.2501386679
 20
70.5161511092
 10
146.2570655076
 20
70.4385972887
 10
146.2643563174
 20
70.3633402749
 10
146.2720453497
 20
70.2904185438
 10
146.2801868011
 20
70.2197942499
 10
146.2888639658
 20
70.1513483377
 10
146.2972703896
 20
70.0911980867
  0
LINE
  5
280
100
AcDbEntity
  8
RUNDUNGEN
100
AcDbLine
 62
7
  6
CONTINUOUS
 10
145.9145424124
 20
100.6817987465
 11
145.9150948008
 21
96.803689759
  0
LINE
  5
281
100
AcDbEntity
  8
RUNDUNGEN
100
AcDbLine
 62
7
  6
CONTINUOUS
 10
146.1689870217
 20
72.7428159839
 11
146.1684346334
 21
76.6209249714
  0
LWPOLYLINE
  5
282
100
AcDbEntity
  8
RUNDUNGEN
100
AcDbPolyline
 62
7
  6
CONTINUOUS
 90
28
 70
0
 10
99.1996172789
 20
103.8288801735
 10
99.1685090364
 20
103.8279517043
 10
99.1401237136
 20
103.8254732876
 10
99.111889614
 20
103.8214386027
 10
99.083899939
 20
103.8158550641
 10
99.0562455064
 20
103.8087364649
 10
99.0290182591
 20
103.8001037486
 10
99.0023045483
 20
103.7899830206
 10
98.9761894167
 20
103.7784064073
 10
98.9507582269
 20
103.7654132584
 10
98.9260920869
 20
103.7510485158
 10
98.9022699995
 20
103.7353638479
 10
98.8793653331
 20
103.7184155855
 10
98.8574494461
 20
103.700267407
 10
98.8365922273
 20
103.6809923031
 10
98.8168362369
 20
103.6606469099
 10
98.7982106486
 20
103.6392759263
 10
98.7807977568
 20
103.6169948837
 10
98.7646156846
 20
103.5938562377
 10
98.7498069708
 20
103.570125301
 10
98.736435048
 20
103.5460282126
 10
98.7245348663
 20
103.5218151544
 10
98.7140991021
 20
103.4977294722
 10
98.7050953993
 20
103.4740357142
 10
98.6974606883
 20
103.4510025885
 10
98.691085981
 20
103.4288298119
 10
98.6858700007
 20
103.4077978083
 10
98.6836663792
 20
103.3978282457
  0
LWPOLYLINE
  5
283
100
AcDbEntity
  8
RUNDUNGEN
100
AcDbPolyline
 62
7
  6
CONTINUOUS
 90
29
 70
0
 10
145.774863189
 20
103.3978279324
 10
145.7726658231
 20
103.4077702404
 10
145.7674581888
 20
103.4287746274
 10
145.7610957028
 20
103.4509150867
 10
145.7534769284
 20
103.473914703
 10
145.744491966
 20
103.4975775893
 10
145.7340785482
 20
103.5216331893
 10
145.7222050376
 20
103.5458162917
 10
145.7088640559
 20
103.5698845752
 10
145.6940906553
 20
103.5935882924
 10
145.6779477817
 20
103.6167024352
 10
145.6605771011
 20
103.6389627607
 10
145.6419967023
 20
103.6603167751
 10
145.6222887413
 20
103.6806490401
 10
145.6014817829
 20
103.6999154809
 10
145.5796176438
 20
103.7180600079
 10
145.5567660715
 20
103.7350095394
 10
145.5329981769
 20
103.7507004231
 10
145.5083869228
 20
103.7650764505
 10
145.4830109162
 20
103.7780860271
 10
145.4569509585
 20
103.7896841987
 10
145.430292058
 20
103.7998316096
 10
145.4031190529
 20
103.808496081
 10
145.3755181266
 20
103.8156514611
 10
145.3475808383
 20
103.8212768084
 10
145.3193977013
 20
103.8253582935
 10
145.2910615665
 20
103.8278884491
 10
145.2626679998
 20
103.8288667215
 10
145.2589125196
 20
103.8288801939
  0
LWPOLYLINE
  5
284
100
AcDbEntity
  8
RUNDUNGEN
100
AcDbPolyline
 62
7
  6
CONTINUOUS
 90
7
 70
0
 10
145.7862634712
 20
103.3333863958
 10
145.7849578054
 20
103.3420784037
 10
145.7828070593
 20
103.3555516434
 10
145.7805808471
 20
103.3684960696
 10
145.778271833
 20
103.3809657441
 10
145.7758722916
 20
103.3930126229
 10
145.774855727
 20
103.3978634479
  0
LWPOLYLINE
  5
285
100
AcDbEntity
  8
RUNDUNGEN
100
AcDbPolyline
 62
7
  6
CONTINUOUS
 90
7
 70
0
 10
155.8336737774
 20
103.3978637785
 10
155.8325433342
 20
103.3924605672
 10
155.8301552394
 20
103.3804319901
 10
155.8278562978
 20
103.3679781991
 10
155.8256388746
 20
103.3550470294
 10
155.8234957343
 20
103.3415841868
 10
155.8222659275
 20
103.333386154
  0
LWPOLYLINE
  5
286
100
AcDbEntity
  8
RUNDUNGEN
100
AcDbPolyline
 62
7
  6
CONTINUOUS
 90
79
 70
0
 10
155.4399586367
 20
72.8578640719
 10
155.4400947658
 20
76.6209138574
 10
155.4402787247
 20
76.6409627775
 10
155.4406718381
 20
76.6608990244
 10
155.4412715558
 20
76.6807208468
 10
155.4420753544
 20
76.7004257995
 10
155.4430807194
 20
76.7200111225
 10
155.444285169
 20
76.7394743345
 10
155.445686376
 20
76.7588126694
 10
155.4472822533
 20
76.7780236645
 10
155.4490706941
 20
76.7971045306
 10
155.451049599
 20
76.8160527299
 10
155.4532168165
 20
76.8348653794
 10
155.4555701997
 20
76.8535398323
 10
155.4581075458
 20
76.872073127
 10
155.4608267976
 20
76.8904622721
 10
155.4637259864
 20
76.9087037421
 10
155.4668031446
 20
76.9267943284
 10
155.4700561054
 20
76.9447300418
 10
155.473482914
 20
76.9625084119
 10
155.4770805514
 20
76.9801219961
 10
155.4808455118
 20
76.9975619297
 10
155.4847766652
 20
77.0148298224
 10
155.488872248
 20
77.0319238549
 10
155.4931311534
 20
77.0488447666
 10
155.4975522851
 20
77.0655928643
 10
155.5021343371
 20
77.0821673055
 10
155.5068762527
 20
77.0985674623
 10
155.5117768321
 20
77.1147912348
 10
155.5168350328
 20
77.1308369174
 10
155.5220494712
 20
77.1467016889
 10
155.5274188959
 20
77.1623831612
 10
155.5329417235
 20
77.1778778459
 10
155.5386164878
 20
77.1931820645
 10
155.5444413111
 20
77.2082910696
 10
155.5504143697
 20
77.2232005187
 10
155.5565333701
 20
77.2379051452
 10
155.5627960104
 20
77.2523997604
 10
155.5691994388
 20
77.2666778521
 10
155.5757404831
 20
77.2807326368
 10
155.5824165081
 20
77.2945588905
 10
155.5892233124
 20
77.3081484814
 10
155.5961609956
 20
77.3215017881
 10
155.6032285434
 20
77.3346165029
 10
155.6104244324
 20
77.3474891291
 10
155.6177474578
 20
77.3601164873
 10
155.6251940757
 20
77.3724912408
 10
155.6327613755
 20
77.3846072898
 10
155.6404441839
 20
77.3964551433
 10
155.6482387041
 20
77.4080279113
 10
155.6561333905
 20
77.4193079589
 10
155.6641128759
 20
77.430274184
 10
155.6721802636
 20
77.4409320029
 10
155.6803294319
 20
77.4512737738
 10
155.6885691646
 20
77.4613098338
 10
155.696905007
 20
77.4710444604
 10
155.7053345545
 20
77.480471115
 10
155.7138576975
 20
77.4895849974
 10
155.72246535
 20
77.4983718892
 10
155.7311499088
 20
77.5068192963
 10
155.7398959333
 20
77.5149078915
 10
155.7486824166
 20
77.5226157539
 10
155.757503646
 20
77.5299352121
 10
155.7663490429
 20
77.5368550255
 10
155.7751949751
 20
77.5433548345
 10
155.7840182524
 20
77.5494171312
 10
155.7927930501
 20
77.5550259653
 10
155.8014767555
 20
77.5601581779
 10
155.8100898245
 20
77.5648305101
 10
155.818632552
 20
77.5690438602
 10
155.8271069682
 20
77.5727982694
 10
155.8355158557
 20
77.5760922074
 10
155.843869705
 20
77.5789242197
 10
155.8522495092
 20
77.5813089262
 10
155.8605277736
 20
77.5832004398
 10
155.8686890609
 20
77.5846013337
 10
155.8767308949
 20
77.5855222348
 10
155.8846341446
 20
77.5859810597
 10
155.8889552144
 20
77.5860460828
  0
LWPOLYLINE
  5
287
100
AcDbEntity
  8
RUNDUNGEN
100
AcDbPolyline
 62
7
  6
CONTINUOUS
 90
79
 70
0
 10
155.6935685829
 20
100.5657962047
 10
155.6934302789
 20
96.8026526825
 10
155.6932352942
 20
96.7826057892
 10
155.6928312046
 20
96.7626713909
 10
155.6922205478
 20
96.7428512653
 10
155.6914058358
 20
96.7231478786
 10
155.6903895725
 20
96.7035640125
 10
155.6891742293
 20
96.6841021698
 10
155.6877621192
 20
96.6647651341
 10
155.6861553203
 20
96.6455553794
 10
155.6843559331
 20
96.6264757082
 10
155.6823660508
 20
96.6075286718
 10
155.6801878199
 20
96.5887171677
 10
155.6778233827
 20
96.5700438581
 10
155.6752749363
 20
96.5515117217
 10
155.672544522
 20
96.533123787
 10
155.6696341071
 20
96.5148836022
 10
155.6665456602
 20
96.4967943921
 10
155.6632813519
 20
96.4788601696
 10
155.6598431389
 20
96.461083422
 10
155.6562340499
 20
96.4434716284
 10
155.6524575904
 20
96.4260337299
 10
155.6485148789
 20
96.4087681166
 10
155.6444076831
 20
96.3916766027
 10
155.6401371107
 20
96.3747584426
 10
155.6357042594
 20
96.3580133252
 10
155.6311104341
 20
96.3414420918
 10
155.6263566748
 20
96.3250454319
 10
155.6214441838
 20
96.308825467
 10
155.6163740088
 20
96.2927838956
 10
155.6111475419
 20
96.2769235416
 10
155.6057660416
 20
96.2612467968
 10
155.6002310927
 20
96.2457572272
 10
155.5945441653
 20
96.2304585601
 10
155.5887071545
 20
96.2153555494
 10
155.5827218989
 20
96.2004525413
 10
155.5765907028
 20
96.1857548033
 10
155.5703158955
 20
96.1712676532
 10
155.5639003564
 20
96.156997646
 10
155.5573472866
 20
96.142951577
 10
155.5506593042
 20
96.1291345941
 10
155.5438406875
 20
96.1155549934
 10
155.5368912308
 20
96.1022121991
 10
155.5298118566
 20
96.0891083419
 10
155.5226039385
 20
96.0762466711
 10
155.5152686251
 20
96.0636303387
 10
155.5078093293
 20
96.0512665266
 10
155.5002287973
 20
96.0391611632
 10
155.4925321025
 20
96.0273236748
 10
155.4847228898
 20
96.0157608482
 10
155.4768126777
 20
96.0044904246
 10
155.4688168406
 20
95.9935335963
 10
155.4607324447
 20
95.9828853131
 10
155.4525654565
 20
95.9725532025
 10
155.4443077003
 20
95.9625277891
 10
155.4359540517
 20
95.9528053423
 10
155.4275074325
 20
95.9433930958
 10
155.4189686508
 20
95.9342963832
 10
155.410347698
 20
95.9255301787
 10
155.4016527774
 20
95.9171074208
 10
155.3929005578
 20
95.9090478782
 10
155.3841127637
 20
95.9013737288
 10
155.3752960558
 20
95.8940927729
 10
155.3664608686
 20
95.8872152385
 10
155.357634638
 20
95.8807637347
 10
155.3488460845
 20
95.874757699
 10
155.3401140062
 20
95.8692070309
 10
155.3314763809
 20
95.8641308448
 10
155.3229107363
 20
95.8595110659
 10
155.3144137763
 20
95.8553453752
 10
155.3059814486
 20
95.8516328726
 10
155.2976084719
 20
95.848374959
 10
155.2892847447
 20
95.8455739228
 10
155.2809294659
 20
95.8432162786
 10
155.2726706496
 20
95.8413484071
 10
155.2645275048
 20
95.8399690803
 10
155.2564950754
 20
95.8390666316
 10
155.2485862388
 20
95.838624741
 10
155.2445741585
 20
95.8385686203
  0
LWPOLYLINE
  5
288
100
AcDbEntity
  8
RUNDUNGEN
100
AcDbPolyline
 62
7
  6
CONTINUOUS
 90
30
 70
0
 10
155.8222700674
 20
103.3334144484
 10
155.8138005868
 20
103.2727905371
 10
155.8051277101
 20
103.204330906
 10
155.7969896358
 20
103.1336902166
 10
155.7893033623
 20
103.0607499704
 10
155.7820148893
 20
102.9854728159
 10
155.7750900757
 20
102.9078973432
 10
155.7684960977
 20
102.8279816236
 10
155.7622091061
 20
102.7456976944
 10
155.7562049273
 20
102.660930752
 10
155.7504738777
 20
102.573693365
 10
155.7450008606
 20
102.4838617391
 10
155.7397915851
 20
102.3916073529
 10
155.7348464872
 20
102.2970171067
 10
155.7301687112
 20
102.2002226037
 10
155.725760923
 20
102.1013513332
 10
155.7216250787
 20
102.0005144949
 10
155.7177634286
 20
101.8978308054
 10
155.7141778861
 20
101.7934088851
 10
155.7108704037
 20
101.6873567047
 10
155.7078433499
 20
101.5797952942
 10
155.7050987473
 20
101.4708345456
 10
155.702639337
 20
101.3606188782
 10
155.7004673869
 20
101.2492839381
 10
155.6985849884
 20
101.1369732964
 10
155.6969939678
 20
101.0238298184
 10
155.6956957672
 20
100.9099980148
 10
155.6946916308
 20
100.7956247647
 10
155.693982356
 20
100.6808459678
 10
155.6935685829
 20
100.5657962047
  0
LWPOLYLINE
  5
289
100
AcDbEntity
  8
RUNDUNGEN
100
AcDbPolyline
 62
7
  6
CONTINUOUS
 90
30
 70
0
 10
155.3112590464
 20
70.0911981022
 10
155.3196654935
 20
70.1513485222
 10
155.3283426918
 20
70.2197947378
 10
155.3364841994
 20
70.2904195863
 10
155.3441732997
 20
70.3633420894
 10
155.3514641772
 20
70.4385999802
 10
155.3583910803
 20
70.5161547697
 10
155.3649869402
 20
70.5960487576
 10
155.3712756829
 20
70.6783102221
 10
155.3772815638
 20
70.7630545701
 10
155.3830142969
 20
70.8502693868
 10
155.388489028
 20
70.9400790045
 10
155.3937000389
 20
71.0323117611
 10
155.3986468974
 20
71.1268807785
 10
155.4033264621
 20
71.2236544164
 10
155.4077360645
 20
71.3225051218
 10
155.4118737619
 20
71.4233218595
 10
155.4157373064
 20
71.5259860288
 10
155.4193247969
 20
71.6303892444
 10
155.4226342848
 20
71.7364238448
 10
155.4256634032
 20
71.8439688713
 10
155.4284101288
 20
71.9529147311
 10
155.4308717115
 20
72.0631167336
 10
155.4330458739
 20
72.1744391529
 10
155.4349305214
 20
72.2867381813
 10
155.4365238201
 20
72.3998707386
 10
155.4378243299
 20
72.5136920711
 10
155.4388308036
 20
72.6280550953
 10
155.4395424515
 20
72.7428240882
 10
155.4399586367
 20
72.8578640719
  0
LWPOLYLINE
  5
28A
100
AcDbEntity
  8
RUNDUNGEN
100
AcDbPolyline
 62
7
  6
CONTINUOUS
 90
7
 70
0
 10
155.2998557606
 20
70.0267514369
 10
155.3008723188
 20
70.0316022325
 10
155.3032718688
 20
70.0436491753
 10
155.3055808069
 20
70.0561184792
 10
155.3078069697
 20
70.0690625547
 10
155.3099577751
 20
70.0825360763
 10
155.3112635208
 20
70.0912286188
  0
LINE
  5
28B
100
AcDbEntity
  8
0
100
AcDbLine
 62
7
  6
CONTINUOUS
 10
165.0874729458
 20
87.3164741114
 11
165.0911862254
 21
87.2748073652
  0
LINE
  5
28C
100
AcDbEntity
  8
0
100
AcDbLine
 62
7
  6
CONTINUOUS
 10
165.0911862254
 20
85.3164739922
 11
165.0934141919
 21
85.2748073652
  0
LINE
  5
28D
100
AcDbEntity
  8
0
100
AcDbLine
 62
7
  6
CONTINUOUS
 10
165.0829610206
 20
88.3533102632
 11
165.0993554359
 21
88.0248073652
  0
LINE
  5
28E
100
AcDbEntity
  8
0
100
AcDbLine
 62
7
  6
CONTINUOUS
 10
165.0911862254
 20
87.2748073652
 11
165.0941568474
 21
87.1914741114
  0
LINE
  5
28F
100
AcDbEntity
  8
0
100
AcDbLine
 62
7
  6
CONTINUOUS
 10
165.0934141919
 20
85.2748073652
 11
165.0963848139
 21
85.1498073652
  0
LINE
  5
290
100
AcDbEntity
  8
0
100
AcDbLine
 62
7
  6
CONTINUOUS
 10
165.0941568474
 20
87.1914741114
 11
165.0971274694
 21
87.0248073652
  0
LINE
  5
291
100
AcDbEntity
  8
0
100
AcDbLine
 62
7
  6
CONTINUOUS
 10
165.0963848139
 20
85.1498073652
 11
165.0986127804
 21
84.9831407383
  0
LINE
  5
292
100
AcDbEntity
  8
0
100
AcDbLine
 62
7
  6
CONTINUOUS
 10
165.0971274694
 20
87.0248073652
 11
165.0986127804
 21
86.8581406191
  0
LWPOLYLINE
  5
293
100
AcDbEntity
  8
RUNDUNGEN
100
AcDbPolyline
 62
7
  6
CONTINUOUS
 90
29
 70
0
 10
164.9645424124
 20
100.6817987575
 10
164.9638307303
 20
100.7965694089
 10
164.9628242223
 20
100.910933197
 10
164.9615236902
 20
101.0247542183
 10
164.9599303797
 20
101.1378856952
 10
164.9580457354
 20
101.2501832319
 10
164.9558715837
 20
101.3615040667
 10
164.9534100167
 20
101.4717047398
 10
164.9506633006
 20
101.5806496753
 10
164.9476341761
 20
101.6881945685
 10
164.9443246639
 20
101.7942295241
 10
164.9407371324
 20
101.8986335551
 10
164.9368735326
 20
102.0012986878
 10
164.9327357775
 20
102.1021163282
 10
164.9283261162
 20
102.2009677482
 10
164.9236465045
 20
102.2977417737
 10
164.9186996086
 20
102.3923108775
 10
164.9134885757
 20
102.4845434387
 10
164.9080138378
 20
102.5743525915
 10
164.902281118
 20
102.6615666945
 10
164.8962752667
 20
102.7463101625
 10
164.8899865691
 20
102.828570643
 10
164.8833907658
 20
102.9084636256
 10
164.8764639262
 20
102.9860174449
 10
164.8691731165
 20
103.0612744576
 10
164.8614840843
 20
103.1341961877
 10
164.853342633
 20
103.204820481
 10
164.8446654683
 20
103.2732663929
 10
164.8362590445
 20
103.3334166438
  0
LINE
  5
294
100
AcDbEntity
  8
0
100
AcDbLine
 62
7
  6
CONTINUOUS
 10
165.0986127804
 20
84.9831407383
 11
165.0993554359
 21
84.7748073652
  0
LINE
  5
295
100
AcDbEntity
  8
0
100
AcDbLine
 62
7
  6
CONTINUOUS
 10
165.0986127804
 20
86.8581406191
 11
165.0993554359
 21
86.6498073652
  0
LINE
  5
296
100
AcDbEntity
  8
RUNDUNGEN
100
AcDbLine
 62
7
  6
CONTINUOUS
 10
164.9650803583
 20
100.4623073652
 11
164.9645424124
 21
100.6817987575
  0
LINE
  5
297
100
AcDbEntity
  8
RUNDUNGEN
100
AcDbLine
 62
7
  6
CONTINUOUS
 10
164.965080362
 20
100.4623073652
 11
164.965080362
 21
96.5453246334
  0
LINE
  5
298
100
AcDbEntity
  8
RUNDUNGEN
100
AcDbLine
 62
7
  6
CONTINUOUS
 10
165.0829610206
 20
78.0860460749
 11
165.0829610206
 21
95.8551810926
  0
LINE
  5
299
100
AcDbEntity
  8
0
100
AcDbLine
 62
7
  6
CONTINUOUS
 10
165.0993554359
 20
89.6498073652
 11
165.0993554359
 21
89.2748073652
  0
LINE
  5
29A
100
AcDbEntity
  8
0
100
AcDbLine
 62
7
  6
CONTINUOUS
 10
165.0993554359
 20
88.0248073652
 11
165.0993554359
 21
87.6498073652
  0
LINE
  5
29B
100
AcDbEntity
  8
0
100
AcDbLine
 62
7
  6
CONTINUOUS
 10
165.0993554359
 20
86.6498073652
 11
165.0993554359
 21
86.3164741114
  0
LINE
  5
29C
100
AcDbEntity
  8
0
100
AcDbLine
 62
7
  6
CONTINUOUS
 10
165.0993554359
 20
84.7748073652
 11
165.0993554359
 21
83.7748073652
  0
LINE
  5
29D
100
AcDbEntity
  8
0
100
AcDbLine
 62
7
  6
CONTINUOUS
 10
165.0993554359
 20
86.3164741114
 11
165.0986127804
 21
86.1081406191
  0
LINE
  5
29E
100
AcDbEntity
  8
0
100
AcDbLine
 62
7
  6
CONTINUOUS
 10
165.0986127804
 20
86.1081406191
 11
165.0971274694
 21
85.9414741114
  0
LINE
  5
29F
100
AcDbEntity
  8
0
100
AcDbLine
 62
7
  6
CONTINUOUS
 10
165.0971274694
 20
85.9414741114
 11
165.0941568474
 21
85.7748073652
  0
LINE
  5
2A0
100
AcDbEntity
  8
0
100
AcDbLine
 62
7
  6
CONTINUOUS
 10
165.0941568474
 20
85.7748073652
 11
165.0911862254
 21
85.6914739922
  0
LINE
  5
2A1
100
AcDbEntity
  8
0
100
AcDbLine
 62
7
  6
CONTINUOUS
 10
165.0993554359
 20
89.2748073652
 11
165.0829610206
 21
88.9463044672
  0
LINE
  5
2A2
100
AcDbEntity
  8
0
100
AcDbLine
 62
7
  6
CONTINUOUS
 10
165.0911862254
 20
85.6914739922
 11
165.0874729458
 21
85.6498073652
  0
LWPOLYLINE
  5
2A3
100
AcDbEntity
  8
RUNDUNGEN
100
AcDbPolyline
 62
7
  6
CONTINUOUS
 90
11
 70
0
 10
165.0520424938
 20
96.0282779331
 10
165.0393920388
 20
96.0642856518
 10
165.0246038383
 20
96.1115690948
 10
165.0112272961
 20
96.160802655
 10
164.9993418526
 20
96.2119732732
 10
164.9890406601
 20
96.2650425856
 10
164.980426389
 20
96.3199577457
 10
164.9736061526
 20
96.3766719378
 10
164.9686974172
 20
96.4351165206
 10
164.9658235204
 20
96.4952456492
 10
164.9650803008
 20
96.5453246342
  0
LWPOLYLINE
  5
2A4
100
AcDbEntity
  8
RUNDUNGEN
100
AcDbPolyline
 62
7
  6
CONTINUOUS
 90
29
 70
0
 10
164.8248631889
 20
103.3978279329
 10
164.8226658243
 20
103.4077702352
 10
164.8174581913
 20
103.4287746179
 10
164.8110957067
 20
103.450915074
 10
164.8034769335
 20
103.4739146886
 10
164.7944919717
 20
103.4975775752
 10
164.784078554
 20
103.5216331768
 10
164.7722050431
 20
103.5458162811
 10
164.7588640609
 20
103.5698845668
 10
164.7440906597
 20
103.5935882858
 10
164.7279477852
 20
103.6167024303
 10
164.7105771032
 20
103.6389627583
 10
164.6919967025
 20
103.6603167749
 10
164.6722887398
 20
103.6806490416
 10
164.6514817797
 20
103.6999154837
 10
164.6296176391
 20
103.7180600115
 10
164.6067660654
 20
103.7350095435
 10
164.5829981699
 20
103.7507004274
 10
164.558386915
 20
103.7650764548
 10
164.5330109073
 20
103.7780860313
 10
164.5069509487
 20
103.7896842028
 10
164.4802920469
 20
103.7998316136
 10
164.453119041
 20
103.8084960845
 10
164.4255181145
 20
103.8156514639
 10
164.3975808266
 20
103.8212768104
 10
164.369397691
 20
103.8253582946
 10
164.3410615582
 20
103.8278884495
 10
164.3126679945
 20
103.8288667214
 10
164.3089125189
 20
103.8288801938
  0
LWPOLYLINE
  5
2A5
100
AcDbEntity
  8
RUNDUNGEN
100
AcDbPolyline
 62
7
  6
CONTINUOUS
 90
7
 70
0
 10
164.836263471
 20
103.3333863964
 10
164.8349578054
 20
103.3420784031
 10
164.8328070595
 20
103.3555516422
 10
164.8305808472
 20
103.3684960691
 10
164.8282718329
 20
103.3809657444
 10
164.8258722915
 20
103.3930126232
 10
164.8248557269
 20
103.3978634482
  0
LINE
  5
2A6
100
AcDbEntity
  8
RUNDUNGEN
100
AcDbLine
 62
7
  6
CONTINUOUS
 10
89.2035750221
 20
129.9151147662
 11
89.0196670469
 21
132.5451213421
  0
LINE
  5
2A7
100
AcDbEntity
  8
RUNDUNGEN
100
AcDbLine
 62
7
  6
CONTINUOUS
 10
91.129432233
 20
123.3938315998
 11
90.9222999911
 21
127.3461502208
  0
LINE
  5
2A8
100
AcDbEntity
  8
RUNDUNGEN
100
AcDbLine
 62
7
  6
CONTINUOUS
 10
88.9006445641
 20
132.5712734819
 11
89.0605329607
 21
123.4112733747
  0
LINE
  5
2A9
100
AcDbEntity
  8
RUNDUNGEN
100
AcDbLine
 62
7
  6
CONTINUOUS
 10
96.386229443
 20
127.3461502209
 11
96.1790972011
 21
123.3938315998
  0
LINE
  5
2AA
100
AcDbEntity
  8
RUNDUNGEN
100
AcDbLine
 62
7
  6
CONTINUOUS
 10
98.2888623872
 20
132.545121341
 11
98.105101537
 21
129.9172187515
  0
LINE
  5
2AB
100
AcDbEntity
  8
0
100
AcDbLine
 62
7
  6
CONTINUOUS
 10
108.2534278971
 20
129.9172187515
 11
108.0696670469
 21
132.545121341
  0
LINE
  5
2AC
100
AcDbEntity
  8
RUNDUNGEN
100
AcDbLine
 62
7
  6
CONTINUOUS
 10
108.1989545577
 20
130.6962237982
 11
108.0696670469
 21
132.545121341
  0
LINE
  5
2AD
100
AcDbEntity
  8
RUNDUNGEN
100
AcDbLine
 62
7
  6
CONTINUOUS
 10
110.179432233
 20
123.3938315998
 11
109.9722999911
 21
127.3461502208
  0
LINE
  5
2AE
100
AcDbEntity
  8
RUNDUNGEN
100
AcDbLine
 62
7
  6
CONTINUOUS
 10
115.436229443
 20
127.3461502209
 11
115.2290972011
 21
123.3938315998
  0
LINE
  5
2AF
100
AcDbEntity
  8
RUNDUNGEN
100
AcDbLine
 62
7
  6
CONTINUOUS
 10
117.3388623872
 20
132.545121341
 11
117.2095748763
 21
130.6962237969
  0
LINE
  5
2B0
100
AcDbEntity
  8
0
100
AcDbLine
 62
7
  6
CONTINUOUS
 10
117.155101537
 20
129.9172187515
 11
117.3388623872
 21
132.545121341
  0
LINE
  5
2B1
100
AcDbEntity
  8
02___PRT_ALL_AXES
100
AcDbLine
 62
7
  6
CONTINUOUS
 10
152.8297824337
 20
122.9199995779
 11
148.7787470004
 21
122.9199995779
  0
LINE
  5
2B2
100
AcDbEntity
  8
02___PRT_ALL_AXES
100
AcDbLine
 62
7
  6
CONTINUOUS
 10
133.7797824337
 20
122.9199995779
 11
129.7287470004
 21
122.9199995779
  0
LINE
  5
2B3
100
AcDbEntity
  8
02___PRT_ALL_AXES
100
AcDbLine
 62
7
  6
CONTINUOUS
 10
114.7297824337
 20
122.9199995779
 11
110.6787470004
 21
122.9199995779
  0
LINE
  5
2B4
100
AcDbEntity
  8
02___PRT_ALL_AXES
100
AcDbLine
 62
7
  6
CONTINUOUS
 10
95.6797824337
 20
122.9199995779
 11
91.6287470004
 21
122.9199995779
  0
LINE
  5
2B5
100
AcDbEntity
  8
RUNDUNGEN
100
AcDbLine
 62
7
  6
CONTINUOUS
 10
89.5604568083
 20
122.9199995779
 11
164.4230726258
 21
122.9199995779
  0
LINE
  5
2B6
100
AcDbEntity
  8
02___PRT_ALL_AXES
100
AcDbLine
 62
7
  6
CENTER
 10
166.2367352161
 20
127.9999995779
 11
154.421794218
 21
127.9999995779
  0
LINE
  5
2B7
100
AcDbEntity
  8
02___PRT_ALL_AXES
100
AcDbLine
 62
7
  6
CENTER
 10
87.7467817152
 20
127.9999995779
 11
99.5617477191
 21
127.9999995779
  0
LINE
  5
2B8
100
AcDbEntity
  8
0
100
AcDbLine
 62
7
  6
CONTINUOUS
 10
127.3034278971
 20
129.9172187515
 11
127.1196670469
 21
132.545121341
  0
LINE
  5
2B9
100
AcDbEntity
  8
RUNDUNGEN
100
AcDbLine
 62
7
  6
CONTINUOUS
 10
127.2489545577
 20
130.6962237982
 11
127.1196670469
 21
132.545121341
  0
LINE
  5
2BA
100
AcDbEntity
  8
RUNDUNGEN
100
AcDbLine
 62
7
  6
CONTINUOUS
 10
129.229432233
 20
123.3938315998
 11
129.0222999911
 21
127.3461502208
  0
LINE
  5
2BB
100
AcDbEntity
  8
RUNDUNGEN
100
AcDbLine
 62
7
  6
CONTINUOUS
 10
164.5305958258
 20
129.0799995779
 11
155.6628169541
 21
129.0799995779
  0
LINE
  5
2BC
100
AcDbEntity
  8
RUNDUNGEN
100
AcDbLine
 62
7
  6
CONTINUOUS
 10
89.4529336083
 20
129.0799995779
 11
89.8642081391
 21
129.0799995779
  0
LINE
  5
2BD
100
AcDbEntity
  8
RUNDUNGEN
100
AcDbLine
 62
7
  6
CONTINUOUS
 10
97.4443617465
 20
129.0799995779
 11
98.5128137992
 21
129.0799995779
  0
LINE
  5
2BE
100
AcDbEntity
  8
0
100
AcDbLine
 62
7
  6
CONTINUOUS
 10
98.5128137992
 20
129.0799995779
 11
108.9142081391
 21
129.0799995779
  0
LINE
  5
2BF
100
AcDbEntity
  8
0
100
AcDbLine
 62
7
  6
CONTINUOUS
 10
116.4940449056
 20
129.0799995779
 11
127.9642081391
 21
129.0799995779
  0
LINE
  5
2C0
100
AcDbEntity
  8
0
100
AcDbLine
 62
7
  6
CONTINUOUS
 10
135.5440448966
 20
129.0799995779
 11
147.0142081391
 21
129.0799995779
  0
LINE
  5
2C1
100
AcDbEntity
  8
0
100
AcDbLine
 62
7
  6
CONTINUOUS
 10
154.5943212655
 20
129.0799995779
 11
164.5305958258
 21
129.0799995779
  0
LINE
  5
2C2
100
AcDbEntity
  8
02___PRT_ALL_AXES
100
AcDbLine
 62
7
  6
CONTINUOUS
 10
154.940080362
 20
133.0799995779
 11
146.6684490721
 21
133.0799995779
  0
LINE
  5
2C3
100
AcDbEntity
  8
02___PRT_ALL_AXES
100
AcDbLine
 62
7
  6
CONTINUOUS
 10
135.890080362
 20
133.0799995779
 11
127.6184490721
 21
133.0799995779
  0
LINE
  5
2C4
100
AcDbEntity
  8
02___PRT_ALL_AXES
100
AcDbLine
 62
7
  6
CONTINUOUS
 10
116.840080362
 20
133.0799995779
 11
108.5684490721
 21
133.0799995779
  0
LINE
  5
2C5
100
AcDbEntity
  8
02___PRT_ALL_AXES
100
AcDbLine
 62
7
  6
CONTINUOUS
 10
97.790080362
 20
133.0799995779
 11
89.5184490721
 21
133.0799995779
  0
LINE
  5
2C6
100
AcDbEntity
  8
RUNDUNGEN
100
AcDbLine
 62
7
  6
CONTINUOUS
 10
89.4005693375
 20
133.0799995779
 11
164.5829610206
 21
133.0799995779
  0
LINE
  5
2C7
100
AcDbEntity
  8
0
100
AcDbLine
 62
7
  6
CONTINUOUS
 10
165.0444536691
 20
130.3695514575
 11
165.064450623
 21
130.3692024094
  0
LINE
  5
2C8
100
AcDbEntity
  8
0
100
AcDbLine
 62
7
  6
CONTINUOUS
 10
165.079358482
 20
132.3692468478
 11
165.0993554359
 21
132.3688977997
  0
LINE
  5
2C9
100
AcDbEntity
  8
RUNDUNGEN
100
AcDbLine
 62
7
  6
CONTINUOUS
 10
134.486229443
 20
127.3461502209
 11
134.2790972011
 21
123.3938315998
  0
LINE
  5
2CA
100
AcDbEntity
  8
RUNDUNGEN
100
AcDbLine
 62
7
  6
CONTINUOUS
 10
136.3888623872
 20
132.545121341
 11
136.2595748763
 21
130.6962237969
  0
LINE
  5
2CB
100
AcDbEntity
  8
0
100
AcDbLine
 62
7
  6
CONTINUOUS
 10
136.205101537
 20
129.9172187515
 11
136.3888623872
 21
132.545121341
  0
LINE
  5
2CC
100
AcDbEntity
  8
0
100
AcDbLine
 62
7
  6
CONTINUOUS
 10
146.3534278971
 20
129.9172187515
 11
146.1696670469
 21
132.545121341
  0
LINE
  5
2CD
100
AcDbEntity
  8
RUNDUNGEN
100
AcDbLine
 62
7
  6
CONTINUOUS
 10
146.2989545577
 20
130.6962237982
 11
146.1696670469
 21
132.545121341
  0
LINE
  5
2CE
100
AcDbEntity
  8
RUNDUNGEN
100
AcDbLine
 62
7
  6
CONTINUOUS
 10
148.279432233
 20
123.3938315998
 11
148.0722999911
 21
127.3461502208
  0
LINE
  5
2CF
100
AcDbEntity
  8
RUNDUNGEN
100
AcDbLine
 62
7
  6
CONTINUOUS
 10
153.3290972011
 20
123.3938315998
 11
153.5362294447
 21
127.3461502527
  0
LINE
  5
2D0
100
AcDbEntity
  8
RUNDUNGEN
100
AcDbLine
 62
7
  6
CONTINUOUS
 10
155.2802879341
 20
130.2774010103
 11
155.255101537
 21
129.9172187515
  0
LINE
  5
2D1
100
AcDbEntity
  8
RUNDUNGEN
100
AcDbLine
 62
7
  6
CONTINUOUS
 10
155.3095741859
 20
130.6962139234
 11
155.4388623872
 21
132.545121341
  0
LINE
  5
2D2
100
AcDbEntity
  8
0
100
AcDbLine
 62
7
  6
CONTINUOUS
 10
155.255101537
 20
129.9172187515
 11
155.4243243484
 21
132.3372177008
  0
LINE
  5
2D3
100
AcDbEntity
  8
RUNDUNGEN
100
AcDbLine
 62
7
  6
CONTINUOUS
 10
164.9229964734
 20
123.4112733747
 11
165.0828848681
 21
132.5712733747
  0
LINE
  5
2D4
100
AcDbEntity
  8
0
100
AcDbLine
 62
7
  6
CONTINUOUS
 10
165.0993554359
 20
132.3688977997
 11
165.064450623
 21
130.3692024094
  0
LINE
  5
2D5
100
AcDbEntity
  8
02___PRT_ALL_AXES
100
AcDbLine
 62
7
  6
CENTER
 10
185.8826674107
 20
127.9999995779
 11
185.8826674107
 21
122.3049995779
  0
LINE
  5
2D6
100
AcDbEntity
  8
02___PRT_ALL_AXES
100
AcDbLine
 62
7
  6
CENTER
 10
185.8826674107
 20
127.9999995779
 11
185.8826674107
 21
133.6949995779
  0
LINE
  5
2D7
100
AcDbEntity
  8
RUNDUNGEN
100
AcDbLine
 62
7
  6
CONTINUOUS
 10
198.7350762861
 20
122.9199995779
 11
197.8402585354
 21
122.9199995779
  0
LINE
  5
2D8
100
AcDbEntity
  8
RUNDUNGEN
100
AcDbLine
 62
7
  6
CONTINUOUS
 10
186.7876674107
 20
122.9199995779
 11
184.3876674107
 21
122.9199995779
  0
LINE
  5
2D9
100
AcDbEntity
  8
RUNDUNGEN
100
AcDbLine
 62
7
  6
CONTINUOUS
 10
209.7876738617
 20
122.9199995779
 11
212.1876623404
 21
122.9199995779
  0
LINE
  5
2DA
100
AcDbEntity
  8
0
100
AcDbLine
 62
7
  6
CONTINUOUS
 10
193.6155605844
 20
129.0799995779
 11
193.6155605844
 21
128.9799995779
  0
LINE
  5
2DB
100
AcDbEntity
  8
0
100
AcDbLine
 62
7
  6
CONTINUOUS
 10
193.6814359597
 20
129.0799995779
 11
193.6814359597
 21
128.9799995779
  0
LINE
  5
2DC
100
AcDbEntity
  8
0
100
AcDbLine
 62
7
  6
CONTINUOUS
 10
193.8879641495
 20
129.0799995779
 11
193.8879641495
 21
128.9799995779
  0
LINE
  5
2DD
100
AcDbEntity
  8
0
100
AcDbLine
 62
7
  6
CONTINUOUS
 10
193.9680828414
 20
129.0799995779
 11
193.9680828414
 21
128.9799995779
  0
LINE
  5
2DE
100
AcDbEntity
  8
0
100
AcDbLine
 62
7
  6
CONTINUOUS
 10
194.030397383
 20
129.0799995779
 11
194.030397383
 21
128.9799995779
  0
LINE
  5
2DF
100
AcDbEntity
  8
0
100
AcDbLine
 62
7
  6
CONTINUOUS
 10
194.2226822427
 20
129.0799995779
 11
194.2226822427
 21
128.9799995779
  0
LINE
  5
2E0
100
AcDbEntity
  8
0
100
AcDbLine
 62
7
  6
CONTINUOUS
 10
194.8778751305
 20
129.0799640306
 11
194.8778751305
 21
128.9799995779
  0
LINE
  5
2E1
100
AcDbEntity
  8
0
100
AcDbLine
 62
7
  6
CONTINUOUS
 10
194.8796555451
 20
129.079947433
 11
194.8796555451
 21
128.9799995779
  0
LINE
  5
2E2
100
AcDbEntity
  8
0
100
AcDbLine
 62
7
  6
CONTINUOUS
 10
194.9811392478
 20
129.0737420224
 11
194.9811392478
 21
128.9799995779
  0
LINE
  5
2E3
100
AcDbEntity
  8
0
100
AcDbLine
 62
7
  6
CONTINUOUS
 10
195.2517623356
 20
129.0040300211
 11
195.2517623356
 21
128.9799995779
  0
LINE
  5
2E4
100
AcDbEntity
  8
0
100
AcDbLine
 62
7
  6
CONTINUOUS
 10
187.9234945607
 20
130.8434173355
 11
189.6433438213
 21
129.6090172704
  0
LINE
  5
2E5
100
AcDbEntity
  8
RUNDUNGEN
100
AcDbLine
 62
7
  6
CONTINUOUS
 10
192.4970425915
 20
129.5479144163
 11
189.3400123156
 21
132.1969773564
  0
LINE
  5
2E6
100
AcDbEntity
  8
RUNDUNGEN
100
AcDbLine
 62
7
  6
CONTINUOUS
 10
196.8639548442
 20
123.7035663287
 11
195.845740546
 21
128.2964342225
  0
LINE
  5
2E7
100
AcDbEntity
  8
02___PRT_ALL_AXES
100
AcDbLine
 62
7
  6
CENTER
 10
210.6926674107
 20
127.9999995779
 11
204.9976674107
 21
127.9999995779
  0
LINE
  5
2E8
100
AcDbEntity
  8
02___PRT_ALL_AXES
100
AcDbLine
 62
7
  6
CENTER
 10
185.8826674107
 20
127.9999995779
 11
180.1876674107
 21
127.9999995779
  0
LINE
  5
2E9
100
AcDbEntity
  8
02___PRT_ALL_AXES
100
AcDbLine
 62
7
  6
CENTER
 10
185.8826674107
 20
127.9999995779
 11
191.5776674107
 21
127.9999995779
  0
LINE
  5
2EA
100
AcDbEntity
  8
02___PRT_ALL_AXES
100
AcDbLine
 62
7
  6
CENTER
 10
210.6926674107
 20
127.9999995779
 11
216.3876674107
 21
127.9999995779
  0
LINE
  5
2EB
100
AcDbEntity
  8
0
100
AcDbLine
 62
7
  6
CONTINUOUS
 10
195.2517623356
 20
128.9799995779
 11
193.6155605844
 21
128.9799995779
  0
LINE
  5
2EC
100
AcDbEntity
  8
RUNDUNGEN
100
AcDbLine
 62
7
  6
CONTINUOUS
 10
194.8694434372
 20
129.0799995779
 11
193.7826222496
 21
129.0799995779
  0
LINE
  5
2ED
100
AcDbEntity
  8
0
100
AcDbLine
 62
7
  6
CONTINUOUS
 10
191.2876674107
 20
129.0799995779
 11
193.7826262112
 21
129.0799995779
  0
LINE
  5
2EE
100
AcDbEntity
  8
RUNDUNGEN
100
AcDbLine
 62
7
  6
CONTINUOUS
 10
201.7058913843
 20
129.0799995779
 11
205.2876674321
 21
129.0799995779
  0
LINE
  5
2EF
100
AcDbEntity
  8
RUNDUNGEN
100
AcDbLine
 62
7
  6
CONTINUOUS
 10
200.7295953771
 20
128.2964391919
 11
199.7113785662
 21
123.703559964
  0
LINE
  5
2F0
100
AcDbEntity
  8
RUNDUNGEN
100
AcDbLine
 62
7
  6
CONTINUOUS
 10
208.6518355705
 20
130.8434139691
 11
206.9319958452
 21
129.6090207479
  0
LINE
  5
2F1
100
AcDbEntity
  8
RUNDUNGEN
100
AcDbLine
 62
7
  6
CONTINUOUS
 10
184.5376674107
 20
133.0799995779
 11
212.0376595811
 21
133.0799995779
  0
LINE
  5
2F2
100
AcDbEntity
  8
02___PRT_ALL_AXES
100
AcDbLine
 62
7
  6
CENTER
 10
210.6926674107
 20
127.9999995779
 11
210.6926674107
 21
122.3049995779
  0
LINE
  5
2F3
100
AcDbEntity
  8
02___PRT_ALL_AXES
100
AcDbLine
 62
7
  6
CENTER
 10
210.6926674107
 20
127.9999995779
 11
210.6926674107
 21
133.6949995779
  0
ARC
  5
2F4
100
AcDbEntity
  8
RUNDUNGEN
100
AcDbCircle
 62
7
  6
CONTINUOUS
 10
164.5829610341
 20
78.0860460425
 40
0.4999999676
100
AcDbArc
 50
269.9999984525
 51
0.0000037165
  0
ARC
  5
2F5
100
AcDbEntity
  8
RUNDUNGEN
100
AcDbCircle
 62
7
  6
CONTINUOUS
 10
89.4005684
 20
95.3385686879
 40
0.4999999676
100
AcDbArc
 50
89.9999984525
 51
180.0000037165
  0
ARC
  5
2F6
100
AcDbEntity
  8
RUNDUNGEN
100
AcDbCircle
 62
7
  6
CONTINUOUS
 10
164.5829611688
 20
95.8551810807
 40
0.4999998508
100
AcDbArc
 50
359.9999955015
 51
20.2546886578
  0
ARC
  5
2F7
100
AcDbEntity
  8
RUNDUNGEN
100
AcDbCircle
 62
7
  6
CONTINUOUS
 10
89.4005682653
 20
77.56943365
 40
0.4999998508
100
AcDbArc
 50
179.9999955013
 51
200.2546884063
  0
ARC
  5
2F8
100
AcDbEntity
  8
RUNDUNGEN
100
AcDbCircle
 62
7
  6
CONTINUOUS
 10
107.9750408999
 20
127.2414787227
 40
2.0
100
AcDbArc
 50
2.9999881137
 51
52.2283099486
  0
ARC
  5
2F9
100
AcDbEntity
  8
RUNDUNGEN
100
AcDbCircle
 62
7
  6
CONTINUOUS
 10
117.4334885342
 20
127.2414787227
 40
2.0
100
AcDbArc
 50
127.7717689574
 51
177.0000118847
  0
ARC
  5
2FA
100
AcDbEntity
  8
RUNDUNGEN
100
AcDbCircle
 62
7
  6
CONTINUOUS
 10
88.9250408999
 20
127.2414787227
 40
2.0
100
AcDbArc
 50
2.9999881132
 51
52.2283099483
  0
ARC
  5
2FB
100
AcDbEntity
  8
RUNDUNGEN
100
AcDbCircle
 62
7
  6
CONTINUOUS
 10
98.3834885342
 20
127.2414787227
 40
2.0
100
AcDbArc
 50
127.7717689574
 51
177.0000118847
  0
ARC
  5
2FC
100
AcDbEntity
  8
RUNDUNGEN
100
AcDbCircle
 62
7
  6
CONTINUOUS
 10
89.5604568083
 20
123.4199995779
 40
0.5
100
AcDbArc
 50
181.0
 51
270.0
  0
ARC
  5
2FD
100
AcDbEntity
  8
RUNDUNGEN
100
AcDbCircle
 62
7
  6
CONTINUOUS
 10
91.6287469976
 20
123.4199996315
 40
0.5
100
AcDbArc
 50
183.0000061499
 51
270.0000003219
  0
ARC
  5
2FE
100
AcDbEntity
  8
RUNDUNGEN
100
AcDbCircle
 62
7
  6
CONTINUOUS
 10
114.7297824389
 20
123.4199996775
 40
0.5
100
AcDbArc
 50
269.9999994021
 51
356.9999885748
  0
ARC
  5
2FF
100
AcDbEntity
  8
RUNDUNGEN
100
AcDbCircle
 62
7
  6
CONTINUOUS
 10
95.6797824337
 20
123.4199995779
 40
0.5
100
AcDbArc
 50
270.0
 51
357.0
  0
ARC
  5
300
100
AcDbEntity
  8
RUNDUNGEN
100
AcDbCircle
 62
7
  6
CONTINUOUS
 10
110.6787470004
 20
123.4199995779
 40
0.5
100
AcDbArc
 50
183.0
 51
270.0
  0
ARC
  5
301
100
AcDbEntity
  8
RUNDUNGEN
100
AcDbCircle
 62
7
  6
CONTINUOUS
 10
91.7426217789
 20
130.8775807551
 40
2.6
100
AcDbArc
 50
183.9997818471
 51
232.2281790688
  0
ARC
  5
302
100
AcDbEntity
  8
RUNDUNGEN
100
AcDbCircle
 62
7
  6
CONTINUOUS
 10
95.5659076552
 20
130.8775807551
 40
2.6
100
AcDbArc
 50
307.7717602335
 51
356.0002181003
  0
ARC
  5
303
100
AcDbEntity
  8
RUNDUNGEN
100
AcDbCircle
 62
7
  6
CONTINUOUS
 10
90.101243809
 20
129.9800084442
 40
0.900008865
100
AcDbArc
 50
184.0005263523
 51
252.0090941269
  0
ARC
  5
304
100
AcDbEntity
  8
RUNDUNGEN
100
AcDbCircle
 62
7
  6
CONTINUOUS
 10
97.2072938918
 20
129.9799995779
 40
0.9
100
AcDbArc
 50
288.0391602468
 51
356.0
  0
ARC
  5
305
100
AcDbEntity
  8
RUNDUNGEN
100
AcDbCircle
 62
7
  6
CONTINUOUS
 10
89.4529336083
 20
129.5799995779
 40
0.5
100
AcDbArc
 50
181.0
 51
270.0
  0
ARC
  5
306
100
AcDbEntity
  8
RUNDUNGEN
100
AcDbCircle
 62
7
  6
CONTINUOUS
 10
89.4005684135
 20
132.5799995779
 40
0.5
100
AcDbArc
 50
89.9998941184
 51
180.9999877105
  0
ARC
  5
307
100
AcDbEntity
  8
RUNDUNGEN
100
AcDbCircle
 62
7
  6
CONTINUOUS
 10
89.5184490721
 20
132.5799995779
 40
0.5
100
AcDbArc
 50
90.0
 51
184.0
  0
ARC
  5
308
100
AcDbEntity
  8
RUNDUNGEN
100
AcDbCircle
 62
7
  6
CONTINUOUS
 10
97.790080362
 20
132.5799995779
 40
0.5
100
AcDbArc
 50
356.0
 51
90.0
  0
ARC
  5
309
100
AcDbEntity
  8
RUNDUNGEN
100
AcDbCircle
 62
7
  6
CONTINUOUS
 10
110.7926217789
 20
130.8775807551
 40
2.6
100
AcDbArc
 50
183.9997818596
 51
232.228179069
  0
ARC
  5
30A
100
AcDbEntity
  8
0
100
AcDbCircle
 62
7
  6
CONTINUOUS
 10
110.7926217789
 20
130.8775807551
 40
2.6
100
AcDbArc
 50
230.3483150784
 51
232.2281202089
  0
ARC
  5
30B
100
AcDbEntity
  8
0
100
AcDbCircle
 62
7
  6
CONTINUOUS
 10
110.7926217789
 20
130.8775807551
 40
2.6
100
AcDbArc
 50
184.000001924
 51
186.106065221
  0
ARC
  5
30C
100
AcDbEntity
  8
0
100
AcDbCircle
 62
7
  6
CONTINUOUS
 10
110.7926217789
 20
130.8775807551
 40
2.6
100
AcDbArc
 50
188.0560403977
 51
190.1827602167
  0
ARC
  5
30D
100
AcDbEntity
  8
0
100
AcDbCircle
 62
7
  6
CONTINUOUS
 10
110.7926217789
 20
130.8775807551
 40
2.6
100
AcDbArc
 50
211.9192753101
 51
213.0490637753
  0
ARC
  5
30E
100
AcDbEntity
  8
0
100
AcDbCircle
 62
7
  6
CONTINUOUS
 10
114.6159076552
 20
130.8775807551
 40
2.6
100
AcDbArc
 50
349.8172399404
 51
351.9439596883
  0
ARC
  5
30F
100
AcDbEntity
  8
0
100
AcDbCircle
 62
7
  6
CONTINUOUS
 10
114.6159076552
 20
130.8775807551
 40
2.6
100
AcDbArc
 50
353.8939348158
 51
355.9999981013
  0
ARC
  5
310
100
AcDbEntity
  8
0
100
AcDbCircle
 62
7
  6
CONTINUOUS
 10
114.6159076552
 20
130.8775807551
 40
2.6
100
AcDbArc
 50
307.7719045731
 51
328.0807351911
  0
ARC
  5
311
100
AcDbEntity
  8
RUNDUNGEN
100
AcDbCircle
 62
7
  6
CONTINUOUS
 10
114.6159076552
 20
130.8775807551
 40
2.6
100
AcDbArc
 50
307.7717602335
 51
356.0002181124
  0
ARC
  5
312
100
AcDbEntity
  8
0
100
AcDbCircle
 62
7
  6
CONTINUOUS
 10
109.1512355424
 20
129.9799995779
 40
0.9
100
AcDbArc
 50
184.0
 51
252.0096660707
  0
ARC
  5
313
100
AcDbEntity
  8
0
100
AcDbCircle
 62
7
  6
CONTINUOUS
 10
116.2572938918
 20
129.9799995779
 40
0.9
100
AcDbArc
 50
288.017067517
 51
356.0
  0
ARC
  5
314
100
AcDbEntity
  8
RUNDUNGEN
100
AcDbCircle
 62
7
  6
CONTINUOUS
 10
116.8400803583
 20
132.5799995238
 40
0.5
100
AcDbArc
 50
356.0000062139
 51
89.9999995665
  0
ARC
  5
315
100
AcDbEntity
  8
RUNDUNGEN
100
AcDbCircle
 62
7
  6
CONTINUOUS
 10
108.5684490721
 20
132.5799995779
 40
0.5
100
AcDbArc
 50
90.0
 51
184.0
  0
ARC
  5
316
100
AcDbEntity
  8
RUNDUNGEN
100
AcDbCircle
 62
7
  6
CONTINUOUS
 10
146.0750408999
 20
127.2414787227
 40
2.0
100
AcDbArc
 50
2.999988113
 51
52.2283099481
  0
ARC
  5
317
100
AcDbEntity
  8
RUNDUNGEN
100
AcDbCircle
 62
7
  6
CONTINUOUS
 10
155.5334885343
 20
127.2414787227
 40
2.0
100
AcDbArc
 50
127.7717529669
 51
177.0000109742
  0
ARC
  5
318
100
AcDbEntity
  8
RUNDUNGEN
100
AcDbCircle
 62
7
  6
CONTINUOUS
 10
127.0250408999
 20
127.2414787227
 40
2.0
100
AcDbArc
 50
2.999988113
 51
52.2283099481
  0
ARC
  5
319
100
AcDbEntity
  8
RUNDUNGEN
100
AcDbCircle
 62
7
  6
CONTINUOUS
 10
136.4834885342
 20
127.2414787227
 40
2.0
100
AcDbArc
 50
127.7717689574
 51
177.0000118847
  0
ARC
  5
31A
100
AcDbEntity
  8
RUNDUNGEN
100
AcDbCircle
 62
7
  6
CONTINUOUS
 10
164.4230726258
 20
123.4199995779
 40
0.5
100
AcDbArc
 50
270.0
 51
359.0
  0
ARC
  5
31B
100
AcDbEntity
  8
RUNDUNGEN
100
AcDbCircle
 62
7
  6
CONTINUOUS
 10
152.8297824337
 20
123.4199995779
 40
0.5
100
AcDbArc
 50
270.0
 51
357.0
  0
ARC
  5
31C
100
AcDbEntity
  8
RUNDUNGEN
100
AcDbCircle
 62
7
  6
CONTINUOUS
 10
148.7787469976
 20
123.4199996315
 40
0.5
100
AcDbArc
 50
183.0000061465
 51
270.0000003217
  0
ARC
  5
31D
100
AcDbEntity
  8
RUNDUNGEN
100
AcDbCircle
 62
7
  6
CONTINUOUS
 10
133.7797824389
 20
123.4199996775
 40
0.5
100
AcDbArc
 50
269.9999994021
 51
356.9999885748
  0
ARC
  5
31E
100
AcDbEntity
  8
RUNDUNGEN
100
AcDbCircle
 62
7
  6
CONTINUOUS
 10
129.7287469976
 20
123.4199996315
 40
0.5
100
AcDbArc
 50
183.0000061465
 51
270.0000003217
  0
ARC
  5
31F
100
AcDbEntity
  8
RUNDUNGEN
100
AcDbCircle
 62
7
  6
CONTINUOUS
 10
129.8426217789
 20
130.8775807551
 40
2.6
100
AcDbArc
 50
183.9997818592
 51
232.2281790687
  0
ARC
  5
320
100
AcDbEntity
  8
0
100
AcDbCircle
 62
7
  6
CONTINUOUS
 10
129.8426217789
 20
130.8775807551
 40
2.6
100
AcDbArc
 50
183.999999999
 51
186.1060642122
  0
ARC
  5
321
100
AcDbEntity
  8
0
100
AcDbCircle
 62
7
  6
CONTINUOUS
 10
129.8426217789
 20
130.8775807551
 40
2.6
100
AcDbArc
 50
188.0560396739
 51
190.1827595264
  0
ARC
  5
322
100
AcDbEntity
  8
0
100
AcDbCircle
 62
7
  6
CONTINUOUS
 10
129.8426217789
 20
130.8775807551
 40
2.6
100
AcDbArc
 50
211.9192753668
 51
213.0490633952
  0
ARC
  5
323
100
AcDbEntity
  8
0
100
AcDbCircle
 62
7
  6
CONTINUOUS
 10
133.6659076552
 20
130.8775807551
 40
2.6
100
AcDbArc
 50
349.8172406213
 51
351.9439604022
  0
ARC
  5
324
100
AcDbEntity
  8
0
100
AcDbCircle
 62
7
  6
CONTINUOUS
 10
133.6659076552
 20
130.8775807551
 40
2.6
100
AcDbArc
 50
353.8939358111
 51
356.000000001
  0
ARC
  5
325
100
AcDbEntity
  8
0
100
AcDbCircle
 62
7
  6
CONTINUOUS
 10
133.6659076552
 20
130.8775807551
 40
2.6
100
AcDbArc
 50
307.7717640271
 51
328.0807351347
  0
ARC
  5
326
100
AcDbEntity
  8
RUNDUNGEN
100
AcDbCircle
 62
7
  6
CONTINUOUS
 10
133.6659076552
 20
130.8775807551
 40
2.6
100
AcDbArc
 50
307.7717602335
 51
356.0002181124
  0
ARC
  5
327
100
AcDbEntity
  8
0
100
AcDbCircle
 62
7
  6
CONTINUOUS
 10
128.2012355424
 20
129.9799995779
 40
0.9
100
AcDbArc
 50
184.0
 51
252.0096660694
  0
ARC
  5
328
100
AcDbEntity
  8
0
100
AcDbCircle
 62
7
  6
CONTINUOUS
 10
135.3072938918
 20
129.9799995779
 40
0.9
100
AcDbArc
 50
288.0170657391
 51
356.0
  0
ARC
  5
329
100
AcDbEntity
  8
RUNDUNGEN
100
AcDbCircle
 62
7
  6
CONTINUOUS
 10
135.8900803583
 20
132.5799995238
 40
0.5
100
AcDbArc
 50
356.0000062139
 51
89.9999995665
  0
ARC
  5
32A
100
AcDbEntity
  8
RUNDUNGEN
100
AcDbCircle
 62
7
  6
CONTINUOUS
 10
127.6184490721
 20
132.5799995779
 40
0.5
100
AcDbArc
 50
90.0
 51
184.0
  0
ARC
  5
32B
100
AcDbEntity
  8
RUNDUNGEN
100
AcDbCircle
 62
7
  6
CONTINUOUS
 10
148.8926217789
 20
130.8775807551
 40
2.6
100
AcDbArc
 50
183.9997818592
 51
232.2281790687
  0
ARC
  5
32C
100
AcDbEntity
  8
0
100
AcDbCircle
 62
7
  6
CONTINUOUS
 10
148.8926217789
 20
130.8775807551
 40
2.6
100
AcDbArc
 50
183.999999999
 51
186.1060642122
  0
ARC
  5
32D
100
AcDbEntity
  8
0
100
AcDbCircle
 62
7
  6
CONTINUOUS
 10
148.8926217789
 20
130.8775807551
 40
2.6
100
AcDbArc
 50
188.056039674
 51
190.1827595264
  0
ARC
  5
32E
100
AcDbEntity
  8
0
100
AcDbCircle
 62
7
  6
CONTINUOUS
 10
148.8926217789
 20
130.8775807551
 40
2.6
100
AcDbArc
 50
211.9192753668
 51
213.0490633952
  0
ARC
  5
32F
100
AcDbEntity
  8
RUNDUNGEN
100
AcDbCircle
 62
7
  6
CONTINUOUS
 10
152.7159076552
 20
130.8775807551
 40
2.6
100
AcDbArc
 50
307.7717725367
 51
356.0000000018
  0
ARC
  5
330
100
AcDbEntity
  8
0
100
AcDbCircle
 62
7
  6
CONTINUOUS
 10
152.7159076552
 20
130.8775807551
 40
2.6
100
AcDbArc
 50
349.8986741333
 51
356.0
  0
ARC
  5
331
100
AcDbEntity
  8
0
100
AcDbCircle
 62
7
  6
CONTINUOUS
 10
152.7159076552
 20
130.8775807551
 40
2.6
100
AcDbArc
 50
307.771764027
 51
328.080717056
  0
ARC
  5
332
100
AcDbEntity
  8
0
100
AcDbCircle
 62
7
  6
CONTINUOUS
 10
147.2512355424
 20
129.9799995779
 40
0.9
100
AcDbArc
 50
184.0
 51
252.0096660694
  0
ARC
  5
333
100
AcDbEntity
  8
0
100
AcDbCircle
 62
7
  6
CONTINUOUS
 10
154.3572938918
 20
129.9799995779
 40
0.9
100
AcDbArc
 50
287.9903352069
 51
356.0
  0
ARC
  5
334
100
AcDbEntity
  8
RUNDUNGEN
100
AcDbCircle
 62
7
  6
CONTINUOUS
 10
164.5305958231
 20
129.5799994236
 40
0.4999999486
100
AcDbArc
 50
270.0000003087
 51
359.0000176864
  0
ARC
  5
335
100
AcDbEntity
  8
RUNDUNGEN
100
AcDbCircle
 62
7
  6
CONTINUOUS
 10
164.5829610206
 20
132.5799995779
 40
0.5
100
AcDbArc
 50
359.0000121912
 51
90.0001058124
  0
ARC
  5
336
100
AcDbEntity
  8
RUNDUNGEN
100
AcDbCircle
 62
7
  6
CONTINUOUS
 10
154.940080362
 20
132.5799995779
 40
0.5
100
AcDbArc
 50
356.0
 51
90.0
  0
ARC
  5
337
100
AcDbEntity
  8
RUNDUNGEN
100
AcDbCircle
 62
7
  6
CONTINUOUS
 10
146.6684490721
 20
132.5799995779
 40
0.5
100
AcDbArc
 50
90.0
 51
184.0
  0
ARC
  5
338
100
AcDbEntity
  8
RUNDUNGEN
100
AcDbCircle
 62
7
  6
CONTINUOUS
 10
186.7876674107
 20
123.7199995779
 40
0.8
100
AcDbArc
 50
269.9995380245
 51
302.9212362624
  0
ARC
  5
339
100
AcDbEntity
  8
RUNDUNGEN
100
AcDbCircle
 62
7
  6
CONTINUOUS
 10
184.3876674107
 20
123.7199995779
 40
0.8
100
AcDbArc
 50
222.6281263054
 51
270.0003631313
  0
ARC
  5
33A
100
AcDbEntity
  8
0
100
AcDbCircle
 62
7
  6
CONTINUOUS
 10
185.8826674107
 20
127.9999995779
 40
3.5
100
AcDbArc
 50
54.3315836113
 51
112.2865778913
  0
ARC
  5
33B
100
AcDbEntity
  8
RUNDUNGEN
100
AcDbCircle
 62
7
  6
CONTINUOUS
 10
185.8826674107
 20
127.9999995779
 40
2.695
100
AcDbArc
 50
194.040964594
 51
180.0
  0
ARC
  5
33C
100
AcDbEntity
  8
0
100
AcDbCircle
 62
7
  6
CONTINUOUS
 10
185.8826674107
 20
127.9999995779
 40
2.695
100
AcDbArc
 50
180.0
 51
194.040964594
  0
ARC
  5
33D
100
AcDbEntity
  8
RUNDUNGEN
100
AcDbCircle
 62
7
  6
CONTINUOUS
 10
197.8402522624
 20
123.9199995779
 40
1.0
100
AcDbArc
 50
192.4996263805
 51
270.0003595108
  0
ARC
  5
33E
100
AcDbEntity
  8
RUNDUNGEN
100
AcDbCircle
 62
7
  6
CONTINUOUS
 10
193.6300284456
 20
126.0799995779
 40
3.0
100
AcDbArc
 50
90.0
 51
155.6371415486
  0
ARC
  5
33F
100
AcDbEntity
  8
RUNDUNGEN
100
AcDbCircle
 62
7
  6
CONTINUOUS
 10
194.8694434372
 20
128.0799995779
 40
1.0
100
AcDbArc
 50
12.499708365
 51
90.0002967835
  0
ARC
  5
340
100
AcDbEntity
  8
RUNDUNGEN
100
AcDbCircle
 62
7
  6
CONTINUOUS
 10
-8.593449108
 20
131.5271142526
 40
224.0
100
AcDbArc
 50
359.24895257
 51
359.7390644665
  0
ARC
  5
341
100
AcDbEntity
  8
RUNDUNGEN
100
AcDbCircle
 62
7
  6
CONTINUOUS
 10
182.3710943907
 20
130.51245362
 40
1.2
100
AcDbArc
 50
154.5197430012
 51
180.2613222232
  0
ARC
  5
342
100
AcDbEntity
  8
RUNDUNGEN
100
AcDbCircle
 62
7
  6
CONTINUOUS
 10
184.5376674107
 20
129.4799995779
 40
3.6
100
AcDbArc
 50
89.9998754126
 51
154.5202031036
  0
ARC
  5
343
100
AcDbEntity
  8
RUNDUNGEN
100
AcDbCircle
 62
7
  6
CONTINUOUS
 10
185.3876674107
 20
128.6459995779
 40
4.2
100
AcDbArc
 50
180.7509965596
 51
196.9444908724
  0
ARC
  5
344
100
AcDbEntity
  8
0
100
AcDbCircle
 62
7
  6
CONTINUOUS
 10
185.6930477059
 20
128.4626488701
 40
3.0
100
AcDbArc
 50
112.286577891
 51
157.4556233773
  0
ARC
  5
345
100
AcDbEntity
  8
RUNDUNGEN
100
AcDbCircle
 62
7
  6
CONTINUOUS
 10
181.7876674107
 20
131.4426934084
 40
10.0
100
AcDbArc
 50
302.9207746668
 51
335.6370676881
  0
ARC
  5
346
100
AcDbEntity
  8
RUNDUNGEN
100
AcDbCircle
 62
7
  6
CONTINUOUS
 10
191.892463562
 20
130.6278237453
 40
11.0
100
AcDbArc
 50
196.944476438
 51
222.6281571948
  0
ARC
  5
347
100
AcDbEntity
  8
0
100
AcDbCircle
 62
7
  6
CONTINUOUS
 10
193.7826222496
 20
131.0799995779
 40
2.0
100
AcDbArc
 50
229.9999819284
 51
232.1426901343
  0
ARC
  5
348
100
AcDbEntity
  8
0
100
AcDbCircle
 62
7
  6
CONTINUOUS
 10
193.7826222496
 20
131.0799995779
 40
2.0
100
AcDbArc
 50
267.8096836731
 51
270.0001134919
  0
ARC
  5
349
100
AcDbEntity
  8
RUNDUNGEN
100
AcDbCircle
 62
7
  6
CONTINUOUS
 10
193.7826222496
 20
131.0799995779
 40
2.0
100
AcDbArc
 50
229.9998340016
 51
270.0001735496
  0
ARC
  5
34A
100
AcDbEntity
  8
0
100
AcDbCircle
 62
7
  6
CONTINUOUS
 10
191.2876674107
 20
131.8999995779
 40
2.82
100
AcDbArc
 50
234.3315836111
 51
270.0
  0
ARC
  5
34B
100
AcDbEntity
  8
RUNDUNGEN
100
AcDbCircle
 62
7
  6
CONTINUOUS
 10
189.6614061204
 20
132.5799995779
 40
0.5
100
AcDbArc
 50
90.0
 51
230.0
  0
ARC
  5
34C
100
AcDbEntity
  8
RUNDUNGEN
100
AcDbCircle
 62
7
  6
CONTINUOUS
 10
198.735082559
 20
123.9199995779
 40
1.0
100
AcDbArc
 50
269.999640587
 51
347.5003735295
  0
ARC
  5
34D
100
AcDbEntity
  8
RUNDUNGEN
100
AcDbCircle
 62
7
  6
CONTINUOUS
 10
202.9453063759
 20
126.0799995779
 40
3.0
100
AcDbArc
 50
24.3628603125
 51
90.0
  0
ARC
  5
34E
100
AcDbEntity
  8
RUNDUNGEN
100
AcDbCircle
 62
7
  6
CONTINUOUS
 10
201.7058913843
 20
128.0799995779
 40
1.0
100
AcDbArc
 50
89.9997034174
 51
167.5002918798
  0
ARC
  5
34F
100
AcDbEntity
  8
RUNDUNGEN
100
AcDbCircle
 62
7
  6
CONTINUOUS
 10
209.7876674107
 20
123.7199995779
 40
0.8
100
AcDbArc
 50
237.0787637376
 51
270.0004619755
  0
ARC
  5
350
100
AcDbEntity
  8
RUNDUNGEN
100
AcDbCircle
 62
7
  6
CONTINUOUS
 10
212.1876674107
 20
123.7199995779
 40
0.8
100
AcDbArc
 50
269.9996369287
 51
317.3718736946
  0
ARC
  5
351
100
AcDbEntity
  8
RUNDUNGEN
100
AcDbCircle
 62
7
  6
CONTINUOUS
 10
210.6926674107
 20
127.9999995779
 40
3.5
100
AcDbArc
 50
67.7134515491
 51
125.6684167363
  0
CIRCLE
  5
352
100
AcDbEntity
  8
RUNDUNGEN
100
AcDbCircle
 62
7
  6
CONTINUOUS
 10
210.6926674107
 20
127.9999995779
 40
2.695
  0
ARC
  5
353
100
AcDbEntity
  8
RUNDUNGEN
100
AcDbCircle
 62
7
  6
CONTINUOUS
 10
211.1876674107
 20
128.6459995779
 40
4.2
100
AcDbArc
 50
343.0555091276
 51
359.2490034404
  0
ARC
  5
354
100
AcDbEntity
  8
RUNDUNGEN
100
AcDbCircle
 62
7
  6
CONTINUOUS
 10
210.8822871155
 20
128.4626488701
 40
3.0
100
AcDbArc
 50
22.5443774915
 51
67.7134564561
  0
ARC
  5
355
100
AcDbEntity
  8
RUNDUNGEN
100
AcDbCircle
 62
7
  6
CONTINUOUS
 10
212.0376674107
 20
129.4799995779
 40
3.6
100
AcDbArc
 50
25.4797968964
 51
90.0001245874
  0
ARC
  5
356
100
AcDbEntity
  8
RUNDUNGEN
100
AcDbCircle
 62
7
  6
CONTINUOUS
 10
204.6828712595
 20
130.6278237453
 40
11.0
100
AcDbArc
 50
317.3718428052
 51
343.0553469165
  0
ARC
  5
357
100
AcDbEntity
  8
RUNDUNGEN
100
AcDbCircle
 62
7
  6
CONTINUOUS
 10
205.2876674107
 20
131.8999995779
 40
2.82
100
AcDbArc
 50
270.0000004339
 51
305.6684163888
  0
ARC
  5
358
100
AcDbEntity
  8
RUNDUNGEN
100
AcDbCircle
 62
7
  6
CONTINUOUS
 10
214.2042404307
 20
130.51245362
 40
1.2
100
AcDbArc
 50
359.7386777768
 51
25.4802569988
  0
ARC
  5
359
100
AcDbEntity
  8
RUNDUNGEN
100
AcDbCircle
 62
7
  6
CONTINUOUS
 10
214.7876674107
 20
131.4426934084
 40
10.0
100
AcDbArc
 50
204.3629323119
 51
237.0792253332
  0
ARC
  5
35A
100
AcDbEntity
  8
RUNDUNGEN
100
AcDbCircle
 62
7
  6
CONTINUOUS
 10
405.1687839295
 20
131.5271142526
 40
224.0
100
AcDbArc
 50
180.2609356863
 51
180.75104743
  0
ENDSEC
  0
SECTION
  2
OBJECTS
  0
DICTIONARY
  5
C
100
AcDbDictionary
280
0
281
1
  3
ACAD_GROUP
350
D
  3
ACAD_MLINESTYLE
350
17
  3
ACAD_LAYOUT
350
1A
  3
ACAD_PLOTSETTINGS
350
19
  3
ACAD_PLOTSTYLENAME
350
E
  0
DICTIONARY
  5
D
102
{ACAD_REACTORS
330
C
102
}
100
AcDbDictionary
280
0
281
1
  0
ACDBDICTIONARYWDFLT
  5
E
102
{ACAD_REACTORS
330
C
102
}
100
AcDbDictionary
281
1
  3
Normal
350
F
100
AcDbDictionaryWithDefault
340
F
  0
DICTIONARY
  5
17
102
{ACAD_REACTORS
330
C
102
}
100
AcDbDictionary
280
0
281
1
  3
Standard
350
18
  0
DICTIONARY
  5
19
102
{ACAD_REACTORS
330
C
102
}
100
AcDbDictionary
281
1
  0
DICTIONARY
  5
1A
102
{ACAD_REACTORS
330
C
102
}
100
AcDbDictionary
281
1
  3
Model
350
35B
  3
Layout1
350
35C
  0
ACDBPLACEHOLDER
  5
F
102
{ACAD_REACTORS
330
E
102
}
  0
MLINESTYLE
  5
18
102
{ACAD_REACTORS
330
17
102
}
100
AcDbMlineStyle
  2
STANDARD
 70
0
  3

 62
256
 51
90.0
 52
90.0
 71
2
 49
0.5
 62
256
  6
BYLAYER
 49
-0.5
 62
256
  6
BYLAYER
  0
LAYOUT
  5
35B
102
{ACAD_REACTORS
330
1A
102
}
100
AcDbPlotSettings
  1

  2
none_device
  4
ISO_A4_(297.00_x_210.00_MM)
  6

 40
0.0
 41
0.0
 42
0.0
 43
0.0
 44
297.0
 45
210.0
 46
0.0
 47
0.0
 48
0.0
 49
0.0
140
0.0
141
0.0
142
1.0
143
1.0
 70
1024
 72
1
 73
0
 74
0
  7

 75
0
147
1.0
148
0.0
149
0.0
100
AcDbLayout
  1
Model
 70
0
 71
0
 10
0.0
 20
0.0
 11
297.0
 21
210.0
 12
0.0
 22
0.0
 32
0.0
 14
0.0
 24
0.0
 34
0.0
 15
0.0
 25
0.0
 35
0.0
146
0.0
 13
0.0
 23
0.0
 33
0.0
 16
1.0
 26
0.0
 36
0.0
 17
0.0
 27
1.0
 37
0.0
 76
0
330
216
345
0
346
0
  0
LAYOUT
  5
35C
102
{ACAD_REACTORS
330
1A
102
}
100
AcDbPlotSettings
  1

  2
none_device
  4
ISO_A4_(297.00_x_210.00_MM)
  6

 40
0.0
 41
0.0
 42
0.0
 43
0.0
 44
297.0
 45
210.0
 46
0.0
 47
0.0
 48
0.0
 49
0.0
140
0.0
141
0.0
142
1.0
143
1.0
 70
0
 72
1
 73
0
 74
0
  7

 75
0
147
1.0
148
0.0
149
0.0
100
AcDbLayout
  1
Layout1
 70
0
 71
1
 10
0.0
 20
0.0
 11
297.0
 21
210.0
 12
0.0
 22
0.0
 32
0.0
 14
0.0
 24
0.0
 34
0.0
 15
0.0
 25
0.0
 35
0.0
146
0.0
 13
0.0
 23
0.0
 33
0.0
 16
1.0
 26
0.0
 36
0.0
 17
0.0
 27
1.0
 37
0.0
 76
0
330
217
345
0
346
0
  0
ENDSEC
  0
EOF
