999
DXF file: s1s3-z16_spr_sq60mm.dxf
999
Pro/ENGINEER 2013050 by Parametric Technology Corporation
  0
SECTION
  2
HEADER
  9
$ACADVER
  1
AC1015
  9
$DWGCODEPAGE
  3
ANSI_1252
  9
$EXTMAX
 10
558.8
 20
431.8
 30
0.0
  9
$EXTMIN
 10
0.0
 20
-0.0
 30
0.0
  9
$LIMMIN
 10
0.0
 20
-0.0
  9
$LIMMAX
 10
558.8
 20
431.8
  9
$VIEWCTR
 10
279.4
 20
215.9
  9
$VIEWSIZE
 40
431.8
  9
$CLAYER
  8
0
  9
$LTSCALE
 40
30.734
  9
$CELTYPE
  6
BYLAYER
  9
$DIMSCALE
 40
1.0
  9
$DIMASZ
 40
3.5
  9
$DIMEXO
 40
0.0
  9
$DIMDLI
 40
21.2344
  9
$DIMEXE
 40
1.5
  9
$DIMCEN
 40
5.0292
  9
$DIMLFAC
 40
1.0
  9
$DIMBLK
  1
_FILLED
  9
$DIMTXT
 40
3.5
  9
$DIMTOL
 70
1
  9
$DIMLIM
 70
0
  9
$DIMTFAC
 40
1.0
  9
$DIMTP
 40
0.005
  9
$DIMTM
 40
0.005
  9
$DIMGAP
 40
0.625
  9
$DIMDSEP
 70
46
  9
$PDMODE
 70
3
  9
$PDSIZE
 40
0.3125
  9
$HANDSEED
  5
4A3
  9
$TILEMODE
 70
1
  9
$MEASUREMENT
 70
1
  9
$INSUNITS
 70
4
  0
ENDSEC
  0
SECTION
  2
CLASSES
  0
CLASS
  1
ACDBDICTIONARYWDFLT
  2
AcDbDictionaryWithDefault
  3
AutoCAD 2000
 90
0
280
0
281
0
  0
CLASS
  1
ACDBPLACEHOLDER
  2
AcDbPlaceHolder
  3
AutoCAD 2000
 90
0
280
0
281
0
  0
CLASS
  1
LAYOUT
  2
AcDbLayout
  3
AutoCAD 2000
 90
0
280
0
281
0
  0
ENDSEC
  0
SECTION
  2
TABLES
  0
TABLE
  2
VPORT
  5
8
100
AcDbSymbolTable
 70
2
  0
VPORT
  5
1F4
100
AcDbSymbolTableRecord
100
AcDbViewportTableRecord
  2
*ACTIVE
 70
0
 10
0.0
 20
0.0
 11
1.0
 21
1.0
 12
279.4
 22
215.9
 13
0.0
 23
0.0
 14
1.0
 24
1.0
 15
0.0
 25
0.0
 16
0.0
 26
0.0
 36
1.0
 17
0.0
 27
0.0
 37
0.0
 40
431.8
 41
1.2941176471
 42
50.0
 43
0.0
 44
0.0
 50
0.0
 51
0.0
 71
0
 72
100
 73
1
 74
1
 75
0
 76
0
 77
0
 78
0
  0
ENDTAB
  0
TABLE
  2
LTYPE
  5
5
100
AcDbSymbolTable
 70
6
  0
LTYPE
  5
14
100
AcDbSymbolTableRecord
100
AcDbLinetypeTableRecord
  2
BYBLOCK
 70
0
  3

 72
65
 73
0
 40
0.0
  0
LTYPE
  5
15
100
AcDbSymbolTableRecord
100
AcDbLinetypeTableRecord
  2
BYLAYER
 70
0
  3

 72
65
 73
0
 40
0.0
  0
LTYPE
  5
16
100
AcDbSymbolTableRecord
100
AcDbLinetypeTableRecord
  2
CONTINUOUS
 70
64
  3
Solid line
 72
65
 73
0
 40
0.0
  0
LTYPE
  5
1F5
100
AcDbSymbolTableRecord
100
AcDbLinetypeTableRecord
  2
CENTER
 70
64
  3
____ _ ____ _ ____ _ ____ _ ____ _ ____ _ ____
 72
65
 73
4
 40
0.6
 49
0.375
 74
0
 49
-0.075
 74
0
 49
0.075
 74
0
 49
-0.075
 74
0
  0
LTYPE
  5
1F6
100
AcDbSymbolTableRecord
100
AcDbLinetypeTableRecord
  2
HIDDEN
 70
64
  3
- - - - - - - - - - - - - - - - - - - -
 72
65
 73
2
 40
0.2
 49
0.1
 74
0
 49
-0.1
 74
0
  0
LTYPE
  5
1F7
100
AcDbSymbolTableRecord
100
AcDbLinetypeTableRecord
  2
PHANTOM
 70
64
  3
_____ _ _ _____ _ _ _____ _ _ _____
 72
65
 73
6
 40
0.8
 49
0.45
 74
0
 49
-0.05
 74
0
 49
0.1
 74
0
 49
-0.05
 74
0
 49
0.1
 74
0
 49
-0.05
 74
0
  0
LTYPE
  5
1F8
100
AcDbSymbolTableRecord
100
AcDbLinetypeTableRecord
  2
DOT
 70
64
  3
. . . . . . . . . . . . . . . . . . . .
 72
65
 73
2
 40
0.2
 49
0.1
 74
0
 49
-0.1
 74
0
  0
LTYPE
  5
1F9
100
AcDbSymbolTableRecord
100
AcDbLinetypeTableRecord
  2
DASHED
 70
64
  3
- - - - - - - - - - - - - - - - - - - -
 72
65
 73
2
 40
0.2
 49
0.1
 74
0
 49
-0.1
 74
0
  0
ENDTAB
  0
TABLE
  2
LAYER
  5
2
100
AcDbSymbolTable
 70
36
  0
LAYER
  5
10
100
AcDbSymbolTableRecord
100
AcDbLayerTableRecord
  2
0
 70
0
 62
7
  6
CONTINUOUS
370
-3
390
F
  0
LAYER
  5
1FA
100
AcDbSymbolTableRecord
100
AcDbLayerTableRecord
  2
DEFAULT_1
 70
0
 62
7
  6
CENTER
370
-3
390
F
  0
LAYER
  5
1FB
100
AcDbSymbolTableRecord
100
AcDbLayerTableRecord
  2
DEFAULT_2
 70
0
 62
8
  6
HIDDEN
370
-3
390
F
  0
LAYER
  5
1FC
100
AcDbSymbolTableRecord
100
AcDbLayerTableRecord
  2
DEFAULT_3
 70
0
 62
7
  6
PHANTOM
370
-3
390
F
  0
LAYER
  5
1FD
100
AcDbSymbolTableRecord
100
AcDbLayerTableRecord
  2
01___PRT_ALL_DTM_PLN
 70
0
 62
7
  6
CONTINUOUS
370
-3
390
F
  0
LAYER
  5
1FE
100
AcDbSymbolTableRecord
100
AcDbLayerTableRecord
  2
01___PRT_DEF_DTM_PLN
 70
0
 62
7
  6
CONTINUOUS
370
-3
390
F
  0
LAYER
  5
1FF
100
AcDbSymbolTableRecord
100
AcDbLayerTableRecord
  2
02___PRT_ALL_AXES
 70
0
 62
7
  6
CONTINUOUS
370
-3
390
F
  0
LAYER
  5
200
100
AcDbSymbolTableRecord
100
AcDbLayerTableRecord
  2
03___PRT_ALL_CURVES
 70
0
 62
7
  6
CONTINUOUS
370
-3
390
F
  0
LAYER
  5
201
100
AcDbSymbolTableRecord
100
AcDbLayerTableRecord
  2
04___PRT_ALL_DTM_PNT
 70
0
 62
7
  6
CONTINUOUS
370
-3
390
F
  0
LAYER
  5
202
100
AcDbSymbolTableRecord
100
AcDbLayerTableRecord
  2
05___PRT_ALL_DTM_CSYS
 70
0
 62
7
  6
CONTINUOUS
370
-3
390
F
  0
LAYER
  5
203
100
AcDbSymbolTableRecord
100
AcDbLayerTableRecord
  2
05___PRT_DEF_DTM_CSYS
 70
0
 62
7
  6
CONTINUOUS
370
-3
390
F
  0
LAYER
  5
204
100
AcDbSymbolTableRecord
100
AcDbLayerTableRecord
  2
06___PRT_ALL_SURFS
 70
0
 62
7
  6
CONTINUOUS
370
-3
390
F
  0
LAYER
  5
205
100
AcDbSymbolTableRecord
100
AcDbLayerTableRecord
  2
ALLE
 70
0
 62
7
  6
CONTINUOUS
370
-3
390
F
  0
LAYER
  5
206
100
AcDbSymbolTableRecord
100
AcDbLayerTableRecord
  2
BEMASSUNGEN-MARKETING
 70
0
 62
7
  6
CONTINUOUS
370
-3
390
F
  0
LAYER
  5
207
100
AcDbSymbolTableRecord
100
AcDbLayerTableRecord
  2
BEZUGS-KOORDINATENSYSTEME
 70
0
 62
7
  6
CONTINUOUS
370
-3
390
F
  0
LAYER
  5
208
100
AcDbSymbolTableRecord
100
AcDbLayerTableRecord
  2
BEZUGSACHSEN
 70
0
 62
7
  6
CONTINUOUS
370
-3
390
F
  0
LAYER
  5
209
100
AcDbSymbolTableRecord
100
AcDbLayerTableRecord
  2
BEZUGSEBENE
 70
0
 62
7
  6
CONTINUOUS
370
-3
390
F
  0
LAYER
  5
20A
100
AcDbSymbolTableRecord
100
AcDbLayerTableRecord
  2
BEZUGSEBENEN
 70
0
 62
7
  6
CONTINUOUS
370
-3
390
F
  0
LAYER
  5
20B
100
AcDbSymbolTableRecord
100
AcDbLayerTableRecord
  2
BEZUGSEBENEN-KES
 70
0
 62
7
  6
CONTINUOUS
370
-3
390
F
  0
LAYER
  5
20C
100
AcDbSymbolTableRecord
100
AcDbLayerTableRecord
  2
CD_ANMERKUNGEN
 70
0
 62
7
  6
CONTINUOUS
370
-3
390
F
  0
LAYER
  5
20D
100
AcDbSymbolTableRecord
100
AcDbLayerTableRecord
  2
CD_INAKTIV
 70
0
 62
7
  6
CONTINUOUS
370
-3
390
F
  0
LAYER
  5
20E
100
AcDbSymbolTableRecord
100
AcDbLayerTableRecord
  2
KURVEN
 70
0
 62
7
  6
CONTINUOUS
370
-3
390
F
  0
LAYER
  5
20F
100
AcDbSymbolTableRecord
100
AcDbLayerTableRecord
  2
PARAMETER-BEMAßUNGEN
 70
0
 62
7
  6
CONTINUOUS
370
-3
390
F
  0
LAYER
  5
210
100
AcDbSymbolTableRecord
100
AcDbLayerTableRecord
  2
RUNDUNGEN
 70
0
 62
7
  6
CONTINUOUS
370
-3
390
F
  0
LAYER
  5
211
100
AcDbSymbolTableRecord
100
AcDbLayerTableRecord
  2
XSEC_DATUMS
 70
0
 62
7
  6
CONTINUOUS
370
-3
390
F
  0
LAYER
  5
212
100
AcDbSymbolTableRecord
100
AcDbLayerTableRecord
  2
ZEICHNUNGSBEMASSUNGEN
 70
0
 62
7
  6
CONTINUOUS
370
-3
390
F
  0
LAYER
  5
213
100
AcDbSymbolTableRecord
100
AcDbLayerTableRecord
  2
ZEICHNUNGSNOTIZEN
 70
0
 62
7
  6
CONTINUOUS
370
-3
390
F
  0
ENDTAB
  0
TABLE
  2
STYLE
  5
3
100
AcDbSymbolTable
 70
1
  0
STYLE
  5
11
100
AcDbSymbolTableRecord
100
AcDbTextStyleTableRecord
  2
STANDARD
 70
0
 40
0.0
 41
0.7
 50
0.0
 71
0
 42
0.2
  3
txt
  4

  0
STYLE
  5
214
100
AcDbSymbolTableRecord
100
AcDbTextStyleTableRecord
  2
TEXTSTYLE_1
 70
0
 40
0.0
 41
0.8
 50
0.0
 71
0
 42
0.2
  3
gdt
  4

  0
ENDTAB
  0
TABLE
  2
VIEW
  5
6
100
AcDbSymbolTable
 70
0
  0
ENDTAB
  0
TABLE
  2
UCS
  5
7
100
AcDbSymbolTable
 70
0
  0
ENDTAB
  0
TABLE
  2
APPID
  5
9
100
AcDbSymbolTable
 70
1
  0
APPID
  5
215
100
AcDbSymbolTableRecord
100
AcDbRegAppTableRecord
  2
ACAD
 70
0
  0
ENDTAB
  0
TABLE
  2
BLOCK_RECORD
  5
1
100
AcDbSymbolTable
 70
0
  0
BLOCK_RECORD
  5
216
100
AcDbSymbolTableRecord
100
AcDbBlockTableRecord
  2
*Model_Space
  0
BLOCK_RECORD
  5
217
100
AcDbSymbolTableRecord
100
AcDbBlockTableRecord
  2
*Paper_Space
  0
ENDTAB
  0
TABLE
  2
DIMSTYLE
  5
A
100
AcDbSymbolTable
 70
1
100
AcDbDimStyleTable
 71
0
  0
DIMSTYLE
105
218
100
AcDbSymbolTableRecord
100
AcDbDimStyleTableRecord
  2
STANDARD
 70
0
  3

  4

 40
1.0
 41
3.5
 42
0.0
 43
0.38
 44
1.5
 45
0.0
 46
0.0
 47
0.005
 48
0.005
140
3.5
141
0.09
142
0.0
143
25.4
144
1.0
145
0.0
146
1.0
147
0.625
 71
1.0
 72
0.0
 73
0
 74
0
 75
0
 76
0
 77
1
 78
8
170
0
171
2
172
0
173
0
174
0
175
0
176
0
177
0
178
5
270
2
271
3
272
3
273
2
274
2
275
0
280
0
281
0
282
0
283
1
284
8
285
0
286
0
287
3
288
0
340
11
278
46
  0
ENDTAB
  0
ENDSEC
  0
SECTION
  2
BLOCKS
  0
BLOCK
  5
20
100
AcDbEntity
  8
0
100
AcDbBlockBegin
  2
*Model_Space
 70
0
 10
0.0
 20
0.0
 30
0.0
  3
*Model_Space
  1

  0
ENDBLK
  5
21
100
AcDbEntity
  8
0
100
AcDbBlockEnd
  0
BLOCK
  5
1C
100
AcDbEntity
  8
0
100
AcDbBlockBegin
  2
*Paper_Space
 70
0
 10
0.0
 20
0.0
 30
0.0
  3
*Paper_Space
  1

  0
ENDBLK
  5
1D
100
AcDbEntity
  8
0
100
AcDbBlockEnd
  0
ENDSEC
  0
SECTION
  2
ENTITIES
  0
HATCH
  5
219
100
AcDbEntity
  8
0
100
AcDbHatch
 62
2
  6
CONTINUOUS
 10
0.0
 20
0.0
 30
0.0
210
0.0
220
0.0
230
1.0
  2
A
 70
0
 71
0
 91
1
 92
1
 93
12
 72
1
 10
467.4318066356
 20
255.3411476568
 11
427.4318066356
 21
255.3411476568
 72
1
 10
427.4318066356
 20
255.3411476568
 11
427.4318066356
 21
262.1411476568
 72
1
 10
427.4318066356
 20
262.1411476568
 11
444.9318066356
 21
262.1411476568
 72
1
 10
444.9318066356
 20
262.1411476568
 11
444.9318066356
 21
344.32463496
 72
1
 10
444.9318066356
 20
344.32463496
 11
437.4318066356
 21
344.32463496
 72
1
 10
437.4318066356
 20
344.32463496
 11
437.4318066356
 21
349.32463496
 72
1
 10
437.4318066356
 20
349.32463496
 11
457.4318066356
 21
349.32463496
 72
1
 10
457.4318066356
 20
349.32463496
 11
457.4318066356
 21
344.32463496
 72
1
 10
457.4318066356
 20
344.32463496
 11
449.9318066356
 21
344.32463496
 72
1
 10
449.9318066356
 20
344.32463496
 11
449.9318066356
 21
262.1411476568
 72
1
 10
449.9318066356
 20
262.1411476568
 11
467.4318066356
 21
262.1411476568
 72
1
 10
467.4318066356
 20
262.1411476568
 11
467.4318066356
 21
255.3411476568
 97
0
 75
0
 76
0
 52
45.0
 41
7.3638909179
 77
0
 78
1
 53
45.0
 43
-1.9526464515
 44
1.9526464515
 45
-5.207057204
 46
5.207057204
 79
0
 98
1
 10
0.0
 20
0.0
  0
LINE
  5
21A
100
AcDbEntity
  8
0
100
AcDbLine
 62
7
  6
CONTINUOUS
 10
0.0
 20
-0.0
 11
0.0
 21
431.8
  0
LINE
  5
21B
100
AcDbEntity
  8
0
100
AcDbLine
 62
7
  6
CONTINUOUS
 10
0.0
 20
-0.0
 11
558.8
 21
-0.0
  0
LINE
  5
21C
100
AcDbEntity
  8
0
100
AcDbLine
 62
7
  6
CONTINUOUS
 10
0.0
 20
431.8
 11
558.8
 21
431.8
  0
LINE
  5
21D
100
AcDbEntity
  8
0
100
AcDbLine
 62
7
  6
CONTINUOUS
 10
558.8
 20
-0.0
 11
558.8
 21
431.8
  0
LINE
  5
21E
100
AcDbEntity
  8
RUNDUNGEN
100
AcDbLine
 62
7
  6
CONTINUOUS
 10
83.9236766854
 20
200.512763959
 11
84.6147706763
 21
191.7315822189
  0
LINE
  5
21F
100
AcDbEntity
  8
RUNDUNGEN
100
AcDbLine
 62
7
  6
CONTINUOUS
 10
76.322627983
 20
228.9847099433
 11
76.322627983
 21
218.8975853704
  0
LINE
  5
220
100
AcDbEntity
  8
0
100
AcDbLine
 62
7
  6
CONTINUOUS
 10
81.322627983
 20
221.0565271036
 11
81.322627983
 21
226.8257682101
  0
LINE
  5
221
100
AcDbEntity
  8
RUNDUNGEN
100
AcDbLine
 62
7
  6
CONTINUOUS
 10
84.6147706763
 20
256.1507130947
 11
83.9236766854
 21
247.3695313547
  0
LINE
  5
222
100
AcDbEntity
  8
RUNDUNGEN
100
AcDbLine
 62
7
  6
CONTINUOUS
 10
83.9236766854
 20
247.3695313547
 11
81.2017515101
 21
238.9923070532
  0
LINE
  5
223
100
AcDbEntity
  8
RUNDUNGEN
100
AcDbLine
 62
7
  6
CONTINUOUS
 10
87.796965379
 20
276.5829749073
 11
83.9367899248
 21
267.2636869725
  0
LINE
  5
224
100
AcDbEntity
  8
0
100
AcDbLine
 62
7
  6
CONTINUOUS
 10
89.3823788201
 20
267.3448718899
 11
91.5901718089
 21
272.6749556663
  0
LINE
  5
225
100
AcDbEntity
  8
RUNDUNGEN
100
AcDbLine
 62
7
  6
CONTINUOUS
 10
105.8538856237
 20
298.5078235715
 11
101.8549852619
 21
290.6595397111
  0
LINE
  5
226
100
AcDbEntity
  8
RUNDUNGEN
100
AcDbLine
 62
7
  6
CONTINUOUS
 10
101.8549852619
 20
290.6595397111
 11
96.1344293541
 21
283.9616293085
  0
LINE
  5
227
100
AcDbEntity
  8
RUNDUNGEN
100
AcDbLine
 62
7
  6
CONTINUOUS
 10
116.6129382594
 20
316.1669988718
 11
109.4802640712
 21
309.0343246836
  0
LINE
  5
228
100
AcDbEntity
  8
0
100
AcDbLine
 62
7
  6
CONTINUOUS
 10
114.5424003169
 20
307.0253931174
 11
118.6218698256
 21
311.1048626261
  0
LINE
  5
229
100
AcDbEntity
  8
RUNDUNGEN
100
AcDbLine
 62
7
  6
CONTINUOUS
 10
141.6856336345
 20
329.5128335889
 11
134.9877232319
 21
323.7922776811
  0
LINE
  5
22A
100
AcDbEntity
  8
RUNDUNGEN
100
AcDbLine
 62
7
  6
CONTINUOUS
 10
134.9877232319
 20
323.7922776811
 11
127.1394393715
 21
319.7933773193
  0
LINE
  5
22B
100
AcDbEntity
  8
RUNDUNGEN
100
AcDbLine
 62
7
  6
CONTINUOUS
 10
158.3835759705
 20
341.7104730182
 11
149.0642880357
 21
337.850297564
  0
LINE
  5
22C
100
AcDbEntity
  8
0
100
AcDbLine
 62
7
  6
CONTINUOUS
 10
152.9723072767
 20
334.0570911342
 11
158.3023910531
 21
336.2648841229
  0
LINE
  5
22D
100
AcDbEntity
  8
RUNDUNGEN
100
AcDbLine
 62
7
  6
CONTINUOUS
 10
186.6549558898
 20
344.4455114329
 11
178.2777315883
 21
341.7235862576
  0
LINE
  5
22E
100
AcDbEntity
  8
RUNDUNGEN
100
AcDbLine
 62
7
  6
CONTINUOUS
 10
225.134498984
 20
106.1587090561
 11
233.9156807241
 21
106.849803047
  0
LINE
  5
22F
100
AcDbEntity
  8
RUNDUNGEN
100
AcDbLine
 62
7
  6
CONTINUOUS
 10
196.6625529997
 20
98.5576603537
 11
206.7496775726
 21
98.5576603537
  0
LINE
  5
230
100
AcDbEntity
  8
0
100
AcDbLine
 62
7
  6
CONTINUOUS
 10
204.5907358394
 20
103.5576603537
 11
198.8214947329
 21
103.5576603537
  0
LINE
  5
231
100
AcDbEntity
  8
RUNDUNGEN
100
AcDbLine
 62
7
  6
CONTINUOUS
 10
169.4965498483
 20
106.849803047
 11
178.2777315883
 21
106.1587090561
  0
LINE
  5
232
100
AcDbEntity
  8
RUNDUNGEN
100
AcDbLine
 62
7
  6
CONTINUOUS
 10
178.2777315883
 20
106.1587090561
 11
186.6549558898
 21
103.4367838808
  0
LINE
  5
233
100
AcDbEntity
  8
RUNDUNGEN
100
AcDbLine
 62
7
  6
CONTINUOUS
 10
149.0642880357
 20
110.0319977497
 11
158.3835759705
 21
106.1718222955
  0
LINE
  5
234
100
AcDbEntity
  8
0
100
AcDbLine
 62
7
  6
CONTINUOUS
 10
158.3023910531
 20
111.6174111907
 11
152.9723072767
 21
113.8252041795
  0
LINE
  5
235
100
AcDbEntity
  8
RUNDUNGEN
100
AcDbLine
 62
7
  6
CONTINUOUS
 10
127.1394393715
 20
128.0889179943
 11
134.9877232319
 21
124.0900176326
  0
LINE
  5
236
100
AcDbEntity
  8
RUNDUNGEN
100
AcDbLine
 62
7
  6
CONTINUOUS
 10
134.9877232319
 20
124.0900176326
 11
141.6856336345
 21
118.3694617247
  0
LINE
  5
237
100
AcDbEntity
  8
RUNDUNGEN
100
AcDbLine
 62
7
  6
CONTINUOUS
 10
109.4802640712
 20
138.84797063
 11
116.6129382594
 21
131.7152964419
  0
LINE
  5
238
100
AcDbEntity
  8
0
100
AcDbLine
 62
7
  6
CONTINUOUS
 10
118.6218698256
 20
136.7774326875
 11
114.5424003169
 21
140.8569021963
  0
LINE
  5
239
100
AcDbEntity
  8
RUNDUNGEN
100
AcDbLine
 62
7
  6
CONTINUOUS
 10
96.1344293541
 20
163.9206660052
 11
101.8549852619
 21
157.2227556025
  0
LINE
  5
23A
100
AcDbEntity
  8
RUNDUNGEN
100
AcDbLine
 62
7
  6
CONTINUOUS
 10
101.8549852619
 20
157.2227556025
 11
105.8538856237
 21
149.3744717421
  0
LINE
  5
23B
100
AcDbEntity
  8
RUNDUNGEN
100
AcDbLine
 62
7
  6
CONTINUOUS
 10
83.9367899248
 20
180.6186083411
 11
87.796965379
 21
171.2993204064
  0
LINE
  5
23C
100
AcDbEntity
  8
0
100
AcDbLine
 62
7
  6
CONTINUOUS
 10
91.5901718089
 20
175.2073396474
 11
89.3823788201
 21
180.5374234238
  0
LINE
  5
23D
100
AcDbEntity
  8
RUNDUNGEN
100
AcDbLine
 62
7
  6
CONTINUOUS
 10
81.2017515101
 20
208.8899882605
 11
83.9236766854
 21
200.512763959
  0
LINE
  5
23E
100
AcDbEntity
  8
0
100
AcDbLine
 62
7
  6
CONTINUOUS
 10
89.4026810521
 20
194.1811572109
 11
88.8276030874
 21
201.4882155691
  0
LINE
  5
23F
100
AcDbEntity
  8
0
100
AcDbLine
 62
7
  6
CONTINUOUS
 10
89.1647859356
 20
261.0729108591
 11
89.1828288094
 21
259.0054023097
  0
LINE
  5
240
100
AcDbEntity
  8
0
100
AcDbLine
 62
7
  6
CONTINUOUS
 10
89.1828288094
 20
188.876893004
 11
89.1647859356
 21
186.8093844545
  0
LINE
  5
241
100
AcDbEntity
  8
0
100
AcDbLine
 62
7
  6
CONTINUOUS
 10
88.8276030874
 20
246.3940797446
 11
89.4026810521
 21
253.7011381028
  0
LINE
  5
242
100
AcDbEntity
  8
0
100
AcDbLine
 62
7
  6
CONTINUOUS
 10
86.5626156756
 20
239.4231652752
 11
88.8276030874
 21
246.3940797446
  0
LINE
  5
243
100
AcDbEntity
  8
0
100
AcDbLine
 62
7
  6
CONTINUOUS
 10
111.9411951296
 20
301.3141258843
 11
111.1666633033
 21
299.3970923433
  0
LINE
  5
244
100
AcDbEntity
  8
0
100
AcDbLine
 62
7
  6
CONTINUOUS
 10
84.3296446555
 20
234.6067979502
 11
83.5217739456
 21
232.703573827
  0
LINE
  5
245
100
AcDbEntity
  8
0
100
AcDbLine
 62
7
  6
CONTINUOUS
 10
106.0123333234
 20
287.881688546
 11
109.3399262576
 21
294.4124573967
  0
LINE
  5
246
100
AcDbEntity
  8
0
100
AcDbLine
 62
7
  6
CONTINUOUS
 10
101.2521043363
 20
282.3081765019
 11
106.0123333234
 21
287.881688546
  0
LINE
  5
247
100
AcDbEntity
  8
0
100
AcDbLine
 62
7
  6
CONTINUOUS
 10
148.3834996964
 20
329.7760063621
 11
146.9343086193
 21
328.3012988082
  0
LINE
  5
248
100
AcDbEntity
  8
0
100
AcDbLine
 62
7
  6
CONTINUOUS
 10
97.3459641348
 20
278.7129543237
 11
95.8712565809
 21
277.2637632466
  0
LINE
  5
249
100
AcDbEntity
  8
0
100
AcDbLine
 62
7
  6
CONTINUOUS
 10
137.765574397
 20
319.6349296196
 11
143.3390864411
 21
324.3951586067
  0
LINE
  5
24A
100
AcDbEntity
  8
0
100
AcDbLine
 62
7
  6
CONTINUOUS
 10
131.2348055463
 20
316.3073366854
 11
137.765574397
 21
319.6349296196
  0
LINE
  5
24B
100
AcDbEntity
  8
0
100
AcDbLine
 62
7
  6
CONTINUOUS
 10
192.943689116
 20
342.1254889974
 11
191.0404649928
 21
341.3176182875
  0
LINE
  5
24C
100
AcDbEntity
  8
0
100
AcDbLine
 62
7
  6
CONTINUOUS
 10
126.2501705997
 20
314.4805996397
 11
124.3331370587
 21
313.7060678134
  0
LINE
  5
24D
100
AcDbEntity
  8
0
100
AcDbLine
 62
7
  6
CONTINUOUS
 10
179.2531831984
 20
336.8196598556
 11
186.2240976678
 21
339.0846472674
  0
LINE
  5
24E
100
AcDbEntity
  8
0
100
AcDbLine
 62
7
  6
CONTINUOUS
 10
231.4661057321
 20
111.6377134228
 11
224.1590473739
 21
111.0626354581
  0
LINE
  5
24F
100
AcDbEntity
  8
0
100
AcDbLine
 62
7
  6
CONTINUOUS
 10
164.5743520839
 20
111.3998183063
 11
166.6418606333
 21
111.4178611801
  0
LINE
  5
250
100
AcDbEntity
  8
0
100
AcDbLine
 62
7
  6
CONTINUOUS
 10
236.770369939
 20
111.4178611801
 11
238.8378784885
 21
111.3998183063
  0
LINE
  5
251
100
AcDbEntity
  8
0
100
AcDbLine
 62
7
  6
CONTINUOUS
 10
179.2531831984
 20
111.0626354581
 11
171.9461248402
 21
111.6377134228
  0
LINE
  5
252
100
AcDbEntity
  8
0
100
AcDbLine
 62
7
  6
CONTINUOUS
 10
186.2240976678
 20
108.7976480462
 11
179.2531831984
 21
111.0626354581
  0
LINE
  5
253
100
AcDbEntity
  8
0
100
AcDbLine
 62
7
  6
CONTINUOUS
 10
124.3331370587
 20
134.1762275003
 11
126.2501705997
 21
133.4016956739
  0
LINE
  5
254
100
AcDbEntity
  8
0
100
AcDbLine
 62
7
  6
CONTINUOUS
 10
191.0404649928
 20
106.5646770262
 11
192.943689116
 21
105.7568063163
  0
LINE
  5
255
100
AcDbEntity
  8
0
100
AcDbLine
 62
7
  6
CONTINUOUS
 10
137.765574397
 20
128.2473656941
 11
131.2348055463
 21
131.5749586283
  0
LINE
  5
256
100
AcDbEntity
  8
0
100
AcDbLine
 62
7
  6
CONTINUOUS
 10
143.3390864411
 20
123.487136707
 11
137.765574397
 21
128.2473656941
  0
LINE
  5
257
100
AcDbEntity
  8
0
100
AcDbLine
 62
7
  6
CONTINUOUS
 10
95.8712565809
 20
170.6185320671
 11
97.3459641348
 21
169.16934099
  0
LINE
  5
258
100
AcDbEntity
  8
0
100
AcDbLine
 62
7
  6
CONTINUOUS
 10
146.9343086193
 20
119.5809965054
 11
148.3834996964
 21
118.1062889516
  0
LINE
  5
259
100
AcDbEntity
  8
0
100
AcDbLine
 62
7
  6
CONTINUOUS
 10
106.0123333234
 20
160.0006067676
 11
101.2521043363
 21
165.5741188118
  0
LINE
  5
25A
100
AcDbEntity
  8
0
100
AcDbLine
 62
7
  6
CONTINUOUS
 10
109.3399262576
 20
153.469837917
 11
106.0123333234
 21
160.0006067676
  0
LINE
  5
25B
100
AcDbEntity
  8
0
100
AcDbLine
 62
7
  6
CONTINUOUS
 10
83.5217739456
 20
215.1787214867
 11
84.3296446555
 21
213.2754973634
  0
LINE
  5
25C
100
AcDbEntity
  8
0
100
AcDbLine
 62
7
  6
CONTINUOUS
 10
111.1666633033
 20
148.4852029704
 11
111.9411951296
 21
146.5681694294
  0
LINE
  5
25D
100
AcDbEntity
  8
0
100
AcDbLine
 62
7
  6
CONTINUOUS
 10
88.8276030874
 20
201.4882155691
 11
86.5626156756
 21
208.4591300385
  0
LINE
  5
25E
100
AcDbEntity
  8
0
100
AcDbLine
 62
7
  6
CONTINUOUS
 10
163.5061152862
 20
257.1411476568
 11
163.5061152862
 21
190.7411476568
  0
LINE
  5
25F
100
AcDbEntity
  8
0
100
AcDbLine
 62
7
  6
CONTINUOUS
 10
168.5061152862
 20
185.7411476568
 11
234.9061152862
 21
185.7411476568
  0
LINE
  5
260
100
AcDbEntity
  8
RUNDUNGEN
100
AcDbLine
 62
7
  6
CONTINUOUS
 10
170.3061152862
 20
238.6269340945
 11
170.3061152862
 21
209.2553612192
  0
LINE
  5
261
100
AcDbEntity
  8
RUNDUNGEN
100
AcDbLine
 62
7
  6
CONTINUOUS
 10
171.5061152862
 20
252.3182720013
 11
171.5061152862
 21
240.6553612192
  0
LINE
  5
262
100
AcDbEntity
  8
RUNDUNGEN
100
AcDbLine
 62
7
  6
CONTINUOUS
 10
171.5061152862
 20
207.2269340945
 11
171.5061152862
 21
195.5640233124
  0
LINE
  5
263
100
AcDbEntity
  8
RUNDUNGEN
100
AcDbLine
 62
7
  6
CONTINUOUS
 10
186.3132220674
 20
255.048254438
 11
185.699008505
 21
254.4340408756
  0
LINE
  5
264
100
AcDbEntity
  8
RUNDUNGEN
100
AcDbLine
 62
7
  6
CONTINUOUS
 10
171.2132220674
 20
239.948254438
 11
170.599008505
 21
239.3340408756
  0
LINE
  5
265
100
AcDbEntity
  8
RUNDUNGEN
100
AcDbLine
 62
7
  6
CONTINUOUS
 10
187.0203288485
 20
192.5411476568
 11
216.3919017238
 21
192.5411476568
  0
LINE
  5
266
100
AcDbEntity
  8
RUNDUNGEN
100
AcDbLine
 62
7
  6
CONTINUOUS
 10
173.3289909417
 20
193.7411476568
 11
184.9919017238
 21
193.7411476568
  0
LINE
  5
267
100
AcDbEntity
  8
RUNDUNGEN
100
AcDbLine
 62
7
  6
CONTINUOUS
 10
218.4203288485
 20
193.7411476568
 11
230.0832396306
 21
193.7411476568
  0
LINE
  5
268
100
AcDbEntity
  8
RUNDUNGEN
100
AcDbLine
 62
7
  6
CONTINUOUS
 10
170.599008505
 20
208.548254438
 11
171.2132220674
 21
207.9340408756
  0
LINE
  5
269
100
AcDbEntity
  8
RUNDUNGEN
100
AcDbLine
 62
7
  6
CONTINUOUS
 10
185.699008505
 20
193.448254438
 11
186.3132220674
 21
192.8340408756
  0
LINE
  5
26A
100
AcDbEntity
  8
02___PRT_ALL_AXES
100
AcDbLine
 62
7
  6
CENTER
 10
201.7061152862
 20
223.9411476568
 11
201.7061152862
 21
85.1235952642
  0
LINE
  5
26B
100
AcDbEntity
  8
02___PRT_ALL_AXES
100
AcDbLine
 62
7
  6
CENTER
 10
201.7061152862
 20
223.9411476568
 11
201.7061152862
 21
362.7587000495
  0
LINE
  5
26C
100
AcDbEntity
  8
02___PRT_ALL_AXES
100
AcDbLine
 62
7
  6
CENTER
 10
201.7061152862
 20
223.9411476568
 11
62.8885628935
 21
223.9411476568
  0
LINE
  5
26D
100
AcDbEntity
  8
02___PRT_ALL_AXES
100
AcDbLine
 62
7
  6
CENTER
 10
201.7061152862
 20
223.9411476568
 11
340.5236676788
 21
223.9411476568
  0
LINE
  5
26E
100
AcDbEntity
  8
RUNDUNGEN
100
AcDbLine
 62
7
  6
CONTINUOUS
 10
231.9061152862
 20
195.5640233124
 11
231.9061152862
 21
207.2269340945
  0
LINE
  5
26F
100
AcDbEntity
  8
RUNDUNGEN
100
AcDbLine
 62
7
  6
CONTINUOUS
 10
231.9061152862
 20
240.6553612192
 11
231.9061152862
 21
252.3182720013
  0
LINE
  5
270
100
AcDbEntity
  8
RUNDUNGEN
100
AcDbLine
 62
7
  6
CONTINUOUS
 10
233.1061152862
 20
209.2553612192
 11
233.1061152862
 21
238.6269340945
  0
LINE
  5
271
100
AcDbEntity
  8
RUNDUNGEN
100
AcDbLine
 62
7
  6
CONTINUOUS
 10
217.099008505
 20
192.8340408756
 11
217.7132220674
 21
193.448254438
  0
LINE
  5
272
100
AcDbEntity
  8
RUNDUNGEN
100
AcDbLine
 62
7
  6
CONTINUOUS
 10
232.199008505
 20
207.9340408756
 11
232.8132220674
 21
208.548254438
  0
LINE
  5
273
100
AcDbEntity
  8
RUNDUNGEN
100
AcDbLine
 62
7
  6
CONTINUOUS
 10
230.0832396306
 20
254.1411476568
 11
218.4203288485
 21
254.1411476568
  0
LINE
  5
274
100
AcDbEntity
  8
RUNDUNGEN
100
AcDbLine
 62
7
  6
CONTINUOUS
 10
184.9919017238
 20
254.1411476568
 11
173.3289909417
 21
254.1411476568
  0
LINE
  5
275
100
AcDbEntity
  8
RUNDUNGEN
100
AcDbLine
 62
7
  6
CONTINUOUS
 10
216.3919017238
 20
255.3411476568
 11
187.0203288485
 21
255.3411476568
  0
LINE
  5
276
100
AcDbEntity
  8
RUNDUNGEN
100
AcDbLine
 62
7
  6
CONTINUOUS
 10
232.8132220674
 20
239.3340408756
 11
232.199008505
 21
239.948254438
  0
LINE
  5
277
100
AcDbEntity
  8
RUNDUNGEN
100
AcDbLine
 62
7
  6
CONTINUOUS
 10
217.7132220674
 20
254.4340408756
 11
217.099008505
 21
255.048254438
  0
LINE
  5
278
100
AcDbEntity
  8
0
100
AcDbLine
 62
7
  6
CONTINUOUS
 10
239.9061152862
 20
190.7411476568
 11
239.9061152862
 21
257.1411476568
  0
LINE
  5
279
100
AcDbEntity
  8
0
100
AcDbLine
 62
7
  6
CONTINUOUS
 10
234.9061152862
 20
262.1411476568
 11
168.5061152862
 21
262.1411476568
  0
LINE
  5
27A
100
AcDbEntity
  8
0
100
AcDbLine
 62
7
  6
CONTINUOUS
 10
314.0095495202
 20
253.7011381028
 11
314.5846274849
 21
246.3940797446
  0
LINE
  5
27B
100
AcDbEntity
  8
RUNDUNGEN
100
AcDbLine
 62
7
  6
CONTINUOUS
 10
319.4885538869
 20
247.3695313547
 11
318.797459896
 21
256.1507130947
  0
LINE
  5
27C
100
AcDbEntity
  8
0
100
AcDbLine
 62
7
  6
CONTINUOUS
 10
314.2474446367
 20
186.8093844545
 11
314.2294017629
 21
188.876893004
  0
LINE
  5
27D
100
AcDbEntity
  8
0
100
AcDbLine
 62
7
  6
CONTINUOUS
 10
322.0896025893
 20
226.8257682101
 11
322.0896025893
 21
221.0565271036
  0
LINE
  5
27E
100
AcDbEntity
  8
0
100
AcDbLine
 62
7
  6
CONTINUOUS
 10
314.2294017629
 20
259.0054023097
 11
314.2474446367
 21
261.0729108591
  0
LINE
  5
27F
100
AcDbEntity
  8
0
100
AcDbLine
 62
7
  6
CONTINUOUS
 10
314.5846274849
 20
201.4882155691
 11
314.0095495202
 21
194.1811572109
  0
LINE
  5
280
100
AcDbEntity
  8
RUNDUNGEN
100
AcDbLine
 62
7
  6
CONTINUOUS
 10
318.797459896
 20
191.7315822189
 11
319.4885538869
 21
200.512763959
  0
LINE
  5
281
100
AcDbEntity
  8
0
100
AcDbLine
 62
7
  6
CONTINUOUS
 10
316.8496148968
 20
208.4591300385
 11
314.5846274849
 21
201.4882155691
  0
LINE
  5
282
100
AcDbEntity
  8
RUNDUNGEN
100
AcDbLine
 62
7
  6
CONTINUOUS
 10
319.4885538869
 20
200.512763959
 11
322.2104790622
 21
208.8899882605
  0
LINE
  5
283
100
AcDbEntity
  8
0
100
AcDbLine
 62
7
  6
CONTINUOUS
 10
291.4710354427
 20
146.5681694294
 11
292.2455672691
 21
148.4852029704
  0
LINE
  5
284
100
AcDbEntity
  8
0
100
AcDbLine
 62
7
  6
CONTINUOUS
 10
314.0298517523
 20
180.5374234238
 11
311.8220587635
 21
175.2073396474
  0
LINE
  5
285
100
AcDbEntity
  8
0
100
AcDbLine
 62
7
  6
CONTINUOUS
 10
319.0825859168
 20
213.2754973634
 11
319.8904566268
 21
215.1787214867
  0
LINE
  5
286
100
AcDbEntity
  8
0
100
AcDbLine
 62
7
  6
CONTINUOUS
 10
297.3998972489
 20
160.0006067676
 11
294.0723043147
 21
153.469837917
  0
LINE
  5
287
100
AcDbEntity
  8
RUNDUNGEN
100
AcDbLine
 62
7
  6
CONTINUOUS
 10
297.5583449487
 20
149.3744717421
 11
301.5572453104
 21
157.2227556025
  0
LINE
  5
288
100
AcDbEntity
  8
0
100
AcDbLine
 62
7
  6
CONTINUOUS
 10
302.160126236
 20
165.5741188118
 11
297.3998972489
 21
160.0006067676
  0
LINE
  5
289
100
AcDbEntity
  8
RUNDUNGEN
100
AcDbLine
 62
7
  6
CONTINUOUS
 10
301.5572453104
 20
157.2227556025
 11
307.2778012183
 21
163.9206660052
  0
LINE
  5
28A
100
AcDbEntity
  8
0
100
AcDbLine
 62
7
  6
CONTINUOUS
 10
255.0287308759
 20
118.1062889516
 11
256.477921953
 21
119.5809965054
  0
LINE
  5
28B
100
AcDbEntity
  8
0
100
AcDbLine
 62
7
  6
CONTINUOUS
 10
288.8698302555
 20
140.8569021963
 11
284.7903607468
 21
136.7774326875
  0
LINE
  5
28C
100
AcDbEntity
  8
0
100
AcDbLine
 62
7
  6
CONTINUOUS
 10
306.0662664376
 20
169.16934099
 11
307.5409739914
 21
170.6185320671
  0
LINE
  5
28D
100
AcDbEntity
  8
0
100
AcDbLine
 62
7
  6
CONTINUOUS
 10
265.6466561754
 20
128.2473656941
 11
260.0731441312
 21
123.487136707
  0
LINE
  5
28E
100
AcDbEntity
  8
RUNDUNGEN
100
AcDbLine
 62
7
  6
CONTINUOUS
 10
261.7265969378
 20
118.3694617247
 11
268.4245073405
 21
124.0900176326
  0
LINE
  5
28F
100
AcDbEntity
  8
0
100
AcDbLine
 62
7
  6
CONTINUOUS
 10
272.177425026
 20
131.5749586283
 11
265.6466561754
 21
128.2473656941
  0
LINE
  5
290
100
AcDbEntity
  8
RUNDUNGEN
100
AcDbLine
 62
7
  6
CONTINUOUS
 10
268.4245073405
 20
124.0900176326
 11
276.2727912009
 21
128.0889179943
  0
LINE
  5
291
100
AcDbEntity
  8
0
100
AcDbLine
 62
7
  6
CONTINUOUS
 10
210.4685414563
 20
105.7568063163
 11
212.3717655796
 21
106.5646770262
  0
LINE
  5
292
100
AcDbEntity
  8
0
100
AcDbLine
 62
7
  6
CONTINUOUS
 10
250.4399232956
 20
113.8252041795
 11
245.1098395192
 21
111.6174111907
  0
LINE
  5
293
100
AcDbEntity
  8
0
100
AcDbLine
 62
7
  6
CONTINUOUS
 10
277.1620599726
 20
133.4016956739
 11
279.0790935136
 21
134.1762275003
  0
LINE
  5
294
100
AcDbEntity
  8
0
100
AcDbLine
 62
7
  6
CONTINUOUS
 10
224.1590473739
 20
111.0626354581
 11
217.1881329045
 21
108.7976480462
  0
LINE
  5
295
100
AcDbEntity
  8
RUNDUNGEN
100
AcDbLine
 62
7
  6
CONTINUOUS
 10
216.7572746825
 20
103.4367838808
 11
225.134498984
 21
106.1587090561
  0
LINE
  5
296
100
AcDbEntity
  8
0
100
AcDbLine
 62
7
  6
CONTINUOUS
 10
171.9461248402
 20
336.2445818909
 11
179.2531831984
 21
336.8196598556
  0
LINE
  5
297
100
AcDbEntity
  8
RUNDUNGEN
100
AcDbLine
 62
7
  6
CONTINUOUS
 10
178.2777315883
 20
341.7235862576
 11
169.4965498483
 21
341.0324922667
  0
LINE
  5
298
100
AcDbEntity
  8
0
100
AcDbLine
 62
7
  6
CONTINUOUS
 10
238.8378784885
 20
336.4824770074
 11
236.770369939
 21
336.4644341336
  0
LINE
  5
299
100
AcDbEntity
  8
0
100
AcDbLine
 62
7
  6
CONTINUOUS
 10
198.8214947329
 20
344.32463496
 11
204.5907358394
 21
344.32463496
  0
LINE
  5
29A
100
AcDbEntity
  8
0
100
AcDbLine
 62
7
  6
CONTINUOUS
 10
166.6418606333
 20
336.4644341336
 11
164.5743520839
 21
336.4824770074
  0
LINE
  5
29B
100
AcDbEntity
  8
0
100
AcDbLine
 62
7
  6
CONTINUOUS
 10
224.1590473739
 20
336.8196598556
 11
231.4661057321
 21
336.2445818909
  0
LINE
  5
29C
100
AcDbEntity
  8
RUNDUNGEN
100
AcDbLine
 62
7
  6
CONTINUOUS
 10
233.9156807241
 20
341.0324922667
 11
225.134498984
 21
341.7235862576
  0
LINE
  5
29D
100
AcDbEntity
  8
0
100
AcDbLine
 62
7
  6
CONTINUOUS
 10
217.1881329045
 20
339.0846472674
 11
224.1590473739
 21
336.8196598556
  0
LINE
  5
29E
100
AcDbEntity
  8
RUNDUNGEN
100
AcDbLine
 62
7
  6
CONTINUOUS
 10
225.134498984
 20
341.7235862576
 11
216.7572746825
 21
344.4455114329
  0
LINE
  5
29F
100
AcDbEntity
  8
0
100
AcDbLine
 62
7
  6
CONTINUOUS
 10
279.0790935136
 20
313.7060678134
 11
277.1620599726
 21
314.4805996397
  0
LINE
  5
2A0
100
AcDbEntity
  8
0
100
AcDbLine
 62
7
  6
CONTINUOUS
 10
245.1098395192
 20
336.2648841229
 11
250.4399232956
 21
334.0570911342
  0
LINE
  5
2A1
100
AcDbEntity
  8
0
100
AcDbLine
 62
7
  6
CONTINUOUS
 10
212.3717655796
 20
341.3176182875
 11
210.4685414563
 21
342.1254889974
  0
LINE
  5
2A2
100
AcDbEntity
  8
0
100
AcDbLine
 62
7
  6
CONTINUOUS
 10
265.6466561754
 20
319.6349296196
 11
272.177425026
 21
316.3073366854
  0
LINE
  5
2A3
100
AcDbEntity
  8
RUNDUNGEN
100
AcDbLine
 62
7
  6
CONTINUOUS
 10
276.2727912009
 20
319.7933773193
 11
268.4245073405
 21
323.7922776811
  0
LINE
  5
2A4
100
AcDbEntity
  8
0
100
AcDbLine
 62
7
  6
CONTINUOUS
 10
260.0731441312
 20
324.3951586067
 11
265.6466561754
 21
319.6349296196
  0
LINE
  5
2A5
100
AcDbEntity
  8
RUNDUNGEN
100
AcDbLine
 62
7
  6
CONTINUOUS
 10
268.4245073405
 20
323.7922776811
 11
261.7265969378
 21
329.5128335889
  0
LINE
  5
2A6
100
AcDbEntity
  8
0
100
AcDbLine
 62
7
  6
CONTINUOUS
 10
307.5409739914
 20
277.2637632466
 11
306.0662664376
 21
278.7129543237
  0
LINE
  5
2A7
100
AcDbEntity
  8
0
100
AcDbLine
 62
7
  6
CONTINUOUS
 10
284.7903607468
 20
311.1048626261
 11
288.8698302555
 21
307.0253931174
  0
LINE
  5
2A8
100
AcDbEntity
  8
0
100
AcDbLine
 62
7
  6
CONTINUOUS
 10
256.477921953
 20
328.3012988082
 11
255.0287308759
 21
329.7760063621
  0
LINE
  5
2A9
100
AcDbEntity
  8
0
100
AcDbLine
 62
7
  6
CONTINUOUS
 10
297.3998972489
 20
287.881688546
 11
302.160126236
 21
282.3081765019
  0
LINE
  5
2AA
100
AcDbEntity
  8
RUNDUNGEN
100
AcDbLine
 62
7
  6
CONTINUOUS
 10
307.2778012183
 20
283.9616293085
 11
301.5572453104
 21
290.6595397111
  0
LINE
  5
2AB
100
AcDbEntity
  8
0
100
AcDbLine
 62
7
  6
CONTINUOUS
 10
294.0723043147
 20
294.4124573967
 11
297.3998972489
 21
287.881688546
  0
LINE
  5
2AC
100
AcDbEntity
  8
RUNDUNGEN
100
AcDbLine
 62
7
  6
CONTINUOUS
 10
301.5572453104
 20
290.6595397111
 11
297.5583449487
 21
298.5078235715
  0
LINE
  5
2AD
100
AcDbEntity
  8
0
100
AcDbLine
 62
7
  6
CONTINUOUS
 10
319.8904566268
 20
232.703573827
 11
319.0825859168
 21
234.6067979502
  0
LINE
  5
2AE
100
AcDbEntity
  8
0
100
AcDbLine
 62
7
  6
CONTINUOUS
 10
311.8220587635
 20
272.6749556663
 11
314.0298517523
 21
267.3448718899
  0
LINE
  5
2AF
100
AcDbEntity
  8
0
100
AcDbLine
 62
7
  6
CONTINUOUS
 10
292.2455672691
 20
299.3970923433
 11
291.4710354427
 21
301.3141258843
  0
LINE
  5
2B0
100
AcDbEntity
  8
0
100
AcDbLine
 62
7
  6
CONTINUOUS
 10
314.5846274849
 20
246.3940797446
 11
316.8496148968
 21
239.4231652752
  0
LINE
  5
2B1
100
AcDbEntity
  8
RUNDUNGEN
100
AcDbLine
 62
7
  6
CONTINUOUS
 10
322.2104790622
 20
238.9923070532
 11
319.4885538869
 21
247.3695313547
  0
LINE
  5
2B2
100
AcDbEntity
  8
RUNDUNGEN
100
AcDbLine
 62
7
  6
CONTINUOUS
 10
327.0896025893
 20
218.8975853704
 11
327.0896025893
 21
228.9847099433
  0
LINE
  5
2B3
100
AcDbEntity
  8
RUNDUNGEN
100
AcDbLine
 62
7
  6
CONTINUOUS
 10
315.6152651933
 20
171.2993204064
 11
319.4754406475
 21
180.6186083411
  0
LINE
  5
2B4
100
AcDbEntity
  8
RUNDUNGEN
100
AcDbLine
 62
7
  6
CONTINUOUS
 10
286.799292313
 20
131.7152964419
 11
293.9319665011
 21
138.84797063
  0
LINE
  5
2B5
100
AcDbEntity
  8
RUNDUNGEN
100
AcDbLine
 62
7
  6
CONTINUOUS
 10
245.0286546019
 20
106.1718222955
 11
254.3479425366
 21
110.0319977497
  0
LINE
  5
2B6
100
AcDbEntity
  8
RUNDUNGEN
100
AcDbLine
 62
7
  6
CONTINUOUS
 10
206.7496775726
 20
349.32463496
 11
196.6625529997
 21
349.32463496
  0
LINE
  5
2B7
100
AcDbEntity
  8
RUNDUNGEN
100
AcDbLine
 62
7
  6
CONTINUOUS
 10
254.3479425366
 20
337.850297564
 11
245.0286546019
 21
341.7104730182
  0
LINE
  5
2B8
100
AcDbEntity
  8
RUNDUNGEN
100
AcDbLine
 62
7
  6
CONTINUOUS
 10
293.9319665011
 20
309.0343246836
 11
286.799292313
 21
316.1669988718
  0
LINE
  5
2B9
100
AcDbEntity
  8
RUNDUNGEN
100
AcDbLine
 62
7
  6
CONTINUOUS
 10
319.4754406475
 20
267.2636869725
 11
315.6152651933
 21
276.5829749073
  0
LINE
  5
2BA
100
AcDbEntity
  8
RUNDUNGEN
100
AcDbLine
 62
7
  6
CONTINUOUS
 10
457.4318066356
 20
98.5576603537
 11
437.4318066356
 21
98.5576603537
  0
LINE
  5
2BB
100
AcDbEntity
  8
RUNDUNGEN
100
AcDbLine
 62
9
  6
CONTINUOUS
 10
457.4318066356
 20
100.8291571339
 11
437.4318066356
 21
100.8291571339
  0
LINE
  5
2BC
100
AcDbEntity
  8
0
100
AcDbLine
 62
7
  6
CONTINUOUS
 10
446.6818066356
 20
103.0577550194
 11
448.1818066356
 21
103.0577550194
  0
LINE
  5
2BD
100
AcDbEntity
  8
RUNDUNGEN
100
AcDbLine
 62
7
  6
CONTINUOUS
 10
457.4318066356
 20
103.3388969134
 11
437.4318066356
 21
103.3388969134
  0
LINE
  5
2BE
100
AcDbEntity
  8
RUNDUNGEN
100
AcDbLine
 62
9
  6
CONTINUOUS
 10
457.4318066356
 20
103.4367838808
 11
437.4318066356
 21
103.4367838808
  0
LINE
  5
2BF
100
AcDbEntity
  8
RUNDUNGEN
100
AcDbLine
 62
7
  6
CONTINUOUS
 10
457.4318066356
 20
105.9815211267
 11
437.4318066356
 21
105.9815211267
  0
LINE
  5
2C0
100
AcDbEntity
  8
RUNDUNGEN
100
AcDbLine
 62
9
  6
CONTINUOUS
 10
457.4318066356
 20
106.1718222955
 11
437.4318066356
 21
106.1718222955
  0
LINE
  5
2C1
100
AcDbEntity
  8
RUNDUNGEN
100
AcDbLine
 62
9
  6
CONTINUOUS
 10
457.4318066356
 20
110.0319977497
 11
437.4318066356
 21
110.0319977497
  0
LINE
  5
2C2
100
AcDbEntity
  8
RUNDUNGEN
100
AcDbLine
 62
9
  6
CONTINUOUS
 10
457.4318066356
 20
113.0832910673
 11
437.4318066356
 21
113.0832910673
  0
LINE
  5
2C3
100
AcDbEntity
  8
0
100
AcDbLine
 62
7
  6
CONTINUOUS
 10
446.6818066356
 20
115.2792632742
 11
448.1818066356
 21
115.2792632742
  0
LINE
  5
2C4
100
AcDbEntity
  8
RUNDUNGEN
100
AcDbLine
 62
7
  6
CONTINUOUS
 10
457.4318066356
 20
117.8902736559
 11
437.4318066356
 21
117.8902736559
  0
LINE
  5
2C5
100
AcDbEntity
  8
RUNDUNGEN
100
AcDbLine
 62
9
  6
CONTINUOUS
 10
457.4318066356
 20
118.3694617247
 11
437.4318066356
 21
118.3694617247
  0
LINE
  5
2C6
100
AcDbEntity
  8
0
100
AcDbLine
 62
7
  6
CONTINUOUS
 10
437.4318066356
 20
124.0900176326
 11
457.4318066356
 21
124.0900176326
  0
LINE
  5
2C7
100
AcDbEntity
  8
RUNDUNGEN
100
AcDbLine
 62
9
  6
CONTINUOUS
 10
457.4318066356
 20
128.0889179943
 11
437.4318066356
 21
128.0889179943
  0
LINE
  5
2C8
100
AcDbEntity
  8
0
100
AcDbLine
 62
7
  6
CONTINUOUS
 10
448.1818066356
 20
129.2545773333
 11
446.6818066356
 21
129.2545773333
  0
LINE
  5
2C9
100
AcDbEntity
  8
0
100
AcDbLine
 62
9
  6
CONTINUOUS
 10
457.4318066356
 20
130.1750869837
 11
448.2990245741
 21
130.1750869837
  0
LINE
  5
2CA
100
AcDbEntity
  8
0
100
AcDbLine
 62
9
  6
CONTINUOUS
 10
446.564588697
 20
130.1750869837
 11
437.4318066356
 21
130.1750869837
  0
LINE
  5
2CB
100
AcDbEntity
  8
RUNDUNGEN
100
AcDbLine
 62
7
  6
CONTINUOUS
 10
457.4318066356
 20
130.9830633949
 11
437.4318066356
 21
130.9830633949
  0
LINE
  5
2CC
100
AcDbEntity
  8
RUNDUNGEN
100
AcDbLine
 62
9
  6
CONTINUOUS
 10
457.4318066356
 20
131.7152964419
 11
437.4318066356
 21
131.7152964419
  0
LINE
  5
2CD
100
AcDbEntity
  8
RUNDUNGEN
100
AcDbLine
 62
9
  6
CONTINUOUS
 10
457.4318066356
 20
138.84797063
 11
437.4318066356
 21
138.84797063
  0
LINE
  5
2CE
100
AcDbEntity
  8
RUNDUNGEN
100
AcDbLine
 62
9
  6
CONTINUOUS
 10
457.4318066356
 20
142.2145287375
 11
437.4318066356
 21
142.2145287375
  0
LINE
  5
2CF
100
AcDbEntity
  8
0
100
AcDbLine
 62
7
  6
CONTINUOUS
 10
446.6818066356
 20
144.0435584037
 11
448.1818066356
 21
144.0435584037
  0
LINE
  5
2D0
100
AcDbEntity
  8
0
100
AcDbLine
 62
7
  6
CONTINUOUS
 10
437.4318066356
 20
146.5681694294
 11
446.2224572693
 21
146.5681694294
  0
LINE
  5
2D1
100
AcDbEntity
  8
0
100
AcDbLine
 62
7
  6
CONTINUOUS
 10
448.6411560019
 20
146.5681694294
 11
457.4318066356
 21
146.5681694294
  0
LINE
  5
2D2
100
AcDbEntity
  8
RUNDUNGEN
100
AcDbLine
 62
7
  6
CONTINUOUS
 10
457.4318066356
 20
148.2824527416
 11
448.2551837549
 21
148.2824527416
  0
LINE
  5
2D3
100
AcDbEntity
  8
RUNDUNGEN
100
AcDbLine
 62
7
  6
CONTINUOUS
 10
446.6084295163
 20
148.2824527416
 11
437.4318066356
 21
148.2824527416
  0
LINE
  5
2D4
100
AcDbEntity
  8
0
100
AcDbLine
 62
7
  6
CONTINUOUS
 10
448.1818066356
 20
148.3797945734
 11
446.6818066356
 21
148.3797945734
  0
LINE
  5
2D5
100
AcDbEntity
  8
RUNDUNGEN
100
AcDbLine
 62
9
  6
CONTINUOUS
 10
457.4318066356
 20
149.3744717421
 11
437.4318066356
 21
149.3744717421
  0
LINE
  5
2D6
100
AcDbEntity
  8
0
100
AcDbLine
 62
7
  6
CONTINUOUS
 10
437.4318066356
 20
157.2227556025
 11
457.4318066356
 21
157.2227556025
  0
LINE
  5
2D7
100
AcDbEntity
  8
RUNDUNGEN
100
AcDbLine
 62
9
  6
CONTINUOUS
 10
457.4318066356
 20
163.9206660052
 11
437.4318066356
 21
163.9206660052
  0
LINE
  5
2D8
100
AcDbEntity
  8
0
100
AcDbLine
 62
7
  6
CONTINUOUS
 10
448.1818066356
 20
165.3782412833
 11
446.6818066356
 21
165.3782412833
  0
LINE
  5
2D9
100
AcDbEntity
  8
0
100
AcDbLine
 62
9
  6
CONTINUOUS
 10
457.4318066356
 20
166.2570300501
 11
448.2990245741
 21
166.2570300501
  0
LINE
  5
2DA
100
AcDbEntity
  8
0
100
AcDbLine
 62
9
  6
CONTINUOUS
 10
446.564588697
 20
166.2570300501
 11
437.4318066356
 21
166.2570300501
  0
LINE
  5
2DB
100
AcDbEntity
  8
0
100
AcDbLine
 62
7
  6
CONTINUOUS
 10
437.4318066356
 20
169.16934099
 11
446.1092452272
 21
169.16934099
  0
LINE
  5
2DC
100
AcDbEntity
  8
0
100
AcDbLine
 62
7
  6
CONTINUOUS
 10
448.754368044
 20
169.16934099
 11
457.4318066356
 21
169.16934099
  0
LINE
  5
2DD
100
AcDbEntity
  8
RUNDUNGEN
100
AcDbLine
 62
7
  6
CONTINUOUS
 10
457.4318066356
 20
169.7560289873
 11
437.4318066356
 21
169.7560289873
  0
LINE
  5
2DE
100
AcDbEntity
  8
RUNDUNGEN
100
AcDbLine
 62
9
  6
CONTINUOUS
 10
457.4318066356
 20
171.2993204064
 11
437.4318066356
 21
171.2993204064
  0
LINE
  5
2DF
100
AcDbEntity
  8
RUNDUNGEN
100
AcDbLine
 62
9
  6
CONTINUOUS
 10
457.4318066356
 20
180.6186083411
 11
437.4318066356
 21
180.6186083411
  0
LINE
  5
2E0
100
AcDbEntity
  8
RUNDUNGEN
100
AcDbLine
 62
9
  6
CONTINUOUS
 10
457.4318066356
 20
183.7879032846
 11
437.4318066356
 21
183.7879032846
  0
LINE
  5
2E1
100
AcDbEntity
  8
0
100
AcDbLine
 62
7
  6
CONTINUOUS
 10
446.6818066356
 20
184.9715372236
 11
448.1818066356
 21
184.9715372236
  0
LINE
  5
2E2
100
AcDbEntity
  8
0
100
AcDbLine
 62
7
  6
CONTINUOUS
 10
427.4318066356
 20
185.7411476568
 11
437.4318066356
 21
185.7411476568
  0
LINE
  5
2E3
100
AcDbEntity
  8
0
100
AcDbLine
 62
7
  6
CONTINUOUS
 10
457.4318066356
 20
185.7411476568
 11
467.4318066356
 21
185.7411476568
  0
LINE
  5
2E4
100
AcDbEntity
  8
0
100
AcDbLine
 62
7
  6
CONTINUOUS
 10
437.4318066356
 20
186.8093844545
 11
446.2224572693
 21
186.8093844545
  0
LINE
  5
2E5
100
AcDbEntity
  8
0
100
AcDbLine
 62
7
  6
CONTINUOUS
 10
448.6411560019
 20
186.8093844545
 11
457.4318066356
 21
186.8093844545
  0
LINE
  5
2E6
100
AcDbEntity
  8
0
100
AcDbLine
 62
7
  6
CONTINUOUS
 10
437.4318066356
 20
188.876893004
 11
446.1092452272
 21
188.876893004
  0
LINE
  5
2E7
100
AcDbEntity
  8
0
100
AcDbLine
 62
7
  6
CONTINUOUS
 10
448.754368044
 20
188.876893004
 11
457.4318066356
 21
188.876893004
  0
LINE
  5
2E8
100
AcDbEntity
  8
0
100
AcDbLine
 62
9
  6
CONTINUOUS
 10
457.4318066356
 20
189.9458381163
 11
448.2990245741
 21
189.9458381163
  0
LINE
  5
2E9
100
AcDbEntity
  8
0
100
AcDbLine
 62
9
  6
CONTINUOUS
 10
446.564588697
 20
189.9458381163
 11
437.4318066356
 21
189.9458381163
  0
LINE
  5
2EA
100
AcDbEntity
  8
0
100
AcDbLine
 62
7
  6
CONTINUOUS
 10
448.1818066356
 20
190.3665418245
 11
446.6818066356
 21
190.3665418245
  0
LINE
  5
2EB
100
AcDbEntity
  8
0
100
AcDbLine
 62
9
  6
CONTINUOUS
 10
427.4318066356
 20
190.7411476568
 11
437.4318066356
 21
190.7411476568
  0
LINE
  5
2EC
100
AcDbEntity
  8
0
100
AcDbLine
 62
9
  6
CONTINUOUS
 10
457.4318066356
 20
190.7411476568
 11
467.4318066356
 21
190.7411476568
  0
LINE
  5
2ED
100
AcDbEntity
  8
RUNDUNGEN
100
AcDbLine
 62
9
  6
CONTINUOUS
 10
457.4318066356
 20
191.7315822189
 11
437.4318066356
 21
191.7315822189
  0
LINE
  5
2EE
100
AcDbEntity
  8
0
100
AcDbLine
 62
7
  6
CONTINUOUS
 10
427.4318066356
 20
223.941147658
 11
427.4318066356
 21
185.7411476568
  0
LINE
  5
2EF
100
AcDbEntity
  8
RUNDUNGEN
100
AcDbLine
 62
7
  6
CONTINUOUS
 10
427.4318066356
 20
223.941147658
 11
427.4318066356
 21
255.3411476568
  0
LINE
  5
2F0
100
AcDbEntity
  8
0
100
AcDbLine
 62
7
  6
CONTINUOUS
 10
427.4318066356
 20
255.3411476568
 11
427.4318066356
 21
262.1411476568
  0
LINE
  5
2F1
100
AcDbEntity
  8
0
100
AcDbLine
 62
7
  6
CONTINUOUS
 10
437.4318066356
 20
200.512763959
 11
457.4318066356
 21
200.512763959
  0
LINE
  5
2F2
100
AcDbEntity
  8
0
100
AcDbLine
 62
7
  6
CONTINUOUS
 10
446.6818066356
 20
115.2792632742
 11
446.5249966912
 21
116.2174914249
  0
LINE
  5
2F3
100
AcDbEntity
  8
0
100
AcDbLine
 62
7
  6
CONTINUOUS
 10
446.5249966912
 20
116.2174914249
 11
446.3716796924
 21
117.1609232096
  0
LINE
  5
2F4
100
AcDbEntity
  8
0
100
AcDbLine
 62
7
  6
CONTINUOUS
 10
446.3716796924
 20
117.1609232096
 11
446.2563169133
 21
117.8902736559
  0
LINE
  5
2F5
100
AcDbEntity
  8
0
100
AcDbLine
 62
7
  6
CONTINUOUS
 10
437.4318066356
 20
349.32463496
 11
437.4318066356
 21
262.1411476568
  0
LINE
  5
2F6
100
AcDbEntity
  8
0
100
AcDbLine
 62
7
  6
CONTINUOUS
 10
437.4318066356
 20
215.1787214867
 11
437.4318066356
 21
213.2754973634
  0
LINE
  5
2F7
100
AcDbEntity
  8
0
100
AcDbLine
 62
7
  6
CONTINUOUS
 10
437.4318066356
 20
188.876893004
 11
437.4318066356
 21
186.8093844545
  0
LINE
  5
2F8
100
AcDbEntity
  8
0
100
AcDbLine
 62
7
  6
CONTINUOUS
 10
437.4318066356
 20
169.7560311996
 11
437.4318066356
 21
169.16934099
  0
LINE
  5
2F9
100
AcDbEntity
  8
0
100
AcDbLine
 62
7
  6
CONTINUOUS
 10
437.4318066356
 20
148.2829137329
 11
437.4318066356
 21
146.5681694294
  0
LINE
  5
2FA
100
AcDbEntity
  8
RUNDUNGEN
100
AcDbLine
 62
7
  6
CONTINUOUS
 10
437.4318066356
 20
98.5576603537
 11
437.4318066356
 21
146.5681694294
  0
LINE
  5
2FB
100
AcDbEntity
  8
RUNDUNGEN
100
AcDbLine
 62
7
  6
CONTINUOUS
 10
437.4318066356
 20
148.2829137329
 11
437.4318066356
 21
169.16934099
  0
LINE
  5
2FC
100
AcDbEntity
  8
RUNDUNGEN
100
AcDbLine
 62
7
  6
CONTINUOUS
 10
437.4318066356
 20
169.7560311996
 11
437.4318066356
 21
186.8093844545
  0
LINE
  5
2FD
100
AcDbEntity
  8
RUNDUNGEN
100
AcDbLine
 62
7
  6
CONTINUOUS
 10
437.4318066356
 20
188.876893004
 11
437.4318066356
 21
213.2754973634
  0
LINE
  5
2FE
100
AcDbEntity
  8
RUNDUNGEN
100
AcDbLine
 62
7
  6
CONTINUOUS
 10
437.4318066356
 20
215.1787214867
 11
437.4318066356
 21
223.941147658
  0
LINE
  5
2FF
100
AcDbEntity
  8
RUNDUNGEN
100
AcDbLine
 62
9
  6
CONTINUOUS
 10
457.4318066356
 20
208.8899882605
 11
437.4318066356
 21
208.8899882605
  0
LINE
  5
300
100
AcDbEntity
  8
0
100
AcDbLine
 62
7
  6
CONTINUOUS
 10
448.1818066356
 20
210.4175768547
 11
446.6818066356
 21
210.4175768547
  0
LINE
  5
301
100
AcDbEntity
  8
0
100
AcDbLine
 62
9
  6
CONTINUOUS
 10
457.4318066356
 20
211.1208571143
 11
448.2990245741
 21
211.1208571143
  0
LINE
  5
302
100
AcDbEntity
  8
0
100
AcDbLine
 62
9
  6
CONTINUOUS
 10
446.564588697
 20
211.1208571143
 11
437.4318066356
 21
211.1208571143
  0
LINE
  5
303
100
AcDbEntity
  8
0
100
AcDbLine
 62
7
  6
CONTINUOUS
 10
437.4318066356
 20
213.2754973634
 11
446.1092452272
 21
213.2754973634
  0
LINE
  5
304
100
AcDbEntity
  8
0
100
AcDbLine
 62
7
  6
CONTINUOUS
 10
448.754368044
 20
213.2754973634
 11
457.4318066356
 21
213.2754973634
  0
LINE
  5
305
100
AcDbEntity
  8
0
100
AcDbLine
 62
7
  6
CONTINUOUS
 10
437.4318066356
 20
215.1787214867
 11
446.2224572693
 21
215.1787214867
  0
LINE
  5
306
100
AcDbEntity
  8
0
100
AcDbLine
 62
7
  6
CONTINUOUS
 10
448.6411560019
 20
215.1787214867
 11
457.4318066356
 21
215.1787214867
  0
LINE
  5
307
100
AcDbEntity
  8
0
100
AcDbLine
 62
7
  6
CONTINUOUS
 10
446.6818066356
 20
216.0500093421
 11
448.1818066356
 21
216.0500093421
  0
LINE
  5
308
100
AcDbEntity
  8
RUNDUNGEN
100
AcDbLine
 62
9
  6
CONTINUOUS
 10
457.4318066356
 20
216.4080500165
 11
437.4318066356
 21
216.4080500165
  0
LWPOLYLINE
  5
309
100
AcDbEntity
  8
0
100
AcDbPolyline
 62
7
  6
CONTINUOUS
 90
7
 70
0
 10
448.2990245741
 20
189.9458381163
 10
448.2759996462
 20
189.988731402
 10
448.2543107712
 20
190.0430766415
 10
448.2339022719
 20
190.1085090518
 10
448.21494118
 20
190.18458156
 10
448.1975945269
 20
190.2707778615
 10
448.1818066356
 20
190.3665418245
  0
LWPOLYLINE
  5
30A
100
AcDbEntity
  8
0
100
AcDbPolyline
 62
7
  6
CONTINUOUS
 90
7
 70
0
 10
448.754368044
 20
188.876893004
 10
448.6835799528
 20
189.0955248831
 10
448.6107003199
 20
189.2982747211
 10
448.5356817579
 20
189.4848957054
 10
448.4586664294
 20
189.6551668835
 10
448.3797964974
 20
189.8088810708
 10
448.2990245741
 20
189.9458381163
  0
LWPOLYLINE
  5
30B
100
AcDbEntity
  8
0
100
AcDbPolyline
 62
7
  6
CONTINUOUS
 90
7
 70
0
 10
446.6818066356
 20
184.9715372236
 10
446.6029650452
 20
185.2521299584
 10
446.5249966912
 20
185.5433547941
 10
446.4478639718
 20
185.8449747049
 10
446.3716796924
 20
186.1567093247
 10
446.2965566589
 20
186.4782670862
 10
446.2224572693
 20
186.8093844545
  0
LWPOLYLINE
  5
30C
100
AcDbEntity
  8
0
100
AcDbPolyline
 62
7
  6
CONTINUOUS
 90
7
 70
0
 10
446.6818066356
 20
144.0435584037
 10
446.6029650452
 20
144.4488416451
 10
446.5249966912
 20
144.8607892591
 10
446.4478639718
 20
145.2790741092
 10
446.3716796924
 20
145.7033159416
 10
446.2965566589
 20
146.1331282579
 10
446.2224572693
 20
146.5681694294
  0
LWPOLYLINE
  5
30D
100
AcDbEntity
  8
0
100
AcDbPolyline
 62
7
  6
CONTINUOUS
 90
7
 70
0
 10
446.564588697
 20
166.2570300501
 10
446.4838273115
 20
166.7234397292
 10
446.4049596952
 20
167.1981501071
 10
446.3279347044
 20
167.6806647584
 10
446.2529057707
 20
168.1704115535
 10
446.1800263263
 20
168.6668093239
 10
446.1092452272
 20
169.16934099
  0
LINE
  5
30E
100
AcDbEntity
  8
0
100
AcDbLine
 62
7
  6
CONTINUOUS
 10
446.564588697
 20
130.1750869837
 11
446.4437816989
 21
130.9830633949
  0
LINE
  5
30F
100
AcDbEntity
  8
0
100
AcDbLine
 62
7
  6
CONTINUOUS
 10
448.754368044
 20
169.16934099
 11
448.7091791957
 21
169.7560289873
  0
LINE
  5
310
100
AcDbEntity
  8
0
100
AcDbLine
 62
7
  6
CONTINUOUS
 10
448.754368044
 20
213.2754973634
 11
448.6411560019
 21
215.1787214867
  0
LINE
  5
311
100
AcDbEntity
  8
0
100
AcDbLine
 62
7
  6
CONTINUOUS
 10
446.2224572693
 20
146.5681694294
 11
446.120993102
 21
148.2824527416
  0
LINE
  5
312
100
AcDbEntity
  8
0
100
AcDbLine
 62
7
  6
CONTINUOUS
 10
446.2224572693
 20
186.8093844545
 11
446.1092452272
 21
188.876893004
  0
LINE
  5
313
100
AcDbEntity
  8
0
100
AcDbLine
 62
7
  6
CONTINUOUS
 10
444.9318066356
 20
344.32463496
 11
444.9318066356
 21
262.1411476568
  0
LINE
  5
314
100
AcDbEntity
  8
0
100
AcDbLine
 62
7
  6
CONTINUOUS
 10
446.6818066356
 20
103.0577550194
 11
446.6818066356
 21
103.3388969134
  0
LINE
  5
315
100
AcDbEntity
  8
0
100
AcDbLine
 62
7
  6
CONTINUOUS
 10
446.6818066356
 20
115.2792632742
 11
446.6818066356
 21
117.8965783639
  0
LINE
  5
316
100
AcDbEntity
  8
0
100
AcDbLine
 62
7
  6
CONTINUOUS
 10
446.6818066356
 20
129.2545773333
 11
446.6818066356
 21
130.9830633949
  0
LINE
  5
317
100
AcDbEntity
  8
0
100
AcDbLine
 62
7
  6
CONTINUOUS
 10
446.6818066356
 20
144.0435584037
 11
446.6818066356
 21
148.3797945734
  0
LINE
  5
318
100
AcDbEntity
  8
0
100
AcDbLine
 62
7
  6
CONTINUOUS
 10
446.6818066356
 20
165.3782412833
 11
446.6818066356
 21
169.7560289873
  0
LINE
  5
319
100
AcDbEntity
  8
0
100
AcDbLine
 62
7
  6
CONTINUOUS
 10
446.6818066356
 20
184.9715372236
 11
446.6818066356
 21
190.3665418245
  0
LINE
  5
31A
100
AcDbEntity
  8
0
100
AcDbLine
 62
7
  6
CONTINUOUS
 10
446.6818066356
 20
210.4175768547
 11
446.6818066356
 21
216.0500093421
  0
LINE
  5
31B
100
AcDbEntity
  8
0
100
AcDbLine
 62
7
  6
CONTINUOUS
 10
448.1818066356
 20
103.0577550194
 11
448.1818066356
 21
103.3388969134
  0
LINE
  5
31C
100
AcDbEntity
  8
0
100
AcDbLine
 62
7
  6
CONTINUOUS
 10
448.1818066356
 20
115.2792632742
 11
448.1818066356
 21
117.8965783639
  0
LINE
  5
31D
100
AcDbEntity
  8
0
100
AcDbLine
 62
7
  6
CONTINUOUS
 10
448.1818066356
 20
129.2545773333
 11
448.1818066356
 21
130.9830633949
  0
LINE
  5
31E
100
AcDbEntity
  8
0
100
AcDbLine
 62
7
  6
CONTINUOUS
 10
448.1818066356
 20
144.0435584037
 11
448.1818066356
 21
148.3797945734
  0
LINE
  5
31F
100
AcDbEntity
  8
0
100
AcDbLine
 62
7
  6
CONTINUOUS
 10
448.1818066356
 20
165.3782412833
 11
448.1818066356
 21
169.7560289873
  0
LINE
  5
320
100
AcDbEntity
  8
0
100
AcDbLine
 62
7
  6
CONTINUOUS
 10
448.1818066356
 20
184.9715372236
 11
448.1818066356
 21
190.3665418245
  0
LINE
  5
321
100
AcDbEntity
  8
0
100
AcDbLine
 62
7
  6
CONTINUOUS
 10
448.1818066356
 20
210.4175768547
 11
448.1818066356
 21
216.0500093421
  0
LINE
  5
322
100
AcDbEntity
  8
0
100
AcDbLine
 62
7
  6
CONTINUOUS
 10
446.1092452272
 20
213.2754973634
 11
446.2224572693
 21
215.1787214867
  0
LINE
  5
323
100
AcDbEntity
  8
RUNDUNGEN
100
AcDbLine
 62
9
  6
CONTINUOUS
 10
457.4318066356
 20
218.8975853704
 11
437.4318066356
 21
218.8975853704
  0
LINE
  5
324
100
AcDbEntity
  8
02___PRT_ALL_AXES
100
AcDbLine
 62
7
  6
CENTER
 10
490.4747119912
 20
223.9411476568
 11
409.3075586366
 21
223.9411476568
  0
LINE
  5
325
100
AcDbEntity
  8
0
100
AcDbLine
 62
2
  6
CONTINUOUS
 10
467.4318066356
 20
223.941147658
 11
427.4318066356
 21
223.941147658
  0
LWPOLYLINE
  5
326
100
AcDbEntity
  8
0
100
AcDbPolyline
 62
7
  6
CONTINUOUS
 90
7
 70
0
 10
448.6411560019
 20
215.1787214867
 10
448.5670537309
 20
215.3555118634
 10
448.4919314476
 20
215.5198588381
 10
448.415753874
 20
215.6716145001
 10
448.3386268436
 20
215.8106415524
 10
448.2606561901
 20
215.9368125206
 10
448.1818066356
 20
216.0500093421
  0
LWPOLYLINE
  5
327
100
AcDbEntity
  8
0
100
AcDbPolyline
 62
7
  6
CONTINUOUS
 90
7
 70
0
 10
446.564588697
 20
211.1208571143
 10
446.4838273115
 20
211.4473861622
 10
446.4049596952
 20
211.7874833036
 10
446.3279347044
 20
212.1407792092
 10
446.2529057707
 20
212.5068407335
 10
446.1800263263
 20
212.8852171264
 10
446.1092452272
 20
213.2754973634
  0
LWPOLYLINE
  5
328
100
AcDbEntity
  8
0
100
AcDbPolyline
 62
7
  6
CONTINUOUS
 90
7
 70
0
 10
446.6818066356
 20
210.4175768547
 10
446.666013972
 20
210.5526014757
 10
446.6486669115
 20
210.6815216965
 10
446.6297120793
 20
210.8035328014
 10
446.6093095997
 20
210.9178928716
 10
446.5876195972
 20
211.0238962479
 10
446.564588697
 20
211.1208571143
  0
LINE
  5
329
100
AcDbEntity
  8
0
100
AcDbLine
 62
7
  6
CONTINUOUS
 10
449.9318066356
 20
344.32463496
 11
449.9318066356
 21
262.1411476568
  0
LINE
  5
32A
100
AcDbEntity
  8
0
100
AcDbLine
 62
7
  6
CONTINUOUS
 10
448.6411560019
 20
186.8093844545
 11
448.754368044
 21
188.876893004
  0
LINE
  5
32B
100
AcDbEntity
  8
0
100
AcDbLine
 62
7
  6
CONTINUOUS
 10
448.6411560019
 20
146.5681694294
 11
448.7426201691
 21
148.2824527416
  0
LINE
  5
32C
100
AcDbEntity
  8
0
100
AcDbLine
 62
7
  6
CONTINUOUS
 10
446.1092452272
 20
169.16934099
 11
446.1544340754
 21
169.7560289873
  0
LWPOLYLINE
  5
32D
100
AcDbEntity
  8
0
100
AcDbPolyline
 62
7
  6
CONTINUOUS
 90
7
 70
0
 10
448.1818066356
 20
210.4175768547
 10
448.1975992991
 20
210.5526014757
 10
448.2149463596
 20
210.6815216965
 10
448.2339011918
 20
210.8035328014
 10
448.2543036714
 20
210.9178928716
 10
448.2759936739
 20
211.0238962479
 10
448.2990245741
 20
211.1208571143
  0
LWPOLYLINE
  5
32E
100
AcDbEntity
  8
0
100
AcDbPolyline
 62
7
  6
CONTINUOUS
 90
7
 70
0
 10
448.2990245741
 20
211.1208571143
 10
448.3797859597
 20
211.4473861622
 10
448.4586535759
 20
211.7874833036
 10
448.5356785668
 20
212.1407792092
 10
448.6107075004
 20
212.5068407335
 10
448.6835869448
 20
212.8852171264
 10
448.754368044
 20
213.2754973634
  0
LWPOLYLINE
  5
32F
100
AcDbEntity
  8
0
100
AcDbPolyline
 62
7
  6
CONTINUOUS
 90
7
 70
0
 10
446.1092452272
 20
188.876893004
 10
446.1800333184
 20
189.0955248831
 10
446.2529129512
 20
189.2982747211
 10
446.3279315132
 20
189.4848957054
 10
446.4049468417
 20
189.6551668835
 10
446.4838167737
 20
189.8088810708
 10
446.564588697
 20
189.9458381163
  0
LWPOLYLINE
  5
330
100
AcDbEntity
  8
0
100
AcDbPolyline
 62
7
  6
CONTINUOUS
 90
7
 70
0
 10
446.2224572693
 20
215.1787214867
 10
446.2965595402
 20
215.3555118634
 10
446.3716818235
 20
215.5198588381
 10
446.4478593971
 20
215.6716145001
 10
446.5249864275
 20
215.8106415524
 10
446.602957081
 20
215.9368125206
 10
446.6818066356
 20
216.0500093421
  0
LINE
  5
331
100
AcDbEntity
  8
0
100
AcDbLine
 62
7
  6
CONTINUOUS
 10
457.4318066356
 20
349.32463496
 11
457.4318066356
 21
262.1411476568
  0
LINE
  5
332
100
AcDbEntity
  8
RUNDUNGEN
100
AcDbLine
 62
7
  6
CONTINUOUS
 10
457.4318066356
 20
223.941147658
 11
457.4318066356
 21
215.1787214867
  0
LINE
  5
333
100
AcDbEntity
  8
0
100
AcDbLine
 62
7
  6
CONTINUOUS
 10
457.4318066356
 20
215.1787214867
 11
457.4318066356
 21
213.2754973634
  0
LINE
  5
334
100
AcDbEntity
  8
RUNDUNGEN
100
AcDbLine
 62
7
  6
CONTINUOUS
 10
457.4318066356
 20
213.2754973634
 11
457.4318066356
 21
188.876893004
  0
LINE
  5
335
100
AcDbEntity
  8
0
100
AcDbLine
 62
7
  6
CONTINUOUS
 10
457.4318066356
 20
188.876893004
 11
457.4318066356
 21
186.8093844545
  0
LINE
  5
336
100
AcDbEntity
  8
RUNDUNGEN
100
AcDbLine
 62
7
  6
CONTINUOUS
 10
457.4318066356
 20
186.8093844545
 11
457.4318066356
 21
169.7560311996
  0
LINE
  5
337
100
AcDbEntity
  8
0
100
AcDbLine
 62
7
  6
CONTINUOUS
 10
457.4318066356
 20
169.7560289873
 11
457.4318066356
 21
169.16934099
  0
LINE
  5
338
100
AcDbEntity
  8
RUNDUNGEN
100
AcDbLine
 62
7
  6
CONTINUOUS
 10
457.4318066356
 20
169.16934099
 11
457.4318066356
 21
148.2829137329
  0
LINE
  5
339
100
AcDbEntity
  8
0
100
AcDbLine
 62
7
  6
CONTINUOUS
 10
457.4318066356
 20
148.2824527416
 11
457.4318066356
 21
146.5681694294
  0
LINE
  5
33A
100
AcDbEntity
  8
RUNDUNGEN
100
AcDbLine
 62
7
  6
CONTINUOUS
 10
457.4318066356
 20
146.5681694294
 11
457.4318066356
 21
98.5576603537
  0
LINE
  5
33B
100
AcDbEntity
  8
0
100
AcDbLine
 62
7
  6
CONTINUOUS
 10
448.2990245741
 20
130.1750869837
 11
448.4198315722
 21
130.9830633949
  0
LINE
  5
33C
100
AcDbEntity
  8
0
100
AcDbLine
 62
7
  6
CONTINUOUS
 10
448.4919335787
 20
117.1609232096
 11
448.6072963579
 21
117.8902736559
  0
LINE
  5
33D
100
AcDbEntity
  8
0
100
AcDbLine
 62
7
  6
CONTINUOUS
 10
448.3386165799
 20
116.2174914249
 11
448.4919335787
 21
117.1609232096
  0
LWPOLYLINE
  5
33E
100
AcDbEntity
  8
0
100
AcDbPolyline
 62
7
  6
CONTINUOUS
 90
7
 70
0
 10
448.2990245741
 20
166.2570300501
 10
448.3797859597
 20
166.7234397292
 10
448.4586535759
 20
167.1981501071
 10
448.5356785668
 20
167.6806647584
 10
448.6107075004
 20
168.1704115535
 10
448.6835869448
 20
168.6668093239
 10
448.754368044
 20
169.16934099
  0
LWPOLYLINE
  5
33F
100
AcDbEntity
  8
0
100
AcDbPolyline
 62
7
  6
CONTINUOUS
 90
7
 70
0
 10
448.1818066356
 20
144.0435584037
 10
448.2606482259
 20
144.4488416451
 10
448.3386165799
 20
144.8607892591
 10
448.4157492994
 20
145.2790741092
 10
448.4919335787
 20
145.7033159416
 10
448.5670566122
 20
146.1331282579
 10
448.6411560019
 20
146.5681694294
  0
LWPOLYLINE
  5
340
100
AcDbEntity
  8
0
100
AcDbPolyline
 62
7
  6
CONTINUOUS
 90
7
 70
0
 10
448.1818066356
 20
184.9715372236
 10
448.2606482259
 20
185.2521299584
 10
448.3386165799
 20
185.5433547941
 10
448.4157492994
 20
185.8449747049
 10
448.4919335787
 20
186.1567093247
 10
448.5670566122
 20
186.4782670862
 10
448.6411560019
 20
186.8093844545
  0
LWPOLYLINE
  5
341
100
AcDbEntity
  8
0
100
AcDbPolyline
 62
7
  6
CONTINUOUS
 90
7
 70
0
 10
446.564588697
 20
189.9458381163
 10
446.5876136249
 20
189.988731402
 10
446.6093024999
 20
190.0430766415
 10
446.6297109992
 20
190.1085090518
 10
446.6486720911
 20
190.18458156
 10
446.6660187442
 20
190.2707778615
 10
446.6818066356
 20
190.3665418245
  0
LINE
  5
342
100
AcDbEntity
  8
RUNDUNGEN
100
AcDbLine
 62
9
  6
CONTINUOUS
 10
467.4318066356
 20
238.6269340945
 11
427.4318066356
 21
238.6269340945
  0
LINE
  5
343
100
AcDbEntity
  8
RUNDUNGEN
100
AcDbLine
 62
9
  6
CONTINUOUS
 10
467.4318066356
 20
239.3340408756
 11
427.4318066356
 21
239.3340408756
  0
LINE
  5
344
100
AcDbEntity
  8
RUNDUNGEN
100
AcDbLine
 62
9
  6
CONTINUOUS
 10
427.4318066356
 20
239.948254438
 11
467.4318066356
 21
239.948254438
  0
LINE
  5
345
100
AcDbEntity
  8
RUNDUNGEN
100
AcDbLine
 62
9
  6
CONTINUOUS
 10
427.4318066356
 20
240.6553612192
 11
467.4318066356
 21
240.6553612192
  0
LINE
  5
346
100
AcDbEntity
  8
0
100
AcDbLine
 62
7
  6
CONTINUOUS
 10
467.4318066356
 20
223.941147658
 11
467.4318066356
 21
185.7411476568
  0
LINE
  5
347
100
AcDbEntity
  8
RUNDUNGEN
100
AcDbLine
 62
7
  6
CONTINUOUS
 10
467.4318066356
 20
223.941147658
 11
467.4318066356
 21
255.048254438
  0
LINE
  5
348
100
AcDbEntity
  8
0
100
AcDbLine
 62
7
  6
CONTINUOUS
 10
467.4318066356
 20
255.3411476568
 11
467.4318066356
 21
262.1411476568
  0
LINE
  5
349
100
AcDbEntity
  8
0
100
AcDbLine
 62
7
  6
CONTINUOUS
 10
448.1818066356
 20
115.2792632742
 11
448.3386165799
 21
116.2174914249
  0
LINE
  5
34A
100
AcDbEntity
  8
RUNDUNGEN
100
AcDbLine
 62
9
  6
CONTINUOUS
 10
427.4318066356
 20
252.3182720013
 11
467.4318066356
 21
252.3182720013
  0
LINE
  5
34B
100
AcDbEntity
  8
RUNDUNGEN
100
AcDbLine
 62
9
  6
CONTINUOUS
 10
427.4318066356
 20
252.9797098291
 11
467.4318066356
 21
252.9797098291
  0
LINE
  5
34C
100
AcDbEntity
  8
0
100
AcDbLine
 62
7
  6
CONTINUOUS
 10
427.4318066356
 20
254.1411476568
 11
467.4318066356
 21
254.1411476568
  0
LINE
  5
34D
100
AcDbEntity
  8
RUNDUNGEN
100
AcDbLine
 62
7
  6
CONTINUOUS
 10
427.4318066356
 20
254.1411476568
 11
467.4318066356
 21
254.1411476568
  0
LINE
  5
34E
100
AcDbEntity
  8
RUNDUNGEN
100
AcDbLine
 62
9
  6
CONTINUOUS
 10
427.4318066356
 20
254.4340408756
 11
467.4318066356
 21
254.4340408756
  0
LINE
  5
34F
100
AcDbEntity
  8
RUNDUNGEN
100
AcDbLine
 62
9
  6
CONTINUOUS
 10
467.4318066356
 20
255.048254438
 11
427.4318066356
 21
255.048254438
  0
LINE
  5
350
100
AcDbEntity
  8
0
100
AcDbLine
 62
7
  6
CONTINUOUS
 10
427.4318066356
 20
255.3411476568
 11
467.4318066356
 21
255.3411476568
  0
LINE
  5
351
100
AcDbEntity
  8
0
100
AcDbLine
 62
7
  6
CONTINUOUS
 10
427.4318066356
 20
262.1411476568
 11
444.9318066356
 21
262.1411476568
  0
LINE
  5
352
100
AcDbEntity
  8
0
100
AcDbLine
 62
7
  6
CONTINUOUS
 10
449.9318066356
 20
262.1411476568
 11
467.4318066356
 21
262.1411476568
  0
LINE
  5
353
100
AcDbEntity
  8
0
100
AcDbLine
 62
9
  6
CONTINUOUS
 10
437.4318066356
 20
262.7367940209
 11
444.9318066356
 21
262.7367940209
  0
LINE
  5
354
100
AcDbEntity
  8
0
100
AcDbLine
 62
9
  6
CONTINUOUS
 10
449.9318066356
 20
262.7367940209
 11
457.4318066356
 21
262.7367940209
  0
LINE
  5
355
100
AcDbEntity
  8
0
100
AcDbLine
 62
7
  6
CONTINUOUS
 10
437.4318066356
 20
267.3448718899
 11
444.9318066356
 21
267.3448718899
  0
LINE
  5
356
100
AcDbEntity
  8
0
100
AcDbLine
 62
7
  6
CONTINUOUS
 10
449.9318066356
 20
267.3448718899
 11
457.4318066356
 21
267.3448718899
  0
LINE
  5
357
100
AcDbEntity
  8
0
100
AcDbLine
 62
7
  6
CONTINUOUS
 10
437.4318066356
 20
272.2635758513
 11
444.9318066356
 21
272.2635758513
  0
LINE
  5
358
100
AcDbEntity
  8
0
100
AcDbLine
 62
7
  6
CONTINUOUS
 10
449.9318066356
 20
272.2635758513
 11
457.4318066356
 21
272.2635758513
  0
LINE
  5
359
100
AcDbEntity
  8
0
100
AcDbLine
 62
9
  6
CONTINUOUS
 10
437.4318066356
 20
272.4168755498
 11
444.9318066356
 21
272.4168755498
  0
LINE
  5
35A
100
AcDbEntity
  8
0
100
AcDbLine
 62
9
  6
CONTINUOUS
 10
449.9318066356
 20
272.4168755498
 11
457.4318066356
 21
272.4168755498
  0
LINE
  5
35B
100
AcDbEntity
  8
0
100
AcDbLine
 62
9
  6
CONTINUOUS
 10
437.4318066356
 20
278.7020385968
 11
444.9318066356
 21
278.7020385968
  0
LINE
  5
35C
100
AcDbEntity
  8
0
100
AcDbLine
 62
9
  6
CONTINUOUS
 10
449.9318066356
 20
278.7020385968
 11
457.4318066356
 21
278.7020385968
  0
LINE
  5
35D
100
AcDbEntity
  8
0
100
AcDbLine
 62
7
  6
CONTINUOUS
 10
437.4318066356
 20
282.3081765019
 11
444.9318066356
 21
282.3081765019
  0
LINE
  5
35E
100
AcDbEntity
  8
0
100
AcDbLine
 62
7
  6
CONTINUOUS
 10
449.9318066356
 20
282.3081765019
 11
457.4318066356
 21
282.3081765019
  0
LINE
  5
35F
100
AcDbEntity
  8
0
100
AcDbLine
 62
7
  6
CONTINUOUS
 10
437.4318066356
 20
287.881688546
 11
444.9318066356
 21
287.881688546
  0
LINE
  5
360
100
AcDbEntity
  8
0
100
AcDbLine
 62
7
  6
CONTINUOUS
 10
449.9318066356
 20
287.881688546
 11
457.4318066356
 21
287.881688546
  0
LWPOLYLINE
  5
361
100
AcDbEntity
  8
0
100
AcDbPolyline
 62
7
  6
CONTINUOUS
 90
5
 70
0
 10
446.6084806674
 20
148.2824527416
 10
446.6297109992
 20
148.2889716254
 10
446.6486720911
 20
148.3074849234
 10
446.6660187442
 20
148.3378366382
 10
446.6818066356
 20
148.3797945734
  0
LINE
  5
362
100
AcDbEntity
  8
0
100
AcDbLine
 62
7
  6
CONTINUOUS
 10
437.4318066356
 20
294.3827212302
 11
444.9318066356
 21
294.3827212302
  0
LINE
  5
363
100
AcDbEntity
  8
0
100
AcDbLine
 62
7
  6
CONTINUOUS
 10
449.9318066356
 20
294.3827212302
 11
457.4318066356
 21
294.3827212302
  0
LINE
  5
364
100
AcDbEntity
  8
0
100
AcDbLine
 62
9
  6
CONTINUOUS
 10
437.4318066356
 20
294.5529085766
 11
444.9318066356
 21
294.5529085766
  0
LINE
  5
365
100
AcDbEntity
  8
0
100
AcDbLine
 62
9
  6
CONTINUOUS
 10
449.9318066356
 20
294.5529085766
 11
457.4318066356
 21
294.5529085766
  0
LINE
  5
366
100
AcDbEntity
  8
0
100
AcDbLine
 62
9
  6
CONTINUOUS
 10
437.4318066356
 20
300.864977282
 11
444.9318066356
 21
300.864977282
  0
LINE
  5
367
100
AcDbEntity
  8
0
100
AcDbLine
 62
9
  6
CONTINUOUS
 10
449.9318066356
 20
300.864977282
 11
457.4318066356
 21
300.864977282
  0
LINE
  5
368
100
AcDbEntity
  8
0
100
AcDbLine
 62
7
  6
CONTINUOUS
 10
437.4318066356
 20
307.0253931174
 11
444.9318066356
 21
307.0253931174
  0
LINE
  5
369
100
AcDbEntity
  8
0
100
AcDbLine
 62
7
  6
CONTINUOUS
 10
449.9318066356
 20
307.0253931174
 11
457.4318066356
 21
307.0253931174
  0
LINE
  5
36A
100
AcDbEntity
  8
0
100
AcDbLine
 62
7
  6
CONTINUOUS
 10
437.4318066356
 20
308.087715826
 11
444.9318066356
 21
308.087715826
  0
LINE
  5
36B
100
AcDbEntity
  8
0
100
AcDbLine
 62
7
  6
CONTINUOUS
 10
449.9318066356
 20
308.087715826
 11
457.4318066356
 21
308.087715826
  0
LINE
  5
36C
100
AcDbEntity
  8
0
100
AcDbLine
 62
9
  6
CONTINUOUS
 10
437.4318066356
 20
312.4622579274
 11
444.9318066356
 21
312.4622579274
  0
LINE
  5
36D
100
AcDbEntity
  8
0
100
AcDbLine
 62
9
  6
CONTINUOUS
 10
449.9318066356
 20
312.4622579274
 11
457.4318066356
 21
312.4622579274
  0
LINE
  5
36E
100
AcDbEntity
  8
0
100
AcDbLine
 62
7
  6
CONTINUOUS
 10
437.4318066356
 20
316.3073366854
 11
444.9318066356
 21
316.3073366854
  0
LINE
  5
36F
100
AcDbEntity
  8
0
100
AcDbLine
 62
7
  6
CONTINUOUS
 10
449.9318066356
 20
316.3073366854
 11
457.4318066356
 21
316.3073366854
  0
LINE
  5
370
100
AcDbEntity
  8
0
100
AcDbLine
 62
7
  6
CONTINUOUS
 10
437.4318066356
 20
319.6349296196
 11
444.9318066356
 21
319.6349296196
  0
LINE
  5
371
100
AcDbEntity
  8
0
100
AcDbLine
 62
7
  6
CONTINUOUS
 10
449.9318066356
 20
319.6349296196
 11
457.4318066356
 21
319.6349296196
  0
LINE
  5
372
100
AcDbEntity
  8
0
100
AcDbLine
 62
7
  6
CONTINUOUS
 10
437.4318066356
 20
322.8759362308
 11
444.9318066356
 21
322.8759362308
  0
LINE
  5
373
100
AcDbEntity
  8
0
100
AcDbLine
 62
7
  6
CONTINUOUS
 10
449.9318066356
 20
322.8759362308
 11
457.4318066356
 21
322.8759362308
  0
LINE
  5
374
100
AcDbEntity
  8
0
100
AcDbLine
 62
9
  6
CONTINUOUS
 10
437.4318066356
 20
327.2822047989
 11
444.9318066356
 21
327.2822047989
  0
LINE
  5
375
100
AcDbEntity
  8
0
100
AcDbLine
 62
9
  6
CONTINUOUS
 10
449.9318066356
 20
327.2822047989
 11
457.4318066356
 21
327.2822047989
  0
LINE
  5
376
100
AcDbEntity
  8
0
100
AcDbLine
 62
7
  6
CONTINUOUS
 10
437.4318066356
 20
330.2221760676
 11
444.9318066356
 21
330.2221760676
  0
LINE
  5
377
100
AcDbEntity
  8
0
100
AcDbLine
 62
7
  6
CONTINUOUS
 10
449.9318066356
 20
330.2221760676
 11
457.4318066356
 21
330.2221760676
  0
LINE
  5
378
100
AcDbEntity
  8
0
100
AcDbLine
 62
9
  6
CONTINUOUS
 10
437.4318066356
 20
332.7459406651
 11
444.9318066356
 21
332.7459406651
  0
LINE
  5
379
100
AcDbEntity
  8
0
100
AcDbLine
 62
9
  6
CONTINUOUS
 10
449.9318066356
 20
332.7459406651
 11
457.4318066356
 21
332.7459406651
  0
LINE
  5
37A
100
AcDbEntity
  8
0
100
AcDbLine
 62
7
  6
CONTINUOUS
 10
437.4318066356
 20
335.4151084988
 11
444.9318066356
 21
335.4151084988
  0
LINE
  5
37B
100
AcDbEntity
  8
0
100
AcDbLine
 62
7
  6
CONTINUOUS
 10
449.9318066356
 20
335.4151084988
 11
457.4318066356
 21
335.4151084988
  0
LINE
  5
37C
100
AcDbEntity
  8
0
100
AcDbLine
 62
9
  6
CONTINUOUS
 10
437.4318066356
 20
337.9666931549
 11
444.9318066356
 21
337.9666931549
  0
LINE
  5
37D
100
AcDbEntity
  8
0
100
AcDbLine
 62
9
  6
CONTINUOUS
 10
449.9318066356
 20
337.9666931549
 11
457.4318066356
 21
337.9666931549
  0
LINE
  5
37E
100
AcDbEntity
  8
0
100
AcDbLine
 62
7
  6
CONTINUOUS
 10
437.4318066356
 20
344.32463496
 11
444.9318066356
 21
344.32463496
  0
LINE
  5
37F
100
AcDbEntity
  8
0
100
AcDbLine
 62
7
  6
CONTINUOUS
 10
449.9318066356
 20
344.32463496
 11
457.4318066356
 21
344.32463496
  0
LINE
  5
380
100
AcDbEntity
  8
0
100
AcDbLine
 62
7
  6
CONTINUOUS
 10
437.4318066356
 20
349.32463496
 11
457.4318066356
 21
349.32463496
  0
ARC
  5
381
100
AcDbEntity
  8
0
100
AcDbCircle
 62
7
  6
CONTINUOUS
 10
131.7170204251
 20
118.0272543099
 40
21.6666666666
100
AcDbArc
 50
348.8171467228
 51
6.8197527349
  0
ARC
  5
382
100
AcDbEntity
  8
0
100
AcDbCircle
 62
7
  6
CONTINUOUS
 10
109.5978750462
 20
132.7097198255
 40
21.6666666666
100
AcDbArc
 50
356.9978405699
 51
7.1860444241
  0
ARC
  5
383
100
AcDbEntity
  8
0
100
AcDbCircle
 62
7
  6
CONTINUOUS
 10
130.6381040639
 20
118.7481631745
 40
21.6666666666
100
AcDbArc
 50
105.6802472651
 51
123.6828532772
  0
ARC
  5
384
100
AcDbEntity
  8
0
100
AcDbCircle
 62
7
  6
CONTINUOUS
 10
96.5131308038
 20
152.8731364346
 40
21.6666666666
100
AcDbArc
 50
326.3171467228
 51
344.3197527349
  0
ARC
  5
385
100
AcDbEntity
  8
0
100
AcDbCircle
 62
7
  6
CONTINUOUS
 10
110.4746874548
 20
131.8329074168
 40
21.6666666666
100
AcDbArc
 50
82.8139555759
 51
93.0021594301
  0
ARC
  5
386
100
AcDbEntity
  8
0
100
AcDbCircle
 62
7
  6
CONTINUOUS
 10
95.7922219392
 20
153.9520527957
 40
21.6666666666
100
AcDbArc
 50
83.1802472651
 51
101.1828532772
  0
ARC
  5
387
100
AcDbEntity
  8
RUNDUNGEN
100
AcDbCircle
 62
7
  6
CONTINUOUS
 10
95.7922219392
 20
153.9520527957
 40
16.6666666666
100
AcDbArc
 50
89.7282978974
 51
107.2557727191
  0
ARC
  5
388
100
AcDbEntity
  8
RUNDUNGEN
100
AcDbCircle
 62
7
  6
CONTINUOUS
 10
110.4746874548
 20
131.8329074168
 40
16.6666666666
100
AcDbArc
 50
87.6204782948
 51
98.7473672409
  0
ARC
  5
389
100
AcDbEntity
  8
RUNDUNGEN
100
AcDbCircle
 62
7
  6
CONTINUOUS
 10
96.5131308038
 20
152.8731364346
 40
16.6666666666
100
AcDbArc
 50
320.2442272809
 51
337.7717021026
  0
ARC
  5
38A
100
AcDbEntity
  8
RUNDUNGEN
100
AcDbCircle
 62
7
  6
CONTINUOUS
 10
130.6381040639
 20
118.7481631745
 40
16.6666666666
100
AcDbArc
 50
112.2282978974
 51
129.7557727191
  0
ARC
  5
38B
100
AcDbEntity
  8
RUNDUNGEN
100
AcDbCircle
 62
7
  6
CONTINUOUS
 10
109.5978750462
 20
132.7097198255
 40
16.6666666666
100
AcDbArc
 50
351.2526327591
 51
2.3795217052
  0
ARC
  5
38C
100
AcDbEntity
  8
RUNDUNGEN
100
AcDbCircle
 62
7
  6
CONTINUOUS
 10
131.7170204251
 20
118.0272543099
 40
16.6666666666
100
AcDbArc
 50
342.7442272809
 51
0.2717021026
  0
ARC
  5
38D
100
AcDbEntity
  8
0
100
AcDbCircle
 62
7
  6
CONTINUOUS
 10
126.1336283694
 20
134.7945794877
 40
5.0
100
AcDbArc
 50
7.1860444241
 51
105.6802472651
  0
ARC
  5
38E
100
AcDbEntity
  8
0
100
AcDbCircle
 62
7
  6
CONTINUOUS
 10
112.559547117
 20
148.3686607401
 40
5.0
100
AcDbArc
 50
344.3197527349
 51
82.8139555759
  0
ARC
  5
38F
100
AcDbEntity
  8
RUNDUNGEN
100
AcDbCircle
 62
7
  6
CONTINUOUS
 10
111.2480310242
 20
140.615737583
 40
2.5
100
AcDbArc
 50
140.2442272809
 51
225.0
  0
ARC
  5
390
100
AcDbEntity
  8
RUNDUNGEN
100
AcDbCircle
 62
7
  6
CONTINUOUS
 10
118.3807052123
 20
133.4830633949
 40
2.5
100
AcDbArc
 50
225.0
 51
309.7557727191
  0
ARC
  5
391
100
AcDbEntity
  8
RUNDUNGEN
100
AcDbCircle
 62
7
  6
CONTINUOUS
 10
107.635898672
 20
150.2824527416
 40
2.0
100
AcDbArc
 50
207.0
 51
278.7473672409
  0
ARC
  5
392
100
AcDbEntity
  8
RUNDUNGEN
100
AcDbCircle
 62
7
  6
CONTINUOUS
 10
128.0474203709
 20
129.8709310427
 40
2.0
100
AcDbArc
 50
171.2526327591
 51
243.0
  0
ARC
  5
393
100
AcDbEntity
  8
0
100
AcDbCircle
 62
7
  6
CONTINUOUS
 10
81.6964414107
 20
174.9025962858
 40
21.6666666666
100
AcDbArc
 50
334.4978405699
 51
344.6860444241
  0
ARC
  5
394
100
AcDbEntity
  8
0
100
AcDbCircle
 62
7
  6
CONTINUOUS
 10
77.3239194933
 20
198.5384790347
 40
21.6666666666
100
AcDbArc
 50
303.8171467228
 51
321.8197527349
  0
ARC
  5
395
100
AcDbEntity
  8
0
100
AcDbCircle
 62
7
  6
CONTINUOUS
 10
82.1709688669
 20
173.7569856655
 40
21.6666666666
100
AcDbArc
 50
60.3139555759
 51
70.5021594301
  0
ARC
  5
396
100
AcDbEntity
  8
0
100
AcDbCircle
 62
7
  6
CONTINUOUS
 10
72.0653927324
 20
223.3211476568
 40
21.6666666666
100
AcDbArc
 50
37.8139555759
 51
48.0021594301
  0
ARC
  5
397
100
AcDbEntity
  8
0
100
AcDbCircle
 62
7
  6
CONTINUOUS
 10
77.0707699648
 20
199.8111476568
 40
21.6666666666
100
AcDbArc
 50
60.6802472651
 51
78.6828532772
  0
ARC
  5
398
100
AcDbEntity
  8
RUNDUNGEN
100
AcDbCircle
 62
7
  6
CONTINUOUS
 10
72.0653927324
 20
223.3211476568
 40
16.6666666666
100
AcDbArc
 50
42.6204782948
 51
53.7473672409
  0
ARC
  5
399
100
AcDbEntity
  8
RUNDUNGEN
100
AcDbCircle
 62
7
  6
CONTINUOUS
 10
77.0707699648
 20
199.8111476568
 40
16.6666666666
100
AcDbArc
 50
67.2282978974
 51
84.7557727191
  0
ARC
  5
39A
100
AcDbEntity
  8
RUNDUNGEN
100
AcDbCircle
 62
7
  6
CONTINUOUS
 10
82.1709688669
 20
173.7569856655
 40
16.6666666666
100
AcDbArc
 50
65.1204782948
 51
76.2473672409
  0
ARC
  5
39B
100
AcDbEntity
  8
RUNDUNGEN
100
AcDbCircle
 62
7
  6
CONTINUOUS
 10
77.3239194933
 20
198.5384790347
 40
16.6666666666
100
AcDbArc
 50
297.7442272809
 51
315.2717021026
  0
ARC
  5
39C
100
AcDbEntity
  8
RUNDUNGEN
100
AcDbCircle
 62
7
  6
CONTINUOUS
 10
81.6964414107
 20
174.9025962858
 40
16.6666666666
100
AcDbArc
 50
328.7526327591
 51
339.8795217052
  0
ARC
  5
39D
100
AcDbEntity
  8
0
100
AcDbCircle
 62
7
  6
CONTINUOUS
 10
97.7713267122
 20
170.5007966174
 40
5.0
100
AcDbArc
 50
344.6860444241
 51
83.1802472651
  0
ARC
  5
39E
100
AcDbEntity
  8
0
100
AcDbCircle
 62
7
  6
CONTINUOUS
 10
90.4250868754
 20
188.236188464
 40
5.0
100
AcDbArc
 50
321.8197527349
 51
60.3139555759
  0
ARC
  5
39F
100
AcDbEntity
  8
0
100
AcDbCircle
 62
7
  6
CONTINUOUS
 10
85.2321544442
 20
214.3428227549
 40
5.0
100
AcDbArc
 50
322.1860444241
 51
60.6802472651
  0
ARC
  5
3A0
100
AcDbEntity
  8
RUNDUNGEN
100
AcDbCircle
 62
7
  6
CONTINUOUS
 10
78.822627983
 20
218.8975853704
 40
2.5
100
AcDbArc
 50
180.0
 51
264.7557727191
  0
ARC
  5
3A1
100
AcDbEntity
  8
RUNDUNGEN
100
AcDbCircle
 62
7
  6
CONTINUOUS
 10
86.2464887561
 20
181.575316922
 40
2.5
100
AcDbArc
 50
117.7442272809
 51
202.5
  0
ARC
  5
3A2
100
AcDbEntity
  8
RUNDUNGEN
100
AcDbCircle
 62
7
  6
CONTINUOUS
 10
90.1066642103
 20
172.2560289873
 40
2.5
100
AcDbArc
 50
202.5
 51
287.2557727191
  0
ARC
  5
3A3
100
AcDbEntity
  8
RUNDUNGEN
100
AcDbCircle
 62
7
  6
CONTINUOUS
 10
83.1038645427
 20
209.5080222492
 40
2.0
100
AcDbArc
 50
126.2526327591
 51
198.0
  0
ARC
  5
3A4
100
AcDbEntity
  8
RUNDUNGEN
100
AcDbCircle
 62
7
  6
CONTINUOUS
 10
86.6086053438
 20
191.8885004104
 40
2.0
100
AcDbArc
 50
184.5
 51
256.2473672409
  0
ARC
  5
3A5
100
AcDbEntity
  8
RUNDUNGEN
100
AcDbCircle
 62
7
  6
CONTINUOUS
 10
97.6552412853
 20
165.2195621018
 40
2.0
100
AcDbArc
 50
148.7526327591
 51
220.5
  0
ARC
  5
3A6
100
AcDbEntity
  8
0
100
AcDbCircle
 62
7
  6
CONTINUOUS
 10
201.0861152862
 20
94.3004251031
 40
21.6666666666
100
AcDbArc
 50
41.9978405699
 51
52.1860444241
  0
ARC
  5
3A7
100
AcDbEntity
  8
0
100
AcDbCircle
 62
7
  6
CONTINUOUS
 10
177.5761152862
 20
99.3058023354
 40
21.6666666666
100
AcDbArc
 50
11.3171467228
 51
29.3197527349
  0
ARC
  5
3A8
100
AcDbEntity
  8
0
100
AcDbCircle
 62
7
  6
CONTINUOUS
 10
151.5219532949
 20
104.4060012375
 40
21.6666666666
100
AcDbArc
 50
19.4978405699
 51
29.6860444241
  0
ARC
  5
3A9
100
AcDbEntity
  8
0
100
AcDbCircle
 62
7
  6
CONTINUOUS
 10
176.3034466641
 20
99.5589518639
 40
21.6666666666
100
AcDbArc
 50
128.1802472651
 51
146.1828532772
  0
ARC
  5
3AA
100
AcDbEntity
  8
0
100
AcDbCircle
 62
7
  6
CONTINUOUS
 10
152.6675639152
 20
103.9314737814
 40
21.6666666666
100
AcDbArc
 50
105.3139555759
 51
115.5021594301
  0
ARC
  5
3AB
100
AcDbEntity
  8
RUNDUNGEN
100
AcDbCircle
 62
7
  6
CONTINUOUS
 10
152.6675639152
 20
103.9314737814
 40
16.6666666666
100
AcDbArc
 50
110.1204782948
 51
121.2473672409
  0
ARC
  5
3AC
100
AcDbEntity
  8
RUNDUNGEN
100
AcDbCircle
 62
7
  6
CONTINUOUS
 10
176.3034466641
 20
99.5589518639
 40
16.6666666666
100
AcDbArc
 50
134.7282978974
 51
152.2557727191
  0
ARC
  5
3AD
100
AcDbEntity
  8
RUNDUNGEN
100
AcDbCircle
 62
7
  6
CONTINUOUS
 10
151.5219532949
 20
104.4060012375
 40
16.6666666666
100
AcDbArc
 50
13.7526327591
 51
24.8795217052
  0
ARC
  5
3AE
100
AcDbEntity
  8
RUNDUNGEN
100
AcDbCircle
 62
7
  6
CONTINUOUS
 10
177.5761152862
 20
99.3058023354
 40
16.6666666666
100
AcDbArc
 50
5.2442272809
 51
22.7717021026
  0
ARC
  5
3AF
100
AcDbEntity
  8
RUNDUNGEN
100
AcDbCircle
 62
7
  6
CONTINUOUS
 10
201.0861152862
 20
94.3004251031
 40
16.6666666666
100
AcDbArc
 50
36.2526327591
 51
47.3795217052
  0
ARC
  5
3B0
100
AcDbEntity
  8
0
100
AcDbCircle
 62
7
  6
CONTINUOUS
 10
192.1077903842
 20
107.4671868149
 40
5.0
100
AcDbArc
 50
29.3197527349
 51
127.8139555759
  0
ARC
  5
3B1
100
AcDbEntity
  8
0
100
AcDbCircle
 62
7
  6
CONTINUOUS
 10
166.0011560933
 20
112.660119246
 40
5.0
100
AcDbArc
 50
29.6860444241
 51
128.1802472651
  0
ARC
  5
3B2
100
AcDbEntity
  8
0
100
AcDbCircle
 62
7
  6
CONTINUOUS
 10
148.2657642467
 20
120.0063590829
 40
5.0
100
AcDbArc
 50
6.8197527349
 51
105.3139555759
  0
ARC
  5
3B3
100
AcDbEntity
  8
RUNDUNGEN
100
AcDbCircle
 62
7
  6
CONTINUOUS
 10
150.0209966166
 20
112.341696581
 40
2.5
100
AcDbArc
 50
162.7442272809
 51
247.5
  0
ARC
  5
3B4
100
AcDbEntity
  8
RUNDUNGEN
100
AcDbCircle
 62
7
  6
CONTINUOUS
 10
159.3402845514
 20
108.4815211267
 40
2.5
100
AcDbArc
 50
247.5
 51
332.2557727191
  0
ARC
  5
3B5
100
AcDbEntity
  8
RUNDUNGEN
100
AcDbCircle
 62
7
  6
CONTINUOUS
 10
196.6625529997
 20
101.0576603537
 40
2.5
100
AcDbArc
 50
185.2442272809
 51
270.0
  0
ARC
  5
3B6
100
AcDbEntity
  8
RUNDUNGEN
100
AcDbCircle
 62
7
  6
CONTINUOUS
 10
142.9845297312
 20
119.8902736559
 40
2.0
100
AcDbArc
 50
229.5
 51
301.2473672409
  0
ARC
  5
3B7
100
AcDbEntity
  8
RUNDUNGEN
100
AcDbCircle
 62
7
  6
CONTINUOUS
 10
169.6534680397
 20
108.8436377144
 40
2.0
100
AcDbArc
 50
193.7526327591
 51
265.5
  0
ARC
  5
3B8
100
AcDbEntity
  8
RUNDUNGEN
100
AcDbCircle
 62
7
  6
CONTINUOUS
 10
187.2729898785
 20
105.3388969134
 40
2.0
100
AcDbArc
 50
252.0
 51
323.7473672409
  0
ARC
  5
3B9
100
AcDbEntity
  8
0
100
AcDbCircle
 62
7
  6
CONTINUOUS
 10
168.5061152862
 20
190.7411476568
 40
5.0
100
AcDbArc
 50
180.0
 51
270.0
  0
ARC
  5
3BA
100
AcDbEntity
  8
RUNDUNGEN
100
AcDbCircle
 62
7
  6
CONTINUOUS
 10
187.0203288485
 20
193.5411476568
 40
1.0
100
AcDbArc
 50
225.0
 51
270.0
  0
ARC
  5
3BB
100
AcDbEntity
  8
RUNDUNGEN
100
AcDbCircle
 62
7
  6
CONTINUOUS
 10
171.3061152862
 20
209.2553612192
 40
1.0
100
AcDbArc
 50
180.0
 51
225.0
  0
ARC
  5
3BC
100
AcDbEntity
  8
RUNDUNGEN
100
AcDbCircle
 62
7
  6
CONTINUOUS
 10
184.9919017238
 20
192.7411476568
 40
1.0
100
AcDbArc
 50
45.0
 51
90.0
  0
ARC
  5
3BD
100
AcDbEntity
  8
RUNDUNGEN
100
AcDbCircle
 62
7
  6
CONTINUOUS
 10
173.3289909417
 20
192.7411476568
 40
1.0
100
AcDbArc
 50
90.0
 51
131.4096221093
  0
ARC
  5
3BE
100
AcDbEntity
  8
RUNDUNGEN
100
AcDbCircle
 62
7
  6
CONTINUOUS
 10
172.0061152862
 20
194.2411476568
 40
1.0
100
AcDbArc
 50
138.5903778907
 51
311.4096221093
  0
ARC
  5
3BF
100
AcDbEntity
  8
RUNDUNGEN
100
AcDbCircle
 62
7
  6
CONTINUOUS
 10
170.5061152862
 20
195.5640233124
 40
1.0
100
AcDbArc
 50
318.5903778907
 51
360.0
  0
ARC
  5
3C0
100
AcDbEntity
  8
RUNDUNGEN
100
AcDbCircle
 62
7
  6
CONTINUOUS
 10
170.5061152862
 20
207.2269340945
 40
1.0
100
AcDbArc
 50
0.0
 51
45.0
  0
ARC
  5
3C1
100
AcDbEntity
  8
0
100
AcDbCircle
 62
7
  6
CONTINUOUS
 10
72.0653927324
 20
224.5611476568
 40
21.6666666666
100
AcDbArc
 50
311.9978405699
 51
322.1860444241
  0
ARC
  5
3C2
100
AcDbEntity
  8
0
100
AcDbCircle
 62
7
  6
CONTINUOUS
 10
81.6964414107
 20
272.9796990278
 40
21.6666666666
100
AcDbArc
 50
15.3139555759
 51
25.5021594301
  0
ARC
  5
3C3
100
AcDbEntity
  8
0
100
AcDbCircle
 62
7
  6
CONTINUOUS
 10
77.3239194933
 20
249.3438162789
 40
21.6666666666
100
AcDbArc
 50
38.1802472651
 51
56.1828532772
  0
ARC
  5
3C4
100
AcDbEntity
  8
0
100
AcDbCircle
 62
7
  6
CONTINUOUS
 10
82.1709688669
 20
274.1253096481
 40
21.6666666666
100
AcDbArc
 50
289.4978405699
 51
299.6860444241
  0
ARC
  5
3C5
100
AcDbEntity
  8
0
100
AcDbCircle
 62
7
  6
CONTINUOUS
 10
77.0707699648
 20
248.0711476568
 40
21.6666666666
100
AcDbArc
 50
281.3171467228
 51
299.3197527349
  0
ARC
  5
3C6
100
AcDbEntity
  8
RUNDUNGEN
100
AcDbCircle
 62
7
  6
CONTINUOUS
 10
81.6964414107
 20
272.9796990278
 40
16.6666666666
100
AcDbArc
 50
20.1204782948
 51
31.2473672409
  0
ARC
  5
3C7
100
AcDbEntity
  8
RUNDUNGEN
100
AcDbCircle
 62
7
  6
CONTINUOUS
 10
77.3239194933
 20
249.3438162789
 40
16.6666666666
100
AcDbArc
 50
44.7282978974
 51
62.2557727191
  0
ARC
  5
3C8
100
AcDbEntity
  8
RUNDUNGEN
100
AcDbCircle
 62
7
  6
CONTINUOUS
 10
82.1709688669
 20
274.1253096481
 40
16.6666666666
100
AcDbArc
 50
283.7526327591
 51
294.8795217052
  0
ARC
  5
3C9
100
AcDbEntity
  8
RUNDUNGEN
100
AcDbCircle
 62
7
  6
CONTINUOUS
 10
77.0707699648
 20
248.0711476568
 40
16.6666666666
100
AcDbArc
 50
275.2442272809
 51
292.7717021026
  0
ARC
  5
3CA
100
AcDbEntity
  8
RUNDUNGEN
100
AcDbCircle
 62
7
  6
CONTINUOUS
 10
72.0653927324
 20
224.5611476568
 40
16.6666666666
100
AcDbArc
 50
306.2526327591
 51
317.3795217052
  0
ARC
  5
3CB
100
AcDbEntity
  8
0
100
AcDbCircle
 62
7
  6
CONTINUOUS
 10
97.7713267122
 20
277.3814986963
 40
5.0
100
AcDbArc
 50
276.8197527349
 51
15.3139555759
  0
ARC
  5
3CC
100
AcDbEntity
  8
0
100
AcDbCircle
 62
7
  6
CONTINUOUS
 10
90.4250868754
 20
259.6461068497
 40
5.0
100
AcDbArc
 50
299.6860444241
 51
38.1802472651
  0
ARC
  5
3CD
100
AcDbEntity
  8
0
100
AcDbCircle
 62
7
  6
CONTINUOUS
 10
85.2321544442
 20
233.5394725588
 40
5.0
100
AcDbArc
 50
299.3197527349
 51
37.8139555759
  0
ARC
  5
3CE
100
AcDbEntity
  8
RUNDUNGEN
100
AcDbCircle
 62
7
  6
CONTINUOUS
 10
90.1066642103
 20
275.6262663264
 40
2.5
100
AcDbArc
 50
72.7442272809
 51
157.5
  0
ARC
  5
3CF
100
AcDbEntity
  8
RUNDUNGEN
100
AcDbCircle
 62
7
  6
CONTINUOUS
 10
86.2464887561
 20
266.3069783916
 40
2.5
100
AcDbArc
 50
157.5
 51
242.2557727191
  0
ARC
  5
3D0
100
AcDbEntity
  8
RUNDUNGEN
100
AcDbCircle
 62
7
  6
CONTINUOUS
 10
78.822627983
 20
228.9847099433
 40
2.5
100
AcDbArc
 50
95.2442272809
 51
180.0
  0
ARC
  5
3D1
100
AcDbEntity
  8
RUNDUNGEN
100
AcDbCircle
 62
7
  6
CONTINUOUS
 10
97.6552412853
 20
282.6627332118
 40
2.0
100
AcDbArc
 50
139.5
 51
211.2473672409
  0
ARC
  5
3D2
100
AcDbEntity
  8
RUNDUNGEN
100
AcDbCircle
 62
7
  6
CONTINUOUS
 10
86.6086053438
 20
255.9937949033
 40
2.0
100
AcDbArc
 50
103.7526327591
 51
175.5
  0
ARC
  5
3D3
100
AcDbEntity
  8
RUNDUNGEN
100
AcDbCircle
 62
7
  6
CONTINUOUS
 10
83.1038645427
 20
238.3742730645
 40
2.0
100
AcDbArc
 50
162.0
 51
233.7473672409
  0
ARC
  5
3D4
100
AcDbEntity
  8
0
100
AcDbCircle
 62
7
  6
CONTINUOUS
 10
131.7170204251
 20
329.8550410038
 40
21.6666666666
100
AcDbArc
 50
353.1802472651
 51
11.1828532772
  0
ARC
  5
3D5
100
AcDbEntity
  8
0
100
AcDbCircle
 62
7
  6
CONTINUOUS
 10
109.5978750462
 20
315.1725754882
 40
21.6666666666
100
AcDbArc
 50
352.8139555759
 51
3.0021594301
  0
ARC
  5
3D6
100
AcDbEntity
  8
0
100
AcDbCircle
 62
7
  6
CONTINUOUS
 10
130.6381040639
 20
329.1341321392
 40
21.6666666666
100
AcDbArc
 50
236.3171467228
 51
254.3197527349
  0
ARC
  5
3D7
100
AcDbEntity
  8
0
100
AcDbCircle
 62
7
  6
CONTINUOUS
 10
96.5131308038
 20
295.0091588791
 40
21.6666666666
100
AcDbArc
 50
15.6802472651
 51
33.6828532772
  0
ARC
  5
3D8
100
AcDbEntity
  8
0
100
AcDbCircle
 62
7
  6
CONTINUOUS
 10
110.4746874548
 20
316.0493878968
 40
21.6666666666
100
AcDbArc
 50
266.9978405699
 51
277.1860444241
  0
ARC
  5
3D9
100
AcDbEntity
  8
0
100
AcDbCircle
 62
7
  6
CONTINUOUS
 10
95.7922219392
 20
293.9302425179
 40
21.6666666666
100
AcDbArc
 50
258.8171467228
 51
276.8197527349
  0
ARC
  5
3DA
100
AcDbEntity
  8
RUNDUNGEN
100
AcDbCircle
 62
7
  6
CONTINUOUS
 10
131.7170204251
 20
329.8550410038
 40
16.6666666666
100
AcDbArc
 50
359.7282978974
 51
17.2557727191
  0
ARC
  5
3DB
100
AcDbEntity
  8
RUNDUNGEN
100
AcDbCircle
 62
7
  6
CONTINUOUS
 10
109.5978750462
 20
315.1725754882
 40
16.6666666666
100
AcDbArc
 50
357.6204782948
 51
8.7473672409
  0
ARC
  5
3DC
100
AcDbEntity
  8
RUNDUNGEN
100
AcDbCircle
 62
7
  6
CONTINUOUS
 10
130.6381040639
 20
329.1341321392
 40
16.6666666666
100
AcDbArc
 50
230.2442272809
 51
247.7717021026
  0
ARC
  5
3DD
100
AcDbEntity
  8
RUNDUNGEN
100
AcDbCircle
 62
7
  6
CONTINUOUS
 10
96.5131308038
 20
295.0091588791
 40
16.6666666666
100
AcDbArc
 50
22.2282978974
 51
39.7557727191
  0
ARC
  5
3DE
100
AcDbEntity
  8
RUNDUNGEN
100
AcDbCircle
 62
7
  6
CONTINUOUS
 10
110.4746874548
 20
316.0493878968
 40
16.6666666666
100
AcDbArc
 50
261.2526327591
 51
272.3795217052
  0
ARC
  5
3DF
100
AcDbEntity
  8
RUNDUNGEN
100
AcDbCircle
 62
7
  6
CONTINUOUS
 10
95.7922219392
 20
293.9302425179
 40
16.6666666666
100
AcDbArc
 50
252.7442272809
 51
270.2717021026
  0
ARC
  5
3E0
100
AcDbEntity
  8
0
100
AcDbCircle
 62
7
  6
CONTINUOUS
 10
126.1336283694
 20
313.087715826
 40
5.0
100
AcDbArc
 50
254.3197527349
 51
352.8139555759
  0
ARC
  5
3E1
100
AcDbEntity
  8
0
100
AcDbCircle
 62
7
  6
CONTINUOUS
 10
112.559547117
 20
299.5136345736
 40
5.0
100
AcDbArc
 50
277.1860444241
 51
15.6802472651
  0
ARC
  5
3E2
100
AcDbEntity
  8
RUNDUNGEN
100
AcDbCircle
 62
7
  6
CONTINUOUS
 10
118.3807052123
 20
314.3992319188
 40
2.5
100
AcDbArc
 50
50.2442272809
 51
135.0
  0
ARC
  5
3E3
100
AcDbEntity
  8
RUNDUNGEN
100
AcDbCircle
 62
7
  6
CONTINUOUS
 10
111.2480310242
 20
307.2665577307
 40
2.5
100
AcDbArc
 50
135.0
 51
219.7557727191
  0
ARC
  5
3E4
100
AcDbEntity
  8
RUNDUNGEN
100
AcDbCircle
 62
7
  6
CONTINUOUS
 10
128.0474203709
 20
318.011364271
 40
2.0
100
AcDbArc
 50
117.0
 51
188.7473672409
  0
ARC
  5
3E5
100
AcDbEntity
  8
RUNDUNGEN
100
AcDbCircle
 62
7
  6
CONTINUOUS
 10
107.635898672
 20
297.5998425721
 40
2.0
100
AcDbArc
 50
81.2526327591
 51
153.0
  0
ARC
  5
3E6
100
AcDbEntity
  8
0
100
AcDbCircle
 62
7
  6
CONTINUOUS
 10
168.5061152862
 20
257.1411476568
 40
5.0
100
AcDbArc
 50
90.0
 51
180.0
  0
ARC
  5
3E7
100
AcDbEntity
  8
RUNDUNGEN
100
AcDbCircle
 62
7
  6
CONTINUOUS
 10
171.3061152862
 20
238.6269340945
 40
1.0
100
AcDbArc
 50
135.0
 51
180.0
  0
ARC
  5
3E8
100
AcDbEntity
  8
RUNDUNGEN
100
AcDbCircle
 62
7
  6
CONTINUOUS
 10
187.0203288485
 20
254.3411476568
 40
1.0
100
AcDbArc
 50
90.0
 51
135.0
  0
ARC
  5
3E9
100
AcDbEntity
  8
RUNDUNGEN
100
AcDbCircle
 62
7
  6
CONTINUOUS
 10
170.5061152862
 20
240.6553612192
 40
1.0
100
AcDbArc
 50
315.0
 51
360.0
  0
ARC
  5
3EA
100
AcDbEntity
  8
RUNDUNGEN
100
AcDbCircle
 62
7
  6
CONTINUOUS
 10
170.5061152862
 20
252.3182720013
 40
1.0
100
AcDbArc
 50
0.0
 51
41.4096221093
  0
ARC
  5
3EB
100
AcDbEntity
  8
RUNDUNGEN
100
AcDbCircle
 62
7
  6
CONTINUOUS
 10
172.0061152862
 20
253.6411476568
 40
1.0
100
AcDbArc
 50
48.5903778907
 51
221.4096221093
  0
ARC
  5
3EC
100
AcDbEntity
  8
RUNDUNGEN
100
AcDbCircle
 62
7
  6
CONTINUOUS
 10
173.3289909417
 20
255.1411476568
 40
1.0
100
AcDbArc
 50
228.5903778907
 51
270.0
  0
ARC
  5
3ED
100
AcDbEntity
  8
RUNDUNGEN
100
AcDbCircle
 62
7
  6
CONTINUOUS
 10
184.9919017238
 20
255.1411476568
 40
1.0
100
AcDbArc
 50
270.0
 51
315.0
  0
ARC
  5
3EE
100
AcDbEntity
  8
0
100
AcDbCircle
 62
7
  6
CONTINUOUS
 10
201.0861152862
 20
353.5818702106
 40
21.6666666666
100
AcDbArc
 50
307.8139555759
 51
318.0021594301
  0
ARC
  5
3EF
100
AcDbEntity
  8
0
100
AcDbCircle
 62
7
  6
CONTINUOUS
 10
177.5761152862
 20
348.5764929782
 40
21.6666666666
100
AcDbArc
 50
330.6802472651
 51
348.6828532772
  0
ARC
  5
3F0
100
AcDbEntity
  8
0
100
AcDbCircle
 62
7
  6
CONTINUOUS
 10
151.5219532949
 20
343.4762940761
 40
21.6666666666
100
AcDbArc
 50
330.3139555759
 51
340.5021594301
  0
ARC
  5
3F1
100
AcDbEntity
  8
0
100
AcDbCircle
 62
7
  6
CONTINUOUS
 10
176.3034466641
 20
348.3233434497
 40
21.6666666666
100
AcDbArc
 50
213.8171467228
 51
231.8197527349
  0
ARC
  5
3F2
100
AcDbEntity
  8
0
100
AcDbCircle
 62
7
  6
CONTINUOUS
 10
152.6675639152
 20
343.9508215323
 40
21.6666666666
100
AcDbArc
 50
244.4978405699
 51
254.6860444241
  0
ARC
  5
3F3
100
AcDbEntity
  8
RUNDUNGEN
100
AcDbCircle
 62
7
  6
CONTINUOUS
 10
201.0861152862
 20
353.5818702106
 40
16.6666666666
100
AcDbArc
 50
312.6204782948
 51
323.7473672409
  0
ARC
  5
3F4
100
AcDbEntity
  8
RUNDUNGEN
100
AcDbCircle
 62
7
  6
CONTINUOUS
 10
177.5761152862
 20
348.5764929782
 40
16.6666666666
100
AcDbArc
 50
337.2282978974
 51
354.7557727191
  0
ARC
  5
3F5
100
AcDbEntity
  8
RUNDUNGEN
100
AcDbCircle
 62
7
  6
CONTINUOUS
 10
151.5219532949
 20
343.4762940761
 40
16.6666666666
100
AcDbArc
 50
335.1204782948
 51
346.2473672409
  0
ARC
  5
3F6
100
AcDbEntity
  8
RUNDUNGEN
100
AcDbCircle
 62
7
  6
CONTINUOUS
 10
176.3034466641
 20
348.3233434497
 40
16.6666666666
100
AcDbArc
 50
207.7442272809
 51
225.2717021026
  0
ARC
  5
3F7
100
AcDbEntity
  8
RUNDUNGEN
100
AcDbCircle
 62
7
  6
CONTINUOUS
 10
152.6675639152
 20
343.9508215323
 40
16.6666666666
100
AcDbArc
 50
238.7526327591
 51
249.8795217052
  0
ARC
  5
3F8
100
AcDbEntity
  8
0
100
AcDbCircle
 62
7
  6
CONTINUOUS
 10
192.1077903842
 20
340.4151084988
 40
5.0
100
AcDbArc
 50
232.1860444241
 51
330.6802472651
  0
ARC
  5
3F9
100
AcDbEntity
  8
0
100
AcDbCircle
 62
7
  6
CONTINUOUS
 10
166.0011560933
 20
335.2221760676
 40
5.0
100
AcDbArc
 50
231.8197527349
 51
330.3139555759
  0
ARC
  5
3FA
100
AcDbEntity
  8
0
100
AcDbCircle
 62
7
  6
CONTINUOUS
 10
148.2657642467
 20
327.8759362308
 40
5.0
100
AcDbArc
 50
254.6860444241
 51
353.1802472651
  0
ARC
  5
3FB
100
AcDbEntity
  8
RUNDUNGEN
100
AcDbCircle
 62
7
  6
CONTINUOUS
 10
196.6625529997
 20
346.82463496
 40
2.5
100
AcDbArc
 50
90.0
 51
174.7557727191
  0
ARC
  5
3FC
100
AcDbEntity
  8
RUNDUNGEN
100
AcDbCircle
 62
7
  6
CONTINUOUS
 10
159.3402845514
 20
339.4007741869
 40
2.5
100
AcDbArc
 50
27.7442272809
 51
112.5
  0
ARC
  5
3FD
100
AcDbEntity
  8
RUNDUNGEN
100
AcDbCircle
 62
7
  6
CONTINUOUS
 10
150.0209966166
 20
335.5405987327
 40
2.5
100
AcDbArc
 50
112.5
 51
197.2557727191
  0
ARC
  5
3FE
100
AcDbEntity
  8
RUNDUNGEN
100
AcDbCircle
 62
7
  6
CONTINUOUS
 10
187.2729898785
 20
342.5433984003
 40
2.0
100
AcDbArc
 50
36.2526327591
 51
108.0
  0
ARC
  5
3FF
100
AcDbEntity
  8
RUNDUNGEN
100
AcDbCircle
 62
7
  6
CONTINUOUS
 10
169.6534680397
 20
339.0386575992
 40
2.0
100
AcDbArc
 50
94.5
 51
166.2473672409
  0
ARC
  5
400
100
AcDbEntity
  8
RUNDUNGEN
100
AcDbCircle
 62
7
  6
CONTINUOUS
 10
142.9845297312
 20
327.9920216577
 40
2.0
100
AcDbArc
 50
58.7526327591
 51
130.5
  0
ARC
  5
401
100
AcDbEntity
  8
0
100
AcDbCircle
 62
7
  6
CONTINUOUS
 10
250.7446666572
 20
103.9314737814
 40
21.6666666666
100
AcDbArc
 50
64.4978405699
 51
74.6860444241
  0
ARC
  5
402
100
AcDbEntity
  8
0
100
AcDbCircle
 62
7
  6
CONTINUOUS
 10
227.1087839083
 20
99.5589518639
 40
21.6666666666
100
AcDbArc
 50
33.8171467228
 51
51.8197527349
  0
ARC
  5
403
100
AcDbEntity
  8
0
100
AcDbCircle
 62
7
  6
CONTINUOUS
 10
251.8902772775
 20
104.4060012375
 40
21.6666666666
100
AcDbArc
 50
150.3139555759
 51
160.5021594301
  0
ARC
  5
404
100
AcDbEntity
  8
0
100
AcDbCircle
 62
7
  6
CONTINUOUS
 10
225.8361152862
 20
99.3058023354
 40
21.6666666666
100
AcDbArc
 50
150.6802472651
 51
168.6828532772
  0
ARC
  5
405
100
AcDbEntity
  8
0
100
AcDbCircle
 62
7
  6
CONTINUOUS
 10
202.3261152862
 20
94.3004251031
 40
21.6666666666
100
AcDbArc
 50
127.8139555759
 51
138.0021594301
  0
ARC
  5
406
100
AcDbEntity
  8
RUNDUNGEN
100
AcDbCircle
 62
7
  6
CONTINUOUS
 10
202.3261152862
 20
94.3004251031
 40
16.6666666666
100
AcDbArc
 50
132.6204782948
 51
143.7473672409
  0
ARC
  5
407
100
AcDbEntity
  8
RUNDUNGEN
100
AcDbCircle
 62
7
  6
CONTINUOUS
 10
225.8361152862
 20
99.3058023354
 40
16.6666666666
100
AcDbArc
 50
157.2282978974
 51
174.7557727191
  0
ARC
  5
408
100
AcDbEntity
  8
RUNDUNGEN
100
AcDbCircle
 62
7
  6
CONTINUOUS
 10
251.8902772775
 20
104.4060012375
 40
16.6666666666
100
AcDbArc
 50
155.1204782948
 51
166.2473672409
  0
ARC
  5
409
100
AcDbEntity
  8
RUNDUNGEN
100
AcDbCircle
 62
7
  6
CONTINUOUS
 10
227.1087839083
 20
99.5589518639
 40
16.6666666666
100
AcDbArc
 50
27.7442272809
 51
45.2717021026
  0
ARC
  5
40A
100
AcDbEntity
  8
RUNDUNGEN
100
AcDbCircle
 62
7
  6
CONTINUOUS
 10
250.7446666572
 20
103.9314737814
 40
16.6666666666
100
AcDbArc
 50
58.7526327591
 51
69.8795217052
  0
ARC
  5
40B
100
AcDbEntity
  8
0
100
AcDbCircle
 62
7
  6
CONTINUOUS
 10
255.1464663256
 20
120.0063590829
 40
5.0
100
AcDbArc
 50
74.6860444241
 51
173.1802472651
  0
ARC
  5
40C
100
AcDbEntity
  8
0
100
AcDbCircle
 62
7
  6
CONTINUOUS
 10
237.411074479
 20
112.660119246
 40
5.0
100
AcDbArc
 50
51.8197527349
 51
150.3139555759
  0
ARC
  5
40D
100
AcDbEntity
  8
0
100
AcDbCircle
 62
7
  6
CONTINUOUS
 10
211.3044401881
 20
107.4671868149
 40
5.0
100
AcDbArc
 50
52.1860444241
 51
150.6802472651
  0
ARC
  5
40E
100
AcDbEntity
  8
RUNDUNGEN
100
AcDbCircle
 62
7
  6
CONTINUOUS
 10
206.7496775726
 20
101.0576603537
 40
2.5
100
AcDbArc
 50
270.0
 51
354.7557727191
  0
ARC
  5
40F
100
AcDbEntity
  8
RUNDUNGEN
100
AcDbCircle
 62
7
  6
CONTINUOUS
 10
244.071946021
 20
108.4815211267
 40
2.5
100
AcDbArc
 50
207.7442272809
 51
292.5
  0
ARC
  5
410
100
AcDbEntity
  8
RUNDUNGEN
100
AcDbCircle
 62
7
  6
CONTINUOUS
 10
253.3912339557
 20
112.341696581
 40
2.5
100
AcDbArc
 50
292.5
 51
17.2557727191
  0
ARC
  5
411
100
AcDbEntity
  8
RUNDUNGEN
100
AcDbCircle
 62
7
  6
CONTINUOUS
 10
216.1392406938
 20
105.3388969134
 40
2.0
100
AcDbArc
 50
216.2526327591
 51
288.0
  0
ARC
  5
412
100
AcDbEntity
  8
RUNDUNGEN
100
AcDbCircle
 62
7
  6
CONTINUOUS
 10
233.7587625326
 20
108.8436377144
 40
2.0
100
AcDbArc
 50
274.5
 51
346.2473672409
  0
ARC
  5
413
100
AcDbEntity
  8
RUNDUNGEN
100
AcDbCircle
 62
7
  6
CONTINUOUS
 10
260.4277008412
 20
119.8902736559
 40
2.0
100
AcDbArc
 50
238.7526327591
 51
310.5
  0
ARC
  5
414
100
AcDbEntity
  8
0
100
AcDbCircle
 62
7
  6
CONTINUOUS
 10
234.9061152862
 20
190.7411476568
 40
5.0
100
AcDbArc
 50
270.0
 51
360.0
  0
ARC
  5
415
100
AcDbEntity
  8
RUNDUNGEN
100
AcDbCircle
 62
7
  6
CONTINUOUS
 10
232.1061152862
 20
209.2553612192
 40
1.0
100
AcDbArc
 50
315.0
 51
360.0
  0
ARC
  5
416
100
AcDbEntity
  8
RUNDUNGEN
100
AcDbCircle
 62
7
  6
CONTINUOUS
 10
216.3919017238
 20
193.5411476568
 40
1.0
100
AcDbArc
 50
270.0
 51
315.0
  0
ARC
  5
417
100
AcDbEntity
  8
RUNDUNGEN
100
AcDbCircle
 62
7
  6
CONTINUOUS
 10
232.9061152862
 20
207.2269340945
 40
1.0
100
AcDbArc
 50
135.0
 51
180.0
  0
ARC
  5
418
100
AcDbEntity
  8
RUNDUNGEN
100
AcDbCircle
 62
7
  6
CONTINUOUS
 10
232.9061152862
 20
195.5640233124
 40
1.0
100
AcDbArc
 50
180.0
 51
221.4096221093
  0
ARC
  5
419
100
AcDbEntity
  8
RUNDUNGEN
100
AcDbCircle
 62
7
  6
CONTINUOUS
 10
231.4061152862
 20
194.2411476568
 40
1.0
100
AcDbArc
 50
228.5903778907
 51
41.4096221093
  0
ARC
  5
41A
100
AcDbEntity
  8
RUNDUNGEN
100
AcDbCircle
 62
7
  6
CONTINUOUS
 10
230.0832396306
 20
192.7411476568
 40
1.0
100
AcDbArc
 50
48.5903778907
 51
90.0
  0
ARC
  5
41B
100
AcDbEntity
  8
RUNDUNGEN
100
AcDbCircle
 62
7
  6
CONTINUOUS
 10
218.4203288485
 20
192.7411476568
 40
1.0
100
AcDbArc
 50
90.0
 51
135.0
  0
ARC
  5
41C
100
AcDbEntity
  8
0
100
AcDbCircle
 62
7
  6
CONTINUOUS
 10
292.9375431175
 20
131.8329074168
 40
21.6666666666
100
AcDbArc
 50
86.9978405699
 51
97.1860444241
  0
ARC
  5
41D
100
AcDbEntity
  8
0
100
AcDbCircle
 62
7
  6
CONTINUOUS
 10
306.8990997685
 20
152.8731364346
 40
21.6666666666
100
AcDbArc
 50
195.6802472651
 51
213.6828532772
  0
ARC
  5
41E
100
AcDbEntity
  8
0
100
AcDbCircle
 62
7
  6
CONTINUOUS
 10
272.7741265084
 20
118.7481631745
 40
21.6666666666
100
AcDbArc
 50
56.3171467228
 51
74.3197527349
  0
ARC
  5
41F
100
AcDbEntity
  8
0
100
AcDbCircle
 62
7
  6
CONTINUOUS
 10
293.8143555262
 20
132.7097198255
 40
21.6666666666
100
AcDbArc
 50
172.8139555759
 51
183.0021594301
  0
ARC
  5
420
100
AcDbEntity
  8
0
100
AcDbCircle
 62
7
  6
CONTINUOUS
 10
271.6952101473
 20
118.0272543099
 40
21.6666666666
100
AcDbArc
 50
173.1802472651
 51
191.1828532772
  0
ARC
  5
421
100
AcDbEntity
  8
0
100
AcDbCircle
 62
7
  6
CONTINUOUS
 10
307.6200086331
 20
153.9520527957
 40
21.6666666666
100
AcDbArc
 50
78.8171467228
 51
96.8197527349
  0
ARC
  5
422
100
AcDbEntity
  8
RUNDUNGEN
100
AcDbCircle
 62
7
  6
CONTINUOUS
 10
271.6952101473
 20
118.0272543099
 40
16.6666666666
100
AcDbArc
 50
179.7282978974
 51
197.2557727191
  0
ARC
  5
423
100
AcDbEntity
  8
RUNDUNGEN
100
AcDbCircle
 62
7
  6
CONTINUOUS
 10
293.8143555262
 20
132.7097198255
 40
16.6666666666
100
AcDbArc
 50
177.6204782948
 51
188.7473672409
  0
ARC
  5
424
100
AcDbEntity
  8
RUNDUNGEN
100
AcDbCircle
 62
7
  6
CONTINUOUS
 10
272.7741265084
 20
118.7481631745
 40
16.6666666666
100
AcDbArc
 50
50.2442272809
 51
67.7717021026
  0
ARC
  5
425
100
AcDbEntity
  8
RUNDUNGEN
100
AcDbCircle
 62
7
  6
CONTINUOUS
 10
306.8990997685
 20
152.8731364346
 40
16.6666666666
100
AcDbArc
 50
202.2282978974
 51
219.7557727191
  0
ARC
  5
426
100
AcDbEntity
  8
RUNDUNGEN
100
AcDbCircle
 62
7
  6
CONTINUOUS
 10
292.9375431175
 20
131.8329074168
 40
16.6666666666
100
AcDbArc
 50
81.2526327591
 51
92.3795217052
  0
ARC
  5
427
100
AcDbEntity
  8
RUNDUNGEN
100
AcDbCircle
 62
7
  6
CONTINUOUS
 10
307.6200086331
 20
153.9520527957
 40
16.6666666666
100
AcDbArc
 50
72.7442272809
 51
90.2717021026
  0
ARC
  5
428
100
AcDbEntity
  8
0
100
AcDbCircle
 62
7
  6
CONTINUOUS
 10
290.8526834554
 20
148.3686607401
 40
5.0
100
AcDbArc
 50
97.1860444241
 51
195.6802472651
  0
ARC
  5
429
100
AcDbEntity
  8
0
100
AcDbCircle
 62
7
  6
CONTINUOUS
 10
277.2786022029
 20
134.7945794877
 40
5.0
100
AcDbArc
 50
74.3197527349
 51
172.8139555759
  0
ARC
  5
42A
100
AcDbEntity
  8
RUNDUNGEN
100
AcDbCircle
 62
7
  6
CONTINUOUS
 10
285.03152536
 20
133.4830633949
 40
2.5
100
AcDbArc
 50
230.2442272809
 51
315.0
  0
ARC
  5
42B
100
AcDbEntity
  8
RUNDUNGEN
100
AcDbCircle
 62
7
  6
CONTINUOUS
 10
292.1641995481
 20
140.615737583
 40
2.5
100
AcDbArc
 50
315.0
 51
39.7557727191
  0
ARC
  5
42C
100
AcDbEntity
  8
RUNDUNGEN
100
AcDbCircle
 62
7
  6
CONTINUOUS
 10
275.3648102014
 20
129.8709310427
 40
2.0
100
AcDbArc
 50
297.0
 51
8.7473672409
  0
ARC
  5
42D
100
AcDbEntity
  8
RUNDUNGEN
100
AcDbCircle
 62
7
  6
CONTINUOUS
 10
295.7763319003
 20
150.2824527416
 40
2.0
100
AcDbArc
 50
261.2526327591
 51
333.0
  0
ARC
  5
42E
100
AcDbEntity
  8
0
100
AcDbCircle
 62
7
  6
CONTINUOUS
 10
321.7157891616
 20
174.9025962858
 40
21.6666666666
100
AcDbArc
 50
195.3139555759
 51
205.5021594301
  0
ARC
  5
42F
100
AcDbEntity
  8
0
100
AcDbCircle
 62
7
  6
CONTINUOUS
 10
326.0883110791
 20
198.5384790347
 40
21.6666666666
100
AcDbArc
 50
218.1802472651
 51
236.1828532772
  0
ARC
  5
430
100
AcDbEntity
  8
0
100
AcDbCircle
 62
7
  6
CONTINUOUS
 10
321.2412617055
 20
173.7569856655
 40
21.6666666666
100
AcDbArc
 50
109.4978405699
 51
119.6860444241
  0
ARC
  5
431
100
AcDbEntity
  8
0
100
AcDbCircle
 62
7
  6
CONTINUOUS
 10
326.3414606076
 20
199.8111476568
 40
21.6666666666
100
AcDbArc
 50
101.3171467228
 51
119.3197527349
  0
ARC
  5
432
100
AcDbEntity
  8
0
100
AcDbCircle
 62
7
  6
CONTINUOUS
 10
331.3468378399
 20
223.3211476568
 40
21.6666666666
100
AcDbArc
 50
131.9978405699
 51
142.1860444241
  0
ARC
  5
433
100
AcDbEntity
  8
RUNDUNGEN
100
AcDbCircle
 62
7
  6
CONTINUOUS
 10
326.0883110791
 20
198.5384790347
 40
16.6666666666
100
AcDbArc
 50
224.7282978974
 51
242.2557727191
  0
ARC
  5
434
100
AcDbEntity
  8
RUNDUNGEN
100
AcDbCircle
 62
7
  6
CONTINUOUS
 10
321.2412617055
 20
173.7569856655
 40
16.6666666666
100
AcDbArc
 50
103.7526327591
 51
114.8795217052
  0
ARC
  5
435
100
AcDbEntity
  8
RUNDUNGEN
100
AcDbCircle
 62
7
  6
CONTINUOUS
 10
326.3414606076
 20
199.8111476568
 40
16.6666666666
100
AcDbArc
 50
95.2442272809
 51
112.7717021026
  0
ARC
  5
436
100
AcDbEntity
  8
RUNDUNGEN
100
AcDbCircle
 62
7
  6
CONTINUOUS
 10
331.3468378399
 20
223.3211476568
 40
16.6666666666
100
AcDbArc
 50
126.2526327591
 51
137.3795217052
  0
ARC
  5
437
100
AcDbEntity
  8
RUNDUNGEN
100
AcDbCircle
 62
7
  6
CONTINUOUS
 10
321.7157891616
 20
174.9025962858
 40
16.6666666666
100
AcDbArc
 50
200.1204782948
 51
211.2473672409
  0
ARC
  5
438
100
AcDbEntity
  8
0
100
AcDbCircle
 62
7
  6
CONTINUOUS
 10
305.6409038601
 20
170.5007966174
 40
5.0
100
AcDbArc
 50
96.8197527349
 51
195.3139555759
  0
ARC
  5
439
100
AcDbEntity
  8
0
100
AcDbCircle
 62
7
  6
CONTINUOUS
 10
312.987143697
 20
188.236188464
 40
5.0
100
AcDbArc
 50
119.6860444241
 51
218.1802472651
  0
ARC
  5
43A
100
AcDbEntity
  8
0
100
AcDbCircle
 62
7
  6
CONTINUOUS
 10
318.1800761281
 20
214.3428227549
 40
5.0
100
AcDbArc
 50
119.3197527349
 51
217.8139555759
  0
ARC
  5
43B
100
AcDbEntity
  8
RUNDUNGEN
100
AcDbCircle
 62
7
  6
CONTINUOUS
 10
324.5896025893
 20
218.8975853704
 40
2.5
100
AcDbArc
 50
275.2442272809
 51
360.0
  0
ARC
  5
43C
100
AcDbEntity
  8
RUNDUNGEN
100
AcDbCircle
 62
7
  6
CONTINUOUS
 10
313.305566362
 20
172.2560289873
 40
2.5
100
AcDbArc
 50
252.7442272809
 51
337.5
  0
ARC
  5
43D
100
AcDbEntity
  8
RUNDUNGEN
100
AcDbCircle
 62
7
  6
CONTINUOUS
 10
317.1657418163
 20
181.575316922
 40
2.5
100
AcDbArc
 50
337.5
 51
62.2557727191
  0
ARC
  5
43E
100
AcDbEntity
  8
RUNDUNGEN
100
AcDbCircle
 62
7
  6
CONTINUOUS
 10
316.8036252286
 20
191.8885004104
 40
2.0
100
AcDbArc
 50
283.7526327591
 51
355.5
  0
ARC
  5
43F
100
AcDbEntity
  8
RUNDUNGEN
100
AcDbCircle
 62
7
  6
CONTINUOUS
 10
320.3083660296
 20
209.5080222492
 40
2.0
100
AcDbArc
 50
342.0
 51
53.7473672409
  0
ARC
  5
440
100
AcDbEntity
  8
RUNDUNGEN
100
AcDbCircle
 62
7
  6
CONTINUOUS
 10
305.7569892871
 20
165.2195621018
 40
2.0
100
AcDbArc
 50
319.5
 51
31.2473672409
  0
ARC
  5
441
100
AcDbEntity
  8
0
100
AcDbCircle
 62
7
  6
CONTINUOUS
 10
201.7061152862
 20
223.9411476568
 40
121.1406813561
100
AcDbArc
 50
341.2349078596
 51
343.9095894211
  0
ARC
  5
442
100
AcDbEntity
  8
0
100
AcDbCircle
 62
7
  6
CONTINUOUS
 10
201.7061152862
 20
223.9411476568
 40
121.1406813561
100
AcDbArc
 50
331.0904105789
 51
333.7650921404
  0
ARC
  5
443
100
AcDbEntity
  8
0
100
AcDbCircle
 62
7
  6
CONTINUOUS
 10
201.7061152862
 20
223.9411476568
 40
121.1406813561
100
AcDbArc
 50
318.7349078596
 51
321.4095894211
  0
ARC
  5
444
100
AcDbEntity
  8
0
100
AcDbCircle
 62
7
  6
CONTINUOUS
 10
201.7061152862
 20
223.9411476568
 40
121.1406813561
100
AcDbArc
 50
308.5904105789
 51
311.2650921404
  0
ARC
  5
445
100
AcDbEntity
  8
0
100
AcDbCircle
 62
7
  6
CONTINUOUS
 10
201.7061152862
 20
223.9411476568
 40
121.1406813561
100
AcDbArc
 50
296.2349078596
 51
298.9095894211
  0
ARC
  5
446
100
AcDbEntity
  8
0
100
AcDbCircle
 62
7
  6
CONTINUOUS
 10
201.7061152862
 20
223.9411476568
 40
121.1406813561
100
AcDbArc
 50
286.0904105789
 51
288.7650921404
  0
ARC
  5
447
100
AcDbEntity
  8
0
100
AcDbCircle
 62
7
  6
CONTINUOUS
 10
201.7061152862
 20
223.9411476568
 40
121.1406813561
100
AcDbArc
 50
273.7349078596
 51
276.4095894211
  0
ARC
  5
448
100
AcDbEntity
  8
0
100
AcDbCircle
 62
7
  6
CONTINUOUS
 10
201.7061152862
 20
223.9411476568
 40
121.1406813561
100
AcDbArc
 50
263.5904105789
 51
266.2650921404
  0
ARC
  5
449
100
AcDbEntity
  8
0
100
AcDbCircle
 62
7
  6
CONTINUOUS
 10
201.7061152862
 20
223.9411476568
 40
121.1406813561
100
AcDbArc
 50
251.2349078596
 51
253.9095894211
  0
ARC
  5
44A
100
AcDbEntity
  8
0
100
AcDbCircle
 62
7
  6
CONTINUOUS
 10
201.7061152862
 20
223.9411476568
 40
121.1406813561
100
AcDbArc
 50
241.0904105789
 51
243.7650921404
  0
ARC
  5
44B
100
AcDbEntity
  8
0
100
AcDbCircle
 62
7
  6
CONTINUOUS
 10
201.7061152862
 20
223.9411476568
 40
121.1406813561
100
AcDbArc
 50
228.7349078596
 51
231.4095894211
  0
ARC
  5
44C
100
AcDbEntity
  8
0
100
AcDbCircle
 62
7
  6
CONTINUOUS
 10
201.7061152862
 20
223.9411476568
 40
121.1406813561
100
AcDbArc
 50
218.5904105789
 51
221.2650921404
  0
ARC
  5
44D
100
AcDbEntity
  8
0
100
AcDbCircle
 62
7
  6
CONTINUOUS
 10
201.7061152862
 20
223.9411476568
 40
121.1406813561
100
AcDbArc
 50
206.2349078596
 51
208.9095894211
  0
ARC
  5
44E
100
AcDbEntity
  8
0
100
AcDbCircle
 62
7
  6
CONTINUOUS
 10
201.7061152862
 20
223.9411476568
 40
121.1406813561
100
AcDbArc
 50
196.0904105789
 51
198.7650921404
  0
ARC
  5
44F
100
AcDbEntity
  8
0
100
AcDbCircle
 62
7
  6
CONTINUOUS
 10
201.7061152862
 20
223.9411476568
 40
121.1406813561
100
AcDbArc
 50
183.7349078596
 51
186.4095894211
  0
ARC
  5
450
100
AcDbEntity
  8
0
100
AcDbCircle
 62
7
  6
CONTINUOUS
 10
201.7061152862
 20
223.9411476568
 40
121.1406813561
100
AcDbArc
 50
173.5904105789
 51
176.2650921404
  0
ARC
  5
451
100
AcDbEntity
  8
0
100
AcDbCircle
 62
7
  6
CONTINUOUS
 10
201.7061152862
 20
223.9411476568
 40
121.1406813561
100
AcDbArc
 50
161.2349078596
 51
163.9095894211
  0
ARC
  5
452
100
AcDbEntity
  8
0
100
AcDbCircle
 62
7
  6
CONTINUOUS
 10
201.7061152862
 20
223.9411476568
 40
121.1406813561
100
AcDbArc
 50
151.0904105789
 51
153.7650921404
  0
ARC
  5
453
100
AcDbEntity
  8
0
100
AcDbCircle
 62
7
  6
CONTINUOUS
 10
201.7061152862
 20
223.9411476568
 40
121.1406813561
100
AcDbArc
 50
138.7349078596
 51
141.4095894211
  0
ARC
  5
454
100
AcDbEntity
  8
0
100
AcDbCircle
 62
7
  6
CONTINUOUS
 10
201.7061152862
 20
223.9411476568
 40
121.1406813561
100
AcDbArc
 50
128.5904105789
 51
131.2650921404
  0
ARC
  5
455
100
AcDbEntity
  8
0
100
AcDbCircle
 62
7
  6
CONTINUOUS
 10
201.7061152862
 20
223.9411476568
 40
121.1406813561
100
AcDbArc
 50
116.2349078596
 51
118.9095894211
  0
ARC
  5
456
100
AcDbEntity
  8
0
100
AcDbCircle
 62
7
  6
CONTINUOUS
 10
201.7061152862
 20
223.9411476568
 40
121.1406813561
100
AcDbArc
 50
106.0904105789
 51
108.7650921404
  0
ARC
  5
457
100
AcDbEntity
  8
0
100
AcDbCircle
 62
7
  6
CONTINUOUS
 10
201.7061152862
 20
223.9411476568
 40
121.1406813561
100
AcDbArc
 50
93.7349078596
 51
96.4095894211
  0
ARC
  5
458
100
AcDbEntity
  8
0
100
AcDbCircle
 62
7
  6
CONTINUOUS
 10
201.7061152862
 20
223.9411476568
 40
121.1406813561
100
AcDbArc
 50
83.5904105789
 51
86.2650921404
  0
ARC
  5
459
100
AcDbEntity
  8
0
100
AcDbCircle
 62
7
  6
CONTINUOUS
 10
201.7061152862
 20
223.9411476568
 40
121.1406813561
100
AcDbArc
 50
71.2349078596
 51
73.9095894211
  0
ARC
  5
45A
100
AcDbEntity
  8
0
100
AcDbCircle
 62
7
  6
CONTINUOUS
 10
201.7061152862
 20
223.9411476568
 40
121.1406813561
100
AcDbArc
 50
61.0904105789
 51
63.7650921404
  0
ARC
  5
45B
100
AcDbEntity
  8
0
100
AcDbCircle
 62
7
  6
CONTINUOUS
 10
201.7061152862
 20
223.9411476568
 40
121.1406813561
100
AcDbArc
 50
48.7349078596
 51
51.4095894211
  0
ARC
  5
45C
100
AcDbEntity
  8
0
100
AcDbCircle
 62
7
  6
CONTINUOUS
 10
201.7061152862
 20
223.9411476568
 40
121.1406813561
100
AcDbArc
 50
38.5904105789
 51
41.2650921404
  0
ARC
  5
45D
100
AcDbEntity
  8
0
100
AcDbCircle
 62
7
  6
CONTINUOUS
 10
201.7061152862
 20
223.9411476568
 40
121.1406813561
100
AcDbArc
 50
26.2349078596
 51
28.9095894211
  0
ARC
  5
45E
100
AcDbEntity
  8
0
100
AcDbCircle
 62
7
  6
CONTINUOUS
 10
201.7061152862
 20
223.9411476568
 40
121.1406813561
100
AcDbArc
 50
16.0904105789
 51
18.7650921404
  0
ARC
  5
45F
100
AcDbEntity
  8
0
100
AcDbCircle
 62
7
  6
CONTINUOUS
 10
201.7061152862
 20
223.9411476568
 40
121.1406813561
100
AcDbArc
 50
3.7349078596
 51
6.4095894211
  0
ARC
  5
460
100
AcDbEntity
  8
0
100
AcDbCircle
 62
7
  6
CONTINUOUS
 10
201.7061152862
 20
223.9411476568
 40
121.1406813561
100
AcDbArc
 50
353.5904105789
 51
356.2650921404
  0
ARC
  5
461
100
AcDbEntity
  8
RUNDUNGEN
100
AcDbCircle
 62
7
  6
CONTINUOUS
 10
216.3919017238
 20
254.3411476568
 40
1.0
100
AcDbArc
 50
45.0
 51
90.0
  0
ARC
  5
462
100
AcDbEntity
  8
RUNDUNGEN
100
AcDbCircle
 62
7
  6
CONTINUOUS
 10
232.1061152862
 20
238.6269340945
 40
1.0
100
AcDbArc
 50
0.0
 51
45.0
  0
ARC
  5
463
100
AcDbEntity
  8
0
100
AcDbCircle
 62
7
  6
CONTINUOUS
 10
234.9061152862
 20
257.1411476568
 40
5.0
100
AcDbArc
 50
0.0
 51
90.0
  0
ARC
  5
464
100
AcDbEntity
  8
RUNDUNGEN
100
AcDbCircle
 62
7
  6
CONTINUOUS
 10
218.4203288485
 20
255.1411476568
 40
1.0
100
AcDbArc
 50
225.0
 51
270.0
  0
ARC
  5
465
100
AcDbEntity
  8
RUNDUNGEN
100
AcDbCircle
 62
7
  6
CONTINUOUS
 10
230.0832396306
 20
255.1411476568
 40
1.0
100
AcDbArc
 50
270.0
 51
311.4096221093
  0
ARC
  5
466
100
AcDbEntity
  8
RUNDUNGEN
100
AcDbCircle
 62
7
  6
CONTINUOUS
 10
231.4061152862
 20
253.6411476568
 40
1.0
100
AcDbArc
 50
318.5903778907
 51
131.4096221093
  0
ARC
  5
467
100
AcDbEntity
  8
RUNDUNGEN
100
AcDbCircle
 62
7
  6
CONTINUOUS
 10
232.9061152862
 20
252.3182720013
 40
1.0
100
AcDbArc
 50
138.5903778907
 51
180.0
  0
ARC
  5
468
100
AcDbEntity
  8
RUNDUNGEN
100
AcDbCircle
 62
7
  6
CONTINUOUS
 10
232.9061152862
 20
240.6553612192
 40
1.0
100
AcDbArc
 50
180.0
 51
225.0
  0
ARC
  5
469
100
AcDbEntity
  8
0
100
AcDbCircle
 62
7
  6
CONTINUOUS
 10
250.7446666572
 20
343.9508215323
 40
21.6666666666
100
AcDbArc
 50
285.3139555759
 51
295.5021594301
  0
ARC
  5
46A
100
AcDbEntity
  8
0
100
AcDbCircle
 62
7
  6
CONTINUOUS
 10
227.1087839083
 20
348.3233434497
 40
21.6666666666
100
AcDbArc
 50
308.1802472651
 51
326.1828532772
  0
ARC
  5
46B
100
AcDbEntity
  8
0
100
AcDbCircle
 62
7
  6
CONTINUOUS
 10
251.8902772775
 20
343.4762940761
 40
21.6666666666
100
AcDbArc
 50
199.4978405699
 51
209.6860444241
  0
ARC
  5
46C
100
AcDbEntity
  8
0
100
AcDbCircle
 62
7
  6
CONTINUOUS
 10
225.8361152862
 20
348.5764929782
 40
21.6666666666
100
AcDbArc
 50
191.3171467228
 51
209.3197527349
  0
ARC
  5
46D
100
AcDbEntity
  8
0
100
AcDbCircle
 62
7
  6
CONTINUOUS
 10
202.3261152862
 20
353.5818702106
 40
21.6666666666
100
AcDbArc
 50
221.9978405699
 51
232.1860444241
  0
ARC
  5
46E
100
AcDbEntity
  8
RUNDUNGEN
100
AcDbCircle
 62
7
  6
CONTINUOUS
 10
250.7446666572
 20
343.9508215323
 40
16.6666666666
100
AcDbArc
 50
290.1204782948
 51
301.2473672409
  0
ARC
  5
46F
100
AcDbEntity
  8
RUNDUNGEN
100
AcDbCircle
 62
7
  6
CONTINUOUS
 10
227.1087839083
 20
348.3233434497
 40
16.6666666666
100
AcDbArc
 50
314.7282978974
 51
332.2557727191
  0
ARC
  5
470
100
AcDbEntity
  8
RUNDUNGEN
100
AcDbCircle
 62
7
  6
CONTINUOUS
 10
251.8902772775
 20
343.4762940761
 40
16.6666666666
100
AcDbArc
 50
193.7526327591
 51
204.8795217052
  0
ARC
  5
471
100
AcDbEntity
  8
RUNDUNGEN
100
AcDbCircle
 62
7
  6
CONTINUOUS
 10
225.8361152862
 20
348.5764929782
 40
16.6666666666
100
AcDbArc
 50
185.2442272809
 51
202.7717021026
  0
ARC
  5
472
100
AcDbEntity
  8
RUNDUNGEN
100
AcDbCircle
 62
7
  6
CONTINUOUS
 10
202.3261152862
 20
353.5818702106
 40
16.6666666666
100
AcDbArc
 50
216.2526327591
 51
227.3795217052
  0
ARC
  5
473
100
AcDbEntity
  8
0
100
AcDbCircle
 62
7
  6
CONTINUOUS
 10
255.1464663256
 20
327.8759362308
 40
5.0
100
AcDbArc
 50
186.8197527349
 51
285.3139555759
  0
ARC
  5
474
100
AcDbEntity
  8
0
100
AcDbCircle
 62
7
  6
CONTINUOUS
 10
237.411074479
 20
335.2221760676
 40
5.0
100
AcDbArc
 50
209.6860444241
 51
308.1802472651
  0
ARC
  5
475
100
AcDbEntity
  8
0
100
AcDbCircle
 62
7
  6
CONTINUOUS
 10
211.3044401881
 20
340.4151084988
 40
5.0
100
AcDbArc
 50
209.3197527349
 51
307.8139555759
  0
ARC
  5
476
100
AcDbEntity
  8
RUNDUNGEN
100
AcDbCircle
 62
7
  6
CONTINUOUS
 10
253.3912339557
 20
335.5405987327
 40
2.5
100
AcDbArc
 50
342.7442272809
 51
67.5
  0
ARC
  5
477
100
AcDbEntity
  8
RUNDUNGEN
100
AcDbCircle
 62
7
  6
CONTINUOUS
 10
244.071946021
 20
339.4007741869
 40
2.5
100
AcDbArc
 50
67.5
 51
152.2557727191
  0
ARC
  5
478
100
AcDbEntity
  8
RUNDUNGEN
100
AcDbCircle
 62
7
  6
CONTINUOUS
 10
206.7496775726
 20
346.82463496
 40
2.5
100
AcDbArc
 50
5.2442272809
 51
90.0
  0
ARC
  5
479
100
AcDbEntity
  8
RUNDUNGEN
100
AcDbCircle
 62
7
  6
CONTINUOUS
 10
260.4277008412
 20
327.9920216577
 40
2.0
100
AcDbArc
 50
49.5
 51
121.2473672409
  0
ARC
  5
47A
100
AcDbEntity
  8
RUNDUNGEN
100
AcDbCircle
 62
7
  6
CONTINUOUS
 10
233.7587625326
 20
339.0386575992
 40
2.0
100
AcDbArc
 50
13.7526327591
 51
85.5
  0
ARC
  5
47B
100
AcDbEntity
  8
RUNDUNGEN
100
AcDbCircle
 62
7
  6
CONTINUOUS
 10
216.1392406938
 20
342.5433984003
 40
2.0
100
AcDbArc
 50
72.0
 51
143.7473672409
  0
ARC
  5
47C
100
AcDbEntity
  8
0
100
AcDbCircle
 62
7
  6
CONTINUOUS
 10
331.3468378399
 20
224.5611476568
 40
21.6666666666
100
AcDbArc
 50
217.8139555759
 51
228.0021594301
  0
ARC
  5
47D
100
AcDbEntity
  8
0
100
AcDbCircle
 62
7
  6
CONTINUOUS
 10
326.3414606076
 20
248.0711476568
 40
21.6666666666
100
AcDbArc
 50
240.6802472651
 51
258.6828532772
  0
ARC
  5
47E
100
AcDbEntity
  8
0
100
AcDbCircle
 62
7
  6
CONTINUOUS
 10
321.2412617055
 20
274.1253096481
 40
21.6666666666
100
AcDbArc
 50
240.3139555759
 51
250.5021594301
  0
ARC
  5
47F
100
AcDbEntity
  8
0
100
AcDbCircle
 62
7
  6
CONTINUOUS
 10
326.0883110791
 20
249.3438162789
 40
21.6666666666
100
AcDbArc
 50
123.8171467228
 51
141.8197527349
  0
ARC
  5
480
100
AcDbEntity
  8
0
100
AcDbCircle
 62
7
  6
CONTINUOUS
 10
321.7157891616
 20
272.9796990278
 40
21.6666666666
100
AcDbArc
 50
154.4978405699
 51
164.6860444241
  0
ARC
  5
481
100
AcDbEntity
  8
RUNDUNGEN
100
AcDbCircle
 62
7
  6
CONTINUOUS
 10
331.3468378399
 20
224.5611476568
 40
16.6666666666
100
AcDbArc
 50
222.6204782948
 51
233.7473672409
  0
ARC
  5
482
100
AcDbEntity
  8
RUNDUNGEN
100
AcDbCircle
 62
7
  6
CONTINUOUS
 10
326.3414606076
 20
248.0711476568
 40
16.6666666666
100
AcDbArc
 50
247.2282978974
 51
264.7557727191
  0
ARC
  5
483
100
AcDbEntity
  8
RUNDUNGEN
100
AcDbCircle
 62
7
  6
CONTINUOUS
 10
321.2412617055
 20
274.1253096481
 40
16.6666666666
100
AcDbArc
 50
245.1204782948
 51
256.2473672409
  0
ARC
  5
484
100
AcDbEntity
  8
RUNDUNGEN
100
AcDbCircle
 62
7
  6
CONTINUOUS
 10
326.0883110791
 20
249.3438162789
 40
16.6666666666
100
AcDbArc
 50
117.7442272809
 51
135.2717021026
  0
ARC
  5
485
100
AcDbEntity
  8
RUNDUNGEN
100
AcDbCircle
 62
7
  6
CONTINUOUS
 10
321.7157891616
 20
272.9796990278
 40
16.6666666666
100
AcDbArc
 50
148.7526327591
 51
159.8795217052
  0
ARC
  5
486
100
AcDbEntity
  8
0
100
AcDbCircle
 62
7
  6
CONTINUOUS
 10
318.1800761281
 20
233.5394725588
 40
5.0
100
AcDbArc
 50
142.1860444241
 51
240.6802472651
  0
ARC
  5
487
100
AcDbEntity
  8
0
100
AcDbCircle
 62
7
  6
CONTINUOUS
 10
312.987143697
 20
259.6461068497
 40
5.0
100
AcDbArc
 50
141.8197527349
 51
240.3139555759
  0
ARC
  5
488
100
AcDbEntity
  8
0
100
AcDbCircle
 62
7
  6
CONTINUOUS
 10
305.6409038601
 20
277.3814986963
 40
5.0
100
AcDbArc
 50
164.6860444241
 51
263.1802472651
  0
ARC
  5
489
100
AcDbEntity
  8
RUNDUNGEN
100
AcDbCircle
 62
7
  6
CONTINUOUS
 10
324.5896025893
 20
228.9847099433
 40
2.5
100
AcDbArc
 50
0.0
 51
84.7557727191
  0
ARC
  5
48A
100
AcDbEntity
  8
RUNDUNGEN
100
AcDbCircle
 62
7
  6
CONTINUOUS
 10
317.1657418163
 20
266.3069783916
 40
2.5
100
AcDbArc
 50
297.7442272809
 51
22.5
  0
ARC
  5
48B
100
AcDbEntity
  8
RUNDUNGEN
100
AcDbCircle
 62
7
  6
CONTINUOUS
 10
313.305566362
 20
275.6262663264
 40
2.5
100
AcDbArc
 50
22.5
 51
107.2557727191
  0
ARC
  5
48C
100
AcDbEntity
  8
RUNDUNGEN
100
AcDbCircle
 62
7
  6
CONTINUOUS
 10
320.3083660296
 20
238.3742730645
 40
2.0
100
AcDbArc
 50
306.2526327591
 51
18.0
  0
ARC
  5
48D
100
AcDbEntity
  8
RUNDUNGEN
100
AcDbCircle
 62
7
  6
CONTINUOUS
 10
316.8036252286
 20
255.9937949033
 40
2.0
100
AcDbArc
 50
4.5
 51
76.2473672409
  0
ARC
  5
48E
100
AcDbEntity
  8
RUNDUNGEN
100
AcDbCircle
 62
7
  6
CONTINUOUS
 10
305.7569892871
 20
282.6627332118
 40
2.0
100
AcDbArc
 50
328.7526327591
 51
40.5
  0
ARC
  5
48F
100
AcDbEntity
  8
0
100
AcDbCircle
 62
7
  6
CONTINUOUS
 10
307.6200086331
 20
293.9302425179
 40
21.6666666666
100
AcDbArc
 50
263.1802472651
 51
281.1828532772
  0
ARC
  5
490
100
AcDbEntity
  8
0
100
AcDbCircle
 62
7
  6
CONTINUOUS
 10
292.9375431175
 20
316.0493878968
 40
21.6666666666
100
AcDbArc
 50
262.8139555759
 51
273.0021594301
  0
ARC
  5
491
100
AcDbEntity
  8
0
100
AcDbCircle
 62
7
  6
CONTINUOUS
 10
306.8990997685
 20
295.0091588791
 40
21.6666666666
100
AcDbArc
 50
146.3171467228
 51
164.3197527349
  0
ARC
  5
492
100
AcDbEntity
  8
0
100
AcDbCircle
 62
7
  6
CONTINUOUS
 10
272.7741265084
 20
329.1341321392
 40
21.6666666666
100
AcDbArc
 50
285.6802472651
 51
303.6828532772
  0
ARC
  5
493
100
AcDbEntity
  8
0
100
AcDbCircle
 62
7
  6
CONTINUOUS
 10
293.8143555262
 20
315.1725754882
 40
21.6666666666
100
AcDbArc
 50
176.9978405699
 51
187.1860444241
  0
ARC
  5
494
100
AcDbEntity
  8
0
100
AcDbCircle
 62
7
  6
CONTINUOUS
 10
271.6952101473
 20
329.8550410038
 40
21.6666666666
100
AcDbArc
 50
168.8171467228
 51
186.8197527349
  0
ARC
  5
495
100
AcDbEntity
  8
RUNDUNGEN
100
AcDbCircle
 62
7
  6
CONTINUOUS
 10
307.6200086331
 20
293.9302425179
 40
16.6666666666
100
AcDbArc
 50
269.7282978974
 51
287.2557727191
  0
ARC
  5
496
100
AcDbEntity
  8
RUNDUNGEN
100
AcDbCircle
 62
7
  6
CONTINUOUS
 10
292.9375431175
 20
316.0493878968
 40
16.6666666666
100
AcDbArc
 50
267.6204782948
 51
278.7473672409
  0
ARC
  5
497
100
AcDbEntity
  8
RUNDUNGEN
100
AcDbCircle
 62
7
  6
CONTINUOUS
 10
306.8990997685
 20
295.0091588791
 40
16.6666666666
100
AcDbArc
 50
140.2442272809
 51
157.7717021026
  0
ARC
  5
498
100
AcDbEntity
  8
RUNDUNGEN
100
AcDbCircle
 62
7
  6
CONTINUOUS
 10
272.7741265084
 20
329.1341321392
 40
16.6666666666
100
AcDbArc
 50
292.2282978974
 51
309.7557727191
  0
ARC
  5
499
100
AcDbEntity
  8
RUNDUNGEN
100
AcDbCircle
 62
7
  6
CONTINUOUS
 10
293.8143555262
 20
315.1725754882
 40
16.6666666666
100
AcDbArc
 50
171.2526327591
 51
182.3795217052
  0
ARC
  5
49A
100
AcDbEntity
  8
RUNDUNGEN
100
AcDbCircle
 62
7
  6
CONTINUOUS
 10
271.6952101473
 20
329.8550410038
 40
16.6666666666
100
AcDbArc
 50
162.7442272809
 51
180.2717021026
  0
ARC
  5
49B
100
AcDbEntity
  8
0
100
AcDbCircle
 62
7
  6
CONTINUOUS
 10
290.8526834554
 20
299.5136345736
 40
5.0
100
AcDbArc
 50
164.3197527349
 51
262.8139555759
  0
ARC
  5
49C
100
AcDbEntity
  8
0
100
AcDbCircle
 62
7
  6
CONTINUOUS
 10
277.2786022029
 20
313.087715826
 40
5.0
100
AcDbArc
 50
187.1860444241
 51
285.6802472651
  0
ARC
  5
49D
100
AcDbEntity
  8
RUNDUNGEN
100
AcDbCircle
 62
7
  6
CONTINUOUS
 10
292.1641995481
 20
307.2665577307
 40
2.5
100
AcDbArc
 50
320.2442272809
 51
45.0
  0
ARC
  5
49E
100
AcDbEntity
  8
RUNDUNGEN
100
AcDbCircle
 62
7
  6
CONTINUOUS
 10
285.03152536
 20
314.3992319188
 40
2.5
100
AcDbArc
 50
45.0
 51
129.7557727191
  0
ARC
  5
49F
100
AcDbEntity
  8
RUNDUNGEN
100
AcDbCircle
 62
7
  6
CONTINUOUS
 10
295.7763319003
 20
297.5998425721
 40
2.0
100
AcDbArc
 50
27.0
 51
98.7473672409
  0
ARC
  5
4A0
100
AcDbEntity
  8
RUNDUNGEN
100
AcDbCircle
 62
7
  6
CONTINUOUS
 10
275.3648102014
 20
318.011364271
 40
2.0
100
AcDbArc
 50
351.2526327591
 51
63.0
  0
ENDSEC
  0
SECTION
  2
OBJECTS
  0
DICTIONARY
  5
C
100
AcDbDictionary
280
0
281
1
  3
ACAD_GROUP
350
D
  3
ACAD_MLINESTYLE
350
17
  3
ACAD_LAYOUT
350
1A
  3
ACAD_PLOTSETTINGS
350
19
  3
ACAD_PLOTSTYLENAME
350
E
  0
DICTIONARY
  5
D
102
{ACAD_REACTORS
330
C
102
}
100
AcDbDictionary
280
0
281
1
  0
ACDBDICTIONARYWDFLT
  5
E
102
{ACAD_REACTORS
330
C
102
}
100
AcDbDictionary
281
1
  3
Normal
350
F
100
AcDbDictionaryWithDefault
340
F
  0
DICTIONARY
  5
17
102
{ACAD_REACTORS
330
C
102
}
100
AcDbDictionary
280
0
281
1
  3
Standard
350
18
  0
DICTIONARY
  5
19
102
{ACAD_REACTORS
330
C
102
}
100
AcDbDictionary
281
1
  0
DICTIONARY
  5
1A
102
{ACAD_REACTORS
330
C
102
}
100
AcDbDictionary
281
1
  3
Model
350
4A1
  3
Layout1
350
4A2
  0
ACDBPLACEHOLDER
  5
F
102
{ACAD_REACTORS
330
E
102
}
  0
MLINESTYLE
  5
18
102
{ACAD_REACTORS
330
17
102
}
100
AcDbMlineStyle
  2
STANDARD
 70
0
  3

 62
256
 51
90.0
 52
90.0
 71
2
 49
0.5
 62
256
  6
BYLAYER
 49
-0.5
 62
256
  6
BYLAYER
  0
LAYOUT
  5
4A1
102
{ACAD_REACTORS
330
1A
102
}
100
AcDbPlotSettings
  1

  2
none_device
  4
ANSI_C_(22.00_x_17.00_Inches)
  6

 40
0.0
 41
0.0
 42
0.0
 43
0.0
 44
558.8
 45
431.8
 46
0.0
 47
0.0
 48
0.0
 49
0.0
140
0.0
141
0.0
142
1.0
143
1.0
 70
1024
 72
1
 73
0
 74
0
  7

 75
0
147
1.0
148
0.0
149
0.0
100
AcDbLayout
  1
Model
 70
0
 71
0
 10
0.0
 20
0.0
 11
558.8
 21
431.8
 12
0.0
 22
0.0
 32
0.0
 14
0.0
 24
0.0
 34
0.0
 15
0.0
 25
0.0
 35
0.0
146
0.0
 13
0.0
 23
0.0
 33
0.0
 16
1.0
 26
0.0
 36
0.0
 17
0.0
 27
1.0
 37
0.0
 76
0
330
216
345
0
346
0
  0
LAYOUT
  5
4A2
102
{ACAD_REACTORS
330
1A
102
}
100
AcDbPlotSettings
  1

  2
none_device
  4
ANSI_C_(22.00_x_17.00_Inches)
  6

 40
0.0
 41
0.0
 42
0.0
 43
0.0
 44
558.8
 45
431.8
 46
0.0
 47
0.0
 48
0.0
 49
0.0
140
0.0
141
0.0
142
1.0
143
1.0
 70
0
 72
1
 73
0
 74
0
  7

 75
0
147
1.0
148
0.0
149
0.0
100
AcDbLayout
  1
Layout1
 70
0
 71
1
 10
0.0
 20
0.0
 11
558.8
 21
431.8
 12
0.0
 22
0.0
 32
0.0
 14
0.0
 24
0.0
 34
0.0
 15
0.0
 25
0.0
 35
0.0
146
0.0
 13
0.0
 23
0.0
 33
0.0
 16
1.0
 26
0.0
 36
0.0
 17
0.0
 27
1.0
 37
0.0
 76
0
330
217
345
0
346
0
  0
ENDSEC
  0
EOF
