  0
SECTION
  2
HEADER
  9
$ACADVER
  1
AC1018
  9
$ACADMAINTVER
 70
     0
  9
$DWGCODEPAGE
  3
ANSI_1252
  9
$INSBASE
 10
0.0
 20
0.0
 30
0.0
  9
$EXTMIN
 10
-9.61232638183497
 20
88.32773591983268
 30
0.0
  9
$EXTMAX
 10
365.9860863454973
 20
353.9023711815827
 30
0.0
  9
$LIMMIN
 10
-9.61232638183497
 20
88.32773591983268
  9
$LIMMAX
 10
365.9860863454973
 20
353.9023711815827
  9
$ORTHOMODE
 70
     1
  9
$REGENMODE
 70
     1
  9
$FILLMODE
 70
     1
  9
$QTEXTMODE
 70
     0
  9
$MIRRTEXT
 70
     0
  9
$LTSCALE
 40
1.0
  9
$ATTMODE
 70
     1
  9
$TEXTSIZE
 40
2.5
  9
$TRACEWID
 40
1.0
  9
$TEXTSTYLE
  7
Standard
  9
$CLAYER
  8
0
  9
$CELTYPE
  6
ByLayer
  9
$CECOLOR
 62
     7
  9
$CELTSCALE
 40
1.0
  9
$DISPSILH
 70
     0
  9
$DIMSCALE
 40
1.0
  9
$DIMASZ
 40
0.18
  9
$DIMEXO
 40
0.0625
  9
$DIMDLI
 40
0.38
  9
$DIMRND
 40
0.0000001
  9
$DIMDLE
 40
0.0
  9
$DIMEXE
 40
0.18
  9
$DIMTP
 40
0.0
  9
$DIMTM
 40
0.0
  9
$DIMTXT
 40
0.18
  9
$DIMCEN
 40
0.09
  9
$DIMTSZ
 40
0.0
  9
$DIMTOL
 70
     0
  9
$DIMLIM
 70
     0
  9
$DIMTIH
 70
     1
  9
$DIMTOH
 70
     1
  9
$DIMSE1
 70
     0
  9
$DIMSE2
 70
     0
  9
$DIMTAD
 70
     0
  9
$DIMZIN
 70
     0
  9
$DIMBLK
  1

  9
$DIMASO
 70
     1
  9
$DIMSHO
 70
     1
  9
$DIMPOST
  1

  9
$DIMAPOST
  1

  9
$DIMALT
 70
     0
  9
$DIMALTD
 70
     2
  9
$DIMALTF
 40
25.4
  9
$DIMLFAC
 40
1.0
  9
$DIMTOFL
 70
     0
  9
$DIMTVP
 40
0.0
  9
$DIMTIX
 70
     0
  9
$DIMSOXD
 70
     0
  9
$DIMSAH
 70
     0
  9
$DIMBLK1
  1

  9
$DIMBLK2
  1

  9
$DIMSTYLE
  2
Standard
  9
$DIMCLRD
 70
     0
  9
$DIMCLRE
 70
     0
  9
$DIMCLRT
 70
     0
  9
$DIMTFAC
 40
1.0
  9
$DIMGAP
 40
0.09
  9
$DIMJUST
 70
     0
  9
$DIMSD1
 70
     0
  9
$DIMSD2
 70
     0
  9
$DIMTOLJ
 70
     1
  9
$DIMTZIN
 70
     0
  9
$DIMALTZ
 70
     0
  9
$DIMALTTZ
 70
     0
  9
$DIMUPT
 70
     0
  9
$DIMDEC
 70
     4
  9
$DIMTDEC
 70
     4
  9
$DIMALTU
 70
     2
  9
$DIMALTTD
 70
     2
  9
$DIMTXSTY
  7
_TCW_TXTSTY_1
  9
$DIMAUNIT
 70
     0
  9
$DIMADEC
 70
     4
  9
$DIMALTRND
 40
0.0000001
  9
$DIMAZIN
 70
     0
  9
$DIMDSEP
 70
    46
  9
$DIMATFIT
 70
     3
  9
$DIMFRAC
 70
     0
  9
$DIMLDRBLK
  1

  9
$DIMLUNIT
 70
     2
  9
$DIMLWD
 70
    -2
  9
$DIMLWE
 70
    -2
  9
$DIMTMOVE
 70
     0
  9
$LUNITS
 70
     2
  9
$LUPREC
 70
     4
  9
$SKETCHINC
 40
1.0
  9
$FILLETRAD
 40
0.0
  9
$AUNITS
 70
     0
  9
$AUPREC
 70
     0
  9
$MENU
  1
.
  9
$ELEVATION
 40
0.0
  9
$PELEVATION
 40
0.0
  9
$THICKNESS
 40
0.0
  9
$LIMCHECK
 70
     0
  9
$CHAMFERA
 40
0.5
  9
$CHAMFERB
 40
0.5
  9
$CHAMFERC
 40
1.0
  9
$CHAMFERD
 40
0.0
  9
$SKPOLY
 70
     0
  9
$TDCREATE
 40
2454839.562669213
  9
$TDUCREATE
 40
2454839.521002546
  9
$TDUPDATE
 40
2454839.562669225
  9
$TDUUPDATE
 40
2454839.521002558
  9
$TDINDWG
 40
0.0
  9
$TDUSRTIMER
 40
0.0
  9
$USRTIMER
 70
     1
  9
$ANGBASE
 50
0.0
  9
$ANGDIR
 70
     0
  9
$PDMODE
 70
     0
  9
$PDSIZE
 40
0.0
  9
$PLINEWID
 40
0.0
  9
$SPLFRAME
 70
     0
  9
$SPLINETYPE
 70
     6
  9
$SPLINESEGS
 70
     8
  9
$HANDSEED
  5
61C
  9
$SURFTAB1
 70
     6
  9
$SURFTAB2
 70
     6
  9
$SURFTYPE
 70
     6
  9
$SURFU
 70
     6
  9
$SURFV
 70
     6
  9
$UCSBASE
  2

  9
$UCSNAME
  2

  9
$UCSORG
 10
0.0
 20
0.0
 30
0.0
  9
$UCSXDIR
 10
1.0
 20
0.0
 30
0.0
  9
$UCSYDIR
 10
0.0
 20
1.0
 30
0.0
  9
$UCSORTHOREF
  2

  9
$UCSORTHOVIEW
 70
     0
  9
$UCSORGTOP
 10
0.0
 20
0.0
 30
0.0
  9
$UCSORGBOTTOM
 10
0.0
 20
0.0
 30
0.0
  9
$UCSORGLEFT
 10
0.0
 20
0.0
 30
0.0
  9
$UCSORGRIGHT
 10
0.0
 20
0.0
 30
0.0
  9
$UCSORGFRONT
 10
0.0
 20
0.0
 30
0.0
  9
$UCSORGBACK
 10
0.0
 20
0.0
 30
0.0
  9
$PUCSBASE
  2

  9
$PUCSNAME
  2

  9
$PUCSORG
 10
0.0
 20
0.0
 30
0.0
  9
$PUCSXDIR
 10
1.0
 20
0.0
 30
0.0
  9
$PUCSYDIR
 10
0.0
 20
1.0
 30
0.0
  9
$PUCSORTHOREF
  2

  9
$PUCSORTHOVIEW
 70
     0
  9
$PUCSORGTOP
 10
0.0
 20
0.0
 30
0.0
  9
$PUCSORGBOTTOM
 10
0.0
 20
0.0
 30
0.0
  9
$PUCSORGLEFT
 10
0.0
 20
0.0
 30
0.0
  9
$PUCSORGRIGHT
 10
0.0
 20
0.0
 30
0.0
  9
$PUCSORGFRONT
 10
0.0
 20
0.0
 30
0.0
  9
$PUCSORGBACK
 10
0.0
 20
0.0
 30
0.0
  9
$USERI1
 70
     0
  9
$USERI2
 70
     0
  9
$USERI3
 70
     0
  9
$USERI4
 70
     0
  9
$USERI5
 70
     0
  9
$USERR1
 40
0.0
  9
$USERR2
 40
0.0
  9
$USERR3
 40
0.0
  9
$USERR4
 40
0.0
  9
$USERR5
 40
0.0
  9
$WORLDVIEW
 70
     1
  9
$SHADEDGE
 70
     3
  9
$SHADEDIF
 70
    70
  9
$TILEMODE
 70
     1
  9
$MAXACTVP
 70
    64
  9
$PINSBASE
 10
0.0
 20
0.0
 30
0.0
  9
$PLIMCHECK
 70
     0
  9
$PEXTMIN
 10
-2.97407440810383
 20
-13.33206671995879
 30
0.0
  9
$PEXTMAX
 10
294.0259255918962
 20
196.6679332800412
 30
0.0
  9
$PLIMMIN
 10
-2.97407440810383
 20
-13.33206671995879
  9
$PLIMMAX
 10
294.0259255918962
 20
196.6679332800412
  9
$UNITMODE
 70
     0
  9
$VISRETAIN
 70
     1
  9
$PLINEGEN
 70
     0
  9
$PSLTSCALE
 70
     1
  9
$TREEDEPTH
 70
  3020
  9
$CMLSTYLE
  2
Standard
  9
$CMLJUST
 70
     0
  9
$CMLSCALE
 40
1.0
  9
$PROXYGRAPHICS
 70
     1
  9
$MEASUREMENT
 70
     0
  9
$CELWEIGHT
370
    -1
  9
$ENDCAPS
280
     0
  9
$JOINSTYLE
280
     0
  9
$LWDISPLAY
290
     0
  9
$INSUNITS
 70
     1
  9
$HYPERLINKBASE
  1

  9
$STYLESHEET
  1

  9
$XEDIT
290
     1
  9
$CEPSNTYPE
380
     0
  9
$PSTYLEMODE
290
     1
  9
$FINGERPRINTGUID
  2
{ED27FBE6-5392-40F6-B2C8-EE8D00198EA8}
  9
$VERSIONGUID
  2
{FAEB1C32-E019-11D5-929B-00C0DF256EC4}
  9
$EXTNAMES
290
     1
  9
$PSVPSCALE
 40
0.0
  9
$OLESTARTUP
290
     0
  9
$SORTENTS
280
   127
  9
$INDEXCTL
280
     0
  9
$HIDETEXT
280
     1
  9
$XCLIPFRAME
290
     0
  9
$HALOGAP
280
     0
  9
$OBSCOLOR
 70
   257
  9
$OBSLTYPE
280
     0
  9
$INTERSECTIONDISPLAY
280
     0
  9
$INTERSECTIONCOLOR
 70
   257
  9
$DIMASSOC
280
     2
  9
$PROJECTNAME
  1

  0
ENDSEC
  0
SECTION
  2
CLASSES
  0
CLASS
  1
ACDBDICTIONARYWDFLT
  2
AcDbDictionaryWithDefault
  3
ObjectDBX Classes
 90
        0
 91
        3
280
     0
281
     0
  0
CLASS
  1
VISUALSTYLE
  2
AcDbVisualStyle
  3
ObjectDBX Classes
 90
     4095
 91
        3
280
     0
281
     0
  0
CLASS
  1
TCOPTIONALDATA
  2
TcOptionalData
  3
ExTcadCustObjs|Description: TurboCAD extension data object
 90
        0
 91
        3
280
     0
281
     0
  0
ENDSEC
  0
SECTION
  2
TABLES
  0
TABLE
  2
VPORT
  5
8
330
0
100
AcDbSymbolTable
 70
     1
  0
VPORT
  5
29
330
8
100
AcDbSymbolTableRecord
100
AcDbViewportTableRecord
  2
*Active
 70
     0
 10
0.0
 20
0.0
 11
1.0
 21
1.0
 12
0.0
 22
0.0
 13
0.0
 23
0.0
 14
10.0
 24
10.0
 15
10.0
 25
10.0
 16
0.0
 26
0.0
 36
1.0
 17
215.6588276036041
 27
161.8272312446572
 37
0.0
 40
190.3976859485724
 41
1.972704714640199
 42
50.0
 43
0.0
 44
0.0
 50
0.0
 51
0.0
 71
     0
 72
   100
 73
     1
 74
     3
 75
     0
 76
     0
 77
     0
 78
     0
281
     0
 65
     1
110
0.0
120
0.0
130
0.0
111
1.0
121
0.0
131
0.0
112
0.0
122
1.0
132
0.0
 79
     0
146
0.0
  0
ENDTAB
  0
TABLE
  2
LTYPE
  5
5
330
0
100
AcDbSymbolTable
 70
    17
  0
LTYPE
  5
14
330
5
100
AcDbSymbolTableRecord
100
AcDbLinetypeTableRecord
  2
ByBlock
 70
     0
  3

 72
    65
 73
     0
 40
0.0
  0
LTYPE
  5
15
330
5
100
AcDbSymbolTableRecord
100
AcDbLinetypeTableRecord
  2
ByLayer
 70
     0
  3

 72
    65
 73
     0
 40
0.0
  0
LTYPE
  5
16
330
5
100
AcDbSymbolTableRecord
100
AcDbLinetypeTableRecord
  2
Continuous
 70
     0
  3
Solid line
 72
    65
 73
     0
 40
0.0
  0
LTYPE
  5
40
330
5
100
AcDbSymbolTableRecord
100
AcDbLinetypeTableRecord
  2
Durchgehend
 70
     0
  3
Durchgehend
 72
    65
 73
     0
 40
0.0
  0
LTYPE
  5
41
330
5
100
AcDbSymbolTableRecord
100
AcDbLinetypeTableRecord
  2
Rand
 70
     0
  3
Rand
 72
    65
 73
     6
 40
1.75
 49
0.5
 74
     0
 49
-0.25
 74
     0
 49
0.5
 74
     0
 49
-0.25
 74
     0
 49
0.0
 74
     0
 49
-0.25
 74
     0
  0
LTYPE
  5
42
330
5
100
AcDbSymbolTableRecord
100
AcDbLinetypeTableRecord
  2
Mitte
 70
     0
  3
Mitte
 72
    65
 73
     4
 40
2.0
 49
1.25
 74
     0
 49
-0.25
 74
     0
 49
0.25
 74
     0
 49
-0.25
 74
     0
  0
LTYPE
  5
43
330
5
100
AcDbSymbolTableRecord
100
AcDbLinetypeTableRecord
  2
Strichpunkt
 70
     0
  3
Strichpunkt
 72
    65
 73
     4
 40
1.0
 49
0.5
 74
     0
 49
-0.25
 74
     0
 49
0.0
 74
     0
 49
-0.25
 74
     0
  0
LTYPE
  5
44
330
5
100
AcDbSymbolTableRecord
100
AcDbLinetypeTableRecord
  2
Gestrichelt
 70
     0
  3
Gestrichelt
 72
    65
 73
     2
 40
0.75
 49
0.5
 74
     0
 49
-0.25
 74
     0
  0
LTYPE
  5
45
330
5
100
AcDbSymbolTableRecord
100
AcDbLinetypeTableRecord
  2
Teilen
 70
     0
  3
Teilen
 72
    65
 73
     6
 40
1.25
 49
0.5
 74
     0
 49
-0.25
 74
     0
 49
0.0
 74
     0
 49
-0.25
 74
     0
 49
0.0
 74
     0
 49
-0.25
 74
     0
  0
LTYPE
  5
46
330
5
100
AcDbSymbolTableRecord
100
AcDbLinetypeTableRecord
  2
Punkt
 70
     0
  3
Punkt
 72
    65
 73
     2
 40
0.25
 49
0.0
 74
     0
 49
-0.25
 74
     0
  0
LTYPE
  5
47
330
5
100
AcDbSymbolTableRecord
100
AcDbLinetypeTableRecord
  2
Verdeckt
 70
     0
  3
Verdeckt
 72
    65
 73
     2
 40
0.375
 49
0.25
 74
     0
 49
-0.125
 74
     0
  0
LTYPE
  5
48
330
5
100
AcDbSymbolTableRecord
100
AcDbLinetypeTableRecord
  2
$INVISIBLE
 70
     0
  3
$INVISIBLE
 72
    65
 73
     2
 40
200.0
 49
-100.0
 74
     0
 49
-100.0
 74
     0
  0
LTYPE
  5
49
330
5
100
AcDbSymbolTableRecord
100
AcDbLinetypeTableRecord
  2
HIDDEN
 70
     0
  3
HIDDEN
 72
    65
 73
     2
 40
9.524999999999999
 49
6.35
 74
     0
 49
-3.175
 74
     0
  0
LTYPE
  5
4A
330
5
100
AcDbSymbolTableRecord
100
AcDbLinetypeTableRecord
  2
DOT
 70
     0
  3
DOT
 72
    65
 73
     2
 40
0.25
 49
0.0
 74
     0
 49
-0.25
 74
     0
  0
LTYPE
  5
4B
330
5
100
AcDbSymbolTableRecord
100
AcDbLinetypeTableRecord
  2
CENTER
 70
     0
  3
CENTER
 72
    65
 73
     4
 40
50.8
 49
31.75
 74
     0
 49
-6.35
 74
     0
 49
6.35
 74
     0
 49
-6.35
 74
     0
  0
LTYPE
  5
4C
330
5
100
AcDbSymbolTableRecord
100
AcDbLinetypeTableRecord
  2
DASHDOT
 70
     0
  3
DASHDOT
 72
    65
 73
     4
 40
1.0
 49
0.5
 74
     0
 49
-0.25
 74
     0
 49
0.0
 74
     0
 49
-0.25
 74
     0
  0
LTYPE
  5
4D
330
5
100
AcDbSymbolTableRecord
100
AcDbLinetypeTableRecord
  2
DASHED
 70
     0
  3
DASHED
 72
    65
 73
     2
 40
0.75
 49
0.5
 74
     0
 49
-0.25
 74
     0
  0
LTYPE
  5
4E
330
5
100
AcDbSymbolTableRecord
100
AcDbLinetypeTableRecord
  2
$SNAPEXT
 70
     0
  3
$SNAPEXT
 72
    65
 73
     2
 40
0.04
 49
0.02
 74
     0
 49
-0.02
 74
     0
  0
LTYPE
  5
4F
330
5
100
AcDbSymbolTableRecord
100
AcDbLinetypeTableRecord
  2
$AUXILIARY
 70
     0
  3
$AUXILIARY
 72
    65
 73
     2
 40
0.1
 49
0.05
 74
     0
 49
-0.05
 74
     0
  0
ENDTAB
  0
TABLE
  2
LAYER
  5
2
330
0
100
AcDbSymbolTable
 70
     5
  0
LAYER
  5
10
330
2
100
AcDbSymbolTableRecord
100
AcDbLayerTableRecord
  2
0
 70
     0
 62
     7
  6
Continuous
370
     0
390
F
  0
LAYER
  5
50
330
2
100
AcDbSymbolTableRecord
100
AcDbLayerTableRecord
  2
Main lines
 70
     0
 62
     1
420
 16711680
  6
Continuous
370
    50
390
F
  0
LAYER
  5
51
330
2
100
AcDbSymbolTableRecord
100
AcDbLayerTableRecord
  2
AS
 70
     0
 62
     7
  6
Continuous
370
     0
390
F
  0
LAYER
  5
52
330
2
100
AcDbSymbolTableRecord
100
AcDbLayerTableRecord
  2
CENTER
 70
     0
 62
     7
  6
CENTER
370
     0
390
F
  0
LAYER
  5
53
330
2
100
AcDbSymbolTableRecord
100
AcDbLayerTableRecord
  2
MATEN
 70
     0
 62
     7
  6
Continuous
370
     0
390
F
  0
ENDTAB
  0
TABLE
  2
STYLE
  5
3
330
0
100
AcDbSymbolTable
 70
     5
  0
STYLE
  5
11
330
3
100
AcDbSymbolTableRecord
100
AcDbTextStyleTableRecord
  2
Standard
 70
     0
 40
0.0
 41
1.0
 50
0.0
 71
     0
 42
0.2
  3
txt
  4

  0
STYLE
  5
57
330
3
100
AcDbSymbolTableRecord
100
AcDbTextStyleTableRecord
  2
ISO Proportional
 70
     0
 40
0.0
 41
1.0
 50
0.0
 71
     0
 42
2.5
  3
ISOCP.SHX
  4

  0
STYLE
  5
58
330
3
100
AcDbSymbolTableRecord
100
AcDbTextStyleTableRecord
  2

 70
     1
 40
0.0
 41
1.0
 50
0.0
 71
     0
 42
2.5
  3
LTYPESHP.SHX
  4

  0
STYLE
  5
59
330
3
100
AcDbSymbolTableRecord
100
AcDbTextStyleTableRecord
  2
YUSIMPLE
 70
     0
 40
0.0
 41
1.0
 50
0.0
 71
     0
 42
2.5
  3
YUSIMPLE.SHX
  4

  0
STYLE
  5
5A
330
3
100
AcDbSymbolTableRecord
100
AcDbTextStyleTableRecord
  2
_TCW_TXTSTY_1
 70
     0
 40
0.0
 41
1.0
 50
0.0
 71
     0
 42
0.6000000238418579
  3
TXT.SHX
  4

  0
ENDTAB
  0
TABLE
  2
VIEW
  5
6
330
0
100
AcDbSymbolTable
 70
     3
  0
VIEW
  5
54
330
6
100
AcDbSymbolTableRecord
100
AcDbViewTableRecord
  2
Ansicht_0
 70
     0
 40
210.0
 10
148.5
 20
105.0
 41
297.0
 11
0.0
 21
0.0
 31
1.0
 12
0.0
 22
0.0
 32
0.0
 42
50.0
 43
0.0
 44
0.0
 50
0.0
 71
     0
281
     0
 72
     0
  0
VIEW
  5
55
330
6
100
AcDbSymbolTableRecord
100
AcDbViewTableRecord
  2
View_1
 70
     0
 40
201.3931070680139
 10
717.1860183610022
 20
392.4295019556221
 41
280.2283967588442
 11
0.0
 21
0.0
 31
1.0
 12
0.0
 22
0.0
 32
0.0
 42
50.0
 43
0.0
 44
0.0
 50
0.0
 71
     0
281
     0
 72
     0
  0
VIEW
  5
56
330
6
100
AcDbSymbolTableRecord
100
AcDbViewTableRecord
  2
View_2
 70
     0
 40
201.393107068014
 10
717.186022139866
 20
392.4295042396324
 41
280.2283967588442
 11
0.0
 21
0.0
 31
1.0
 12
0.0
 22
0.0
 32
0.0
 42
50.0
 43
0.0
 44
0.0
 50
0.0
 71
     0
281
     0
 72
     0
  0
ENDTAB
  0
TABLE
  2
UCS
  5
7
330
0
100
AcDbSymbolTable
 70
     0
  0
ENDTAB
  0
TABLE
  2
APPID
  5
9
330
0
100
AcDbSymbolTable
 70
     2
  0
APPID
  5
12
330
9
100
AcDbSymbolTableRecord
100
AcDbRegAppTableRecord
  2
ACAD
 70
     0
  0
APPID
  5
3F
330
9
100
AcDbSymbolTableRecord
100
AcDbRegAppTableRecord
  2
TCAD
 70
     0
  0
ENDTAB
  0
TABLE
  2
DIMSTYLE
  5
A
330
0
100
AcDbSymbolTable
 70
     2
100
AcDbDimStyleTable
  0
DIMSTYLE
105
27
330
A
100
AcDbSymbolTableRecord
100
AcDbDimStyleTableRecord
  2
Standard
 70
     0
 45
0.0000001
148
0.0000001
179
     4
340
5A
  0
DIMSTYLE
105
5B
330
A
100
AcDbSymbolTableRecord
100
AcDbDimStyleTableRecord
  2
ISO-25
 70
     0
 41
2.5
 42
0.625
 43
3.75
 44
1.25
 45
0.0000001
 73
     0
 74
     0
 77
     1
 78
     8
140
2.5
143
0.03937007874016
147
0.625
148
0.0000001
171
     3
172
     1
178
     1
179
     2
271
     2
272
     2
274
     3
283
     0
284
     8
340
5A
  0
ENDTAB
  0
TABLE
  2
BLOCK_RECORD
  5
1
330
0
100
AcDbSymbolTable
 70
     2
  0
BLOCK_RECORD
  5
1F
330
1
100
AcDbSymbolTableRecord
100
AcDbBlockTableRecord
  2
*Model_Space
340
22
  0
BLOCK_RECORD
  5
1B
330
1
100
AcDbSymbolTableRecord
100
AcDbBlockTableRecord
  2
*Paper_Space
340
1E
  0
BLOCK_RECORD
  5
3B
330
1
100
AcDbSymbolTableRecord
100
AcDbBlockTableRecord
  2
*Paper_Space1
340
3C
  0
ENDTAB
  0
ENDSEC
  0
SECTION
  2
BLOCKS
  0
BLOCK
  5
20
330
1F
100
AcDbEntity
  8
0
100
AcDbBlockBegin
  2
*Model_Space
 70
     0
 71
     0
 10
0.0
 20
0.0
 30
0.0
  3
*Model_Space
  1

  0
ENDBLK
  5
21
330
1F
100
AcDbEntity
  8
0
100
AcDbBlockEnd
  0
BLOCK
  5
1C
330
1B
100
AcDbEntity
 67
     1
  8
0
100
AcDbBlockBegin
  2
*Paper_Space
 70
     0
 71
     0
 10
0.0
 20
0.0
 30
0.0
  3
*Paper_Space
  1

  0
ENDBLK
  5
1D
330
1B
100
AcDbEntity
 67
     1
  8
0
100
AcDbBlockEnd
  0
BLOCK
  5
3D
330
3B
100
AcDbEntity
  8
0
100
AcDbBlockBegin
  2
*Paper_Space1
 70
     0
 71
     0
 10
0.0
 20
0.0
 30
0.0
  3
*Paper_Space1
  1

  0
VIEWPORT
  5
61A
330
3B
100
AcDbEntity
  8
0
100
AcDbViewport
 10
140.0218848823794
 20
101.9028953504165
 30
0.0
 40
280.2283957583874
 41
201.3931063490108
 68
     1
 69
     1
 12
140.0218848823794
 22
101.9028953504165
 13
0.0
 23
0.0
 14
5.0
 24
5.0
 15
5.0
 25
5.0
 16
0.0
 26
0.0
 36
1.0
 17
0.0
 27
0.0
 37
0.0
 42
50.0
 43
0.0
 44
0.0
 45
201.3931063490108
 50
0.0
 51
0.0
 72
  1000
 90
    32800
  1

281
     0
 71
     1
 74
     0
110
0.0
120
0.0
130
0.0
111
1.0
121
0.0
131
0.0
112
0.0
122
1.0
132
0.0
 79
     0
146
0.0
170
     0
  0
ENDBLK
  5
3E
330
3B
100
AcDbEntity
  8
0
100
AcDbBlockEnd
  0
ENDSEC
  0
SECTION
  2
ENTITIES
  0
ARC
  5
5E
102
{ACAD_XDICTIONARY
360
5C
102
}
330
1F
100
AcDbEntity
  8
Main lines
 48
0.75
100
AcDbCircle
 10
171.6955843644008
 20
252.3262312446573
 30
0.0
 40
2.500000000000011
100
AcDbArc
 50
4.932223647218085
 51
90.0
  0
ARC
  5
61
102
{ACAD_XDICTIONARY
360
5F
102
}
330
1F
100
AcDbEntity
  8
Main lines
 48
0.75
100
AcDbCircle
 10
165.5632555121555
 20
259.0465910562006
 30
0.0
 40
21.66666666000003
100
AcDbArc
 50
-50.83584674928631
 51
-41.93392156816345
  0
ARC
  5
64
102
{ACAD_XDICTIONARY
360
62
102
}
330
1F
100
AcDbEntity
  8
Main lines
 48
0.75
100
AcDbCircle
 10
190.7912781052821
 20
253.9741287263052
 30
0.0
 40
21.66666000000001
100
AcDbArc
 50
-166.8728274203951
 51
-151.9012776409808
  0
ARC
  5
67
102
{ACAD_XDICTIONARY
360
65
102
}
330
1F
100
AcDbEntity
  8
Main lines
 48
0.75
100
AcDbCircle
 10
176.0889945043318
 20
246.1242616909454
 30
0.0
 40
5.000000000000009
100
AcDbArc
 50
-151.9012776409812
 51
-50.83584674928603
  0
LINE
  5
6A
102
{ACAD_XDICTIONARY
360
68
102
}
330
1F
100
AcDbEntity
  8
Main lines
 48
0.75
100
AcDbLine
 10
175.59640871998
 20
247.1262312446573
 30
0.0
 11
176.8964087199798
 21
246.8262312446573
 31
0.0
  0
ARC
  5
6D
102
{ACAD_XDICTIONARY
360
6B
102
}
330
1F
100
AcDbEntity
  8
Main lines
 48
0.75
100
AcDbCircle
 10
168.7169349197182
 20
248.8262312446572
 30
0.0
 40
1.000000000000028
100
AcDbArc
 50
13.1271725796044
 51
90.0
  0
ARC
  5
70
102
{ACAD_XDICTIONARY
360
6E
102
}
330
1F
100
AcDbEntity
  8
Main lines
 48
0.75
100
AcDbCircle
 10
190.7912781052821
 20
253.9741287263052
 30
0.0
 40
16.66666600000002
100
AcDbArc
 50
-175.0677763527817
 51
-155.7402585165937
  0
LINE
  5
73
102
{ACAD_XDICTIONARY
360
71
102
}
330
1F
100
AcDbEntity
  8
Main lines
 48
0.75
100
AcDbLine
 10
168.7169349197183
 20
249.8262312446572
 30
0.0
 11
166.24640871998
 21
249.8262312446572
 31
0.0
  0
LINE
  5
76
102
{ACAD_XDICTIONARY
360
74
102
}
330
1F
100
AcDbEntity
  8
Main lines
 48
0.75
100
AcDbLine
 10
171.6955843644008
 20
254.8262312446573
 30
0.0
 11
166.24640871998
 21
254.8262312446573
 31
0.0
  0
ARC
  5
79
102
{ACAD_XDICTIONARY
360
77
102
}
330
1F
100
AcDbEntity
  8
Main lines
 48
0.75
100
AcDbCircle
 10
165.5632555121555
 20
259.0465910562006
 30
0.0
 40
16.66666000000001
100
AcDbArc
 50
-47.15718023474976
 51
-36.06933346639656
  0
LINE
  5
7C
102
{ACAD_XDICTIONARY
360
7A
102
}
330
1F
100
AcDbEntity
  8
Main lines
 48
0.75
100
AcDbLine
 10
188.7742727652633
 20
247.5200493045739
 30
0.0
 11
181.2696464433558
 21
249.9584502094295
 31
0.0
  0
ARC
  5
7F
102
{ACAD_XDICTIONARY
360
7D
102
}
330
1F
100
AcDbEntity
  8
Main lines
 48
0.75
100
AcDbCircle
 10
180.651612454606
 20
248.0563371768392
 30
0.0
 40
1.999999999999989
100
AcDbArc
 50
72.00000000000102
 51
143.9306665336044
  0
LINE
  5
82
102
{ACAD_XDICTIONARY
360
80
102
}
330
1F
100
AcDbEntity
  8
Main lines
 48
0.75
100
AcDbLine
 10
187.2291877933885
 20
242.7647667230981
 30
0.0
 11
181.6814361611782
 21
244.5673404982115
 31
0.0
  0
ARC
  5
85
102
{ACAD_XDICTIONARY
360
83
102
}
330
1F
100
AcDbEntity
  8
Main lines
 48
0.75
100
AcDbCircle
 10
141.7015393336953
 20
253.9741287263052
 30
0.0
 40
16.66666600000001
100
AcDbArc
 50
-24.25974148340626
 51
-4.932223647218266
  0
ARC
  5
88
102
{ACAD_XDICTIONARY
360
86
102
}
330
1F
100
AcDbEntity
  8
Main lines
 48
0.75
100
AcDbCircle
 10
156.4038229346455
 20
246.1242616909454
 30
0.0
 40
5.000000000000012
100
AcDbArc
 50
-129.164153250714
 51
-28.09872235901875
  0
ARC
  5
8B
102
{ACAD_XDICTIONARY
360
89
102
}
330
1F
100
AcDbEntity
  8
Main lines
 48
0.75
100
AcDbCircle
 10
141.7015393336953
 20
253.9741287263052
 30
0.0
 40
21.66665999999999
100
AcDbArc
 50
-28.09872235901923
 51
-13.1271725796049
  0
LINE
  5
8E
102
{ACAD_XDICTIONARY
360
8C
102
}
330
1F
100
AcDbEntity
  8
Main lines
 48
0.75
100
AcDbLine
 10
163.775882519259
 20
249.8262312446572
 30
0.0
 11
166.2464087189974
 21
249.8262312446572
 31
0.0
  0
ARC
  5
91
102
{ACAD_XDICTIONARY
360
8F
102
}
330
1F
100
AcDbEntity
  8
Main lines
 48
0.75
100
AcDbCircle
 10
163.7758825192591
 20
248.8262312446572
 30
0.0
 40
1.0
100
AcDbArc
 50
90.0
 51
166.8728274203953
  0
LINE
  5
94
102
{ACAD_XDICTIONARY
360
92
102
}
330
1F
100
AcDbEntity
  8
Main lines
 48
0.75
100
AcDbLine
 10
145.2636296455888
 20
242.7647667230981
 30
0.0
 11
150.8113812777992
 21
244.5673404982115
 31
0.0
  0
ARC
  5
97
102
{ACAD_XDICTIONARY
360
95
102
}
330
1F
100
AcDbEntity
  8
Main lines
 48
0.75
100
AcDbCircle
 10
166.9295619268219
 20
259.0465910562006
 30
0.0
 40
21.66666666
100
AcDbArc
 50
-138.0660784318366
 51
-129.1641532507139
  0
LINE
  5
9A
102
{ACAD_XDICTIONARY
360
98
102
}
330
1F
100
AcDbEntity
  8
Main lines
 48
0.75
100
AcDbLine
 10
143.7185446737141
 20
247.5200493045739
 30
0.0
 11
151.2231709956215
 21
249.9584502094295
 31
0.0
  0
ARC
  5
9D
102
{ACAD_XDICTIONARY
360
9B
102
}
330
1F
100
AcDbEntity
  8
Main lines
 48
0.75
100
AcDbCircle
 10
166.9295619268219
 20
259.0465910562006
 30
0.0
 40
16.66666
100
AcDbArc
 50
-143.9306665336035
 51
-132.8428197652503
  0
LINE
  5
A0
102
{ACAD_XDICTIONARY
360
9E
102
}
330
1F
100
AcDbEntity
  8
Main lines
 48
0.75
100
AcDbLine
 10
156.8964087189973
 20
247.1262312446573
 30
0.0
 11
155.5964087189975
 21
246.8262312446573
 31
0.0
  0
ARC
  5
A3
102
{ACAD_XDICTIONARY
360
A1
102
}
330
1F
100
AcDbEntity
  8
Main lines
 48
0.75
100
AcDbCircle
 10
151.8412049843714
 20
248.0563371768392
 30
0.0
 40
2.000000000000005
100
AcDbArc
 50
36.06933346639556
 51
107.9999999999987
  0
ARC
  5
A6
102
{ACAD_XDICTIONARY
360
A4
102
}
330
1F
100
AcDbEntity
  8
Main lines
 48
0.75
100
AcDbCircle
 10
160.7972330745765
 20
252.3262312446573
 30
0.0
 40
2.5
100
AcDbArc
 50
90.0
 51
175.0677763527819
  0
LINE
  5
A9
102
{ACAD_XDICTIONARY
360
A7
102
}
330
1F
100
AcDbEntity
  8
Main lines
 48
0.75
100
AcDbLine
 10
160.7972330745765
 20
254.8262312446573
 30
0.0
 11
166.2464087189973
 21
254.8262312446573
 31
0.0
  0
ARC
  5
AC
102
{ACAD_XDICTIONARY
360
AA
102
}
330
1F
100
AcDbEntity
  8
Main lines
 48
0.75
100
AcDbCircle
 10
166.2464087194887
 20
178.1864130031711
 30
0.0
 40
73.0987403071083
100
AcDbArc
 50
79.1052054924206
 51
83.57638315900073
  0
ARC
  5
AF
102
{ACAD_XDICTIONARY
360
AD
102
}
330
1F
100
AcDbEntity
  8
Main lines
 48
0.75
100
AcDbCircle
 10
166.2464087194887
 20
178.1864130031711
 30
0.0
 40
73.0987403071083
100
AcDbArc
 50
96.42361684099929
 51
100.8947945075794
  0
LINE
  5
B2
102
{ACAD_XDICTIONARY
360
B0
102
}
330
1F
100
AcDbEntity
  8
Main lines
 48
0.75
100
AcDbLine
 10
189.1730148451969
 20
247.3904901490866
 30
0.0
 11
188.7742727652633
 21
247.5200493045739
 31
0.0
  0
LINE
  5
B5
102
{ACAD_XDICTIONARY
360
B3
102
}
330
1F
100
AcDbEntity
  8
Main lines
 48
0.75
100
AcDbLine
 10
187.8771436732806
 20
242.5542330954312
 30
0.0
 11
187.2291877933885
 21
242.7647667230981
 31
0.0
  0
LINE
  5
B8
102
{ACAD_XDICTIONARY
360
B6
102
}
330
1F
100
AcDbEntity
  8
Main lines
 48
0.75
100
AcDbLine
 10
143.3198025946843
 20
247.3904901493803
 30
0.0
 11
143.7185446737141
 21
247.5200493045739
 31
0.0
  0
LINE
  5
BB
102
{ACAD_XDICTIONARY
360
B9
102
}
330
1F
100
AcDbEntity
  8
Main lines
 48
0.75
100
AcDbLine
 10
144.6156737666006
 20
242.554233095725
 30
0.0
 11
145.2636296455888
 21
242.7647667230981
 31
0.0
  0
ARC
  5
BE
102
{ACAD_XDICTIONARY
360
BC
102
}
330
1F
100
AcDbEntity
  8
Main lines
 48
0.75
100
AcDbCircle
 10
132.6218228250121
 20
239.751893966909
 30
0.0
 40
5.000000000000004
100
AcDbArc
 50
-121.9012776409814
 51
-20.83584674928611
  0
ARC
  5
C1
102
{ACAD_XDICTIONARY
360
BF
102
}
330
1F
100
AcDbEntity
  8
Main lines
 48
0.75
100
AcDbCircle
 10
115.5739641678086
 20
229.9093081820658
 30
0.0
 40
4.999999999999998
100
AcDbArc
 50
-99.16415325071401
 51
1.901277640981071
  0
LINE
  5
C4
102
{ACAD_XDICTIONARY
360
C2
102
}
330
1F
100
AcDbEntity
  8
Main lines
 48
0.75
100
AcDbLine
 10
142.909702246239
 20
247.3033206290646
 30
0.0
 11
135.19130475313
 21
245.6627245963269
 31
0.0
  0
LINE
  5
C7
102
{ACAD_XDICTIONARY
360
C5
102
}
330
1F
100
AcDbEntity
  8
Main lines
 48
0.75
100
AcDbLine
 10
143.9492607003278
 20
242.4125826253956
 30
0.0
 11
138.2434799653904
 21
241.1997814907342
 31
0.0
  0
ARC
  5
CA
102
{ACAD_XDICTIONARY
360
C8
102
}
330
1F
100
AcDbEntity
  8
Main lines
 48
0.75
100
AcDbCircle
 10
98.91647955806246
 20
229.3563506505423
 30
0.0
 40
21.66666
100
AcDbArc
 50
1.901277640980832
 51
16.87282742039519
  0
LINE
  5
CD
102
{ACAD_XDICTIONARY
360
CB
102
}
330
1F
100
AcDbEntity
  8
Main lines
 48
0.75
100
AcDbLine
 10
115.0277841813771
 20
239.6421399485046
 30
0.0
 11
119.746908719129
 21
242.366727770715
 31
0.0
  0
ARC
  5
D0
102
{ACAD_XDICTIONARY
360
CE
102
}
330
1F
100
AcDbEntity
  8
Main lines
 48
0.75
100
AcDbCircle
 10
158.0668178402975
 20
175.9946982324116
 30
0.0
 40
73.0987403071083
100
AcDbArc
 50
126.4236168409993
 51
130.8947945075794
  0
ARC
  5
D3
102
{ACAD_XDICTIONARY
360
D1
102
}
330
1F
100
AcDbEntity
  8
Main lines
 48
0.75
100
AcDbCircle
 10
98.91647955806246
 20
229.3563506505423
 30
0.0
 40
16.666666
100
AcDbArc
 50
5.740258516593774
 51
25.06777635278181
  0
ARC
  5
D6
102
{ACAD_XDICTIONARY
360
D4
102
}
330
1F
100
AcDbEntity
  8
Main lines
 48
0.75
100
AcDbCircle
 10
110.6565833721614
 20
229.301225659742
 30
0.0
 40
1.999999999999988
100
AcDbArc
 50
66.069333466396
 51
137.9999999999993
  0
ARC
  5
D9
102
{ACAD_XDICTIONARY
360
D7
102
}
330
1F
100
AcDbEntity
  8
Main lines
 48
0.75
100
AcDbCircle
 10
118.2283568460102
 20
246.3632431845346
 30
0.0
 40
21.66666665999998
100
AcDbArc
 50
-108.0660784318366
 51
-99.16415325071377
  0
LINE
  5
DC
102
{ACAD_XDICTIONARY
360
DA
102
}
330
1F
100
AcDbEntity
  8
Main lines
 48
0.75
100
AcDbLine
 10
107.6060212603402
 20
221.4298035514958
 30
0.0
 11
111.5092282201643
 21
225.7647540490447
 31
0.0
  0
LINE
  5
DF
102
{ACAD_XDICTIONARY
360
DD
102
}
330
1F
100
AcDbEntity
  8
Main lines
 48
0.75
100
AcDbLine
 10
107.1501418222915
 20
220.9234981423456
 30
0.0
 11
107.6060212603402
 21
221.4298035514958
 31
0.0
  0
LINE
  5
E2
102
{ACAD_XDICTIONARY
360
E0
102
}
330
1F
100
AcDbEntity
  8
Main lines
 48
0.75
100
AcDbLine
 10
103.8902971329533
 20
224.77545658329
 30
0.0
 11
109.1702937212066
 21
230.6394868724597
 31
0.0
  0
LINE
  5
E5
102
{ACAD_XDICTIONARY
360
E3
102
}
330
1F
100
AcDbEntity
  8
Main lines
 48
0.75
100
AcDbLine
 10
103.6097559405525
 20
224.4638840240847
 30
0.0
 11
103.8902971329533
 21
224.77545658329
 31
0.0
  0
LINE
  5
E8
102
{ACAD_XDICTIONARY
360
E6
102
}
330
1F
100
AcDbEntity
  8
Main lines
 48
0.75
100
AcDbLine
 10
115.4995711937444
 20
231.0233321615748
 30
0.0
 11
114.5237381688248
 21
230.1135245404396
 31
0.0
  0
ARC
  5
EB
102
{ACAD_XDICTIONARY
360
E9
102
}
330
1F
100
AcDbEntity
  8
Main lines
 48
0.75
100
AcDbCircle
 10
118.2283568460102
 20
246.3632431845346
 30
0.0
 40
16.66666000000004
100
AcDbArc
 50
-113.9306665336035
 51
-102.8428197652503
  0
ARC
  5
EE
102
{ACAD_XDICTIONARY
360
EC
102
}
330
1F
100
AcDbEntity
  8
Main lines
 48
0.75
100
AcDbCircle
 10
116.2777841813771
 20
237.4770764390435
 30
0.0
 40
2.500000000000002
100
AcDbArc
 50
120.0
 51
205.0677763527818
  0
ARC
  5
F1
102
{ACAD_XDICTIONARY
360
EF
102
}
330
1F
100
AcDbEntity
  8
Main lines
 48
0.75
100
AcDbCircle
 10
158.0668178402975
 20
175.9946982324116
 30
0.0
 40
73.09874030710832
100
AcDbArc
 50
109.1052054924206
 51
113.5763831590007
  0
ARC
  5
F4
102
{ACAD_XDICTIONARY
360
F2
102
}
330
1F
100
AcDbEntity
  8
Main lines
 48
0.75
100
AcDbCircle
 10
141.4294403993985
 20
253.9012200363357
 30
0.0
 40
16.666666
100
AcDbArc
 50
-145.0677763527817
 51
-125.7402585165938
  0
ARC
  5
F7
102
{ACAD_XDICTIONARY
360
F5
102
}
330
1F
100
AcDbEntity
  8
Main lines
 48
0.75
100
AcDbCircle
 10
141.4294403993985
 20
253.9012200363357
 30
0.0
 40
21.66666
100
AcDbArc
 50
-136.8728274203952
 51
-121.9012776409809
  0
LINE
  5
FA
102
{ACAD_XDICTIONARY
360
F8
102
}
330
1F
100
AcDbEntity
  8
Main lines
 48
0.75
100
AcDbLine
 10
124.3864471696684
 20
239.2718638521532
 30
0.0
 11
122.24690871998
 21
238.036600752284
 31
0.0
  0
LINE
  5
FD
102
{ACAD_XDICTIONARY
360
FB
102
}
330
1F
100
AcDbEntity
  8
Main lines
 48
0.75
100
AcDbLine
 10
120.1073702694406
 20
236.8013376519235
 30
0.0
 11
122.246908719129
 21
238.0366007517927
 31
0.0
  0
ARC
  5
100
102
{ACAD_XDICTIONARY
360
FE
102
}
330
1F
100
AcDbEntity
  8
Main lines
 48
0.75
100
AcDbCircle
 10
120.6073702694407
 20
235.9353122481392
 30
0.0
 40
1.000000000000008
100
AcDbArc
 50
119.9999999999997
 51
196.8728274203955
  0
ARC
  5
103
102
{ACAD_XDICTIONARY
360
101
102
}
330
1F
100
AcDbEntity
  8
Main lines
 48
0.75
100
AcDbCircle
 10
124.8864471696683
 20
238.4058384483687
 30
0.0
 40
1.000000000000007
100
AcDbArc
 50
43.12717257960408
 51
119.9999999999997
  0
ARC
  5
106
102
{ACAD_XDICTIONARY
360
104
102
}
330
1F
100
AcDbEntity
  8
Main lines
 48
0.75
100
AcDbCircle
 10
117.0451007815554
 20
245.6800899772014
 30
0.0
 40
21.66666666000003
100
AcDbArc
 50
-20.83584674928624
 51
-11.93392156816336
  0
ARC
  5
109
102
{ACAD_XDICTIONARY
360
107
102
}
330
1F
100
AcDbEntity
  8
Main lines
 48
0.75
100
AcDbCircle
 10
117.0451007815554
 20
245.6800899772014
 30
0.0
 40
16.66666000000001
100
AcDbArc
 50
-17.15718023474973
 51
-6.069333466396504
  0
LINE
  5
10C
102
{ACAD_XDICTIONARY
360
10A
102
}
330
1F
100
AcDbEntity
  8
Main lines
 48
0.75
100
AcDbLine
 10
131.6942462453645
 20
240.3733321620662
 30
0.0
 11
132.9700792702841
 21
240.7635245409307
 31
0.0
  0
ARC
  5
10F
102
{ACAD_XDICTIONARY
360
10D
102
}
330
1F
100
AcDbEntity
  8
Main lines
 48
0.75
100
AcDbCircle
 10
135.6071281347656
 20
243.7064293948593
 30
0.0
 40
1.999999999999981
100
AcDbArc
 50
102.0000000000014
 51
173.9306665336038
  0
ARC
  5
112
102
{ACAD_XDICTIONARY
360
110
102
}
330
1F
100
AcDbEntity
  8
Main lines
 48
0.75
100
AcDbCircle
 10
125.7160332577318
 20
242.9262520839557
 30
0.0
 40
2.499999999999996
100
AcDbArc
 50
34.9322236472178
 51
119.9999999999997
  0
LINE
  5
115
102
{ACAD_XDICTIONARY
360
113
102
}
330
1F
100
AcDbEntity
  8
Main lines
 48
0.75
100
AcDbLine
 10
124.4660332577318
 20
245.0913155934167
 30
0.0
 11
119.74690871998
 21
242.3667277712063
 31
0.0
  0
LINE
  5
118
102
{ACAD_XDICTIONARY
360
116
102
}
330
1F
100
AcDbEntity
  8
Main lines
 48
0.75
100
AcDbLine
 10
144.6156737666793
 20
242.5542330954312
 30
0.0
 11
143.9492607003278
 21
242.4125826253956
 31
0.0
  0
LINE
  5
11B
102
{ACAD_XDICTIONARY
360
119
102
}
330
1F
100
AcDbEntity
  8
Main lines
 48
0.75
100
AcDbLine
 10
143.319802594763
 20
247.3904901490866
 30
0.0
 11
142.909702246239
 21
247.3033206290646
 31
0.0
  0
ARC
  5
11E
102
{ACAD_XDICTIONARY
360
11C
102
}
330
1F
100
AcDbEntity
  8
Main lines
 48
0.75
100
AcDbCircle
 10
98.16433178208007
 20
212.4996757959776
 30
0.0
 40
4.999999999999991
100
AcDbArc
 50
-91.90127764098108
 51
9.164153250713706
  0
ARC
  5
121
102
{ACAD_XDICTIONARY
360
11F
102
}
330
1F
100
AcDbEntity
  8
Main lines
 48
0.75
100
AcDbCircle
 10
88.32174599723692
 20
195.4518171387741
 30
0.0
 40
4.999999999999989
100
AcDbArc
 50
-69.16415325071378
 51
31.90127764098117
  0
LINE
  5
124
102
{ACAD_XDICTIONARY
360
122
102
}
330
1F
100
AcDbEntity
  8
Main lines
 48
0.75
100
AcDbLine
 10
103.2981833808559
 20
224.1833428308329
 30
0.0
 11
97.43415309168623
 21
218.9033462425796
 31
0.0
  0
LINE
  5
127
102
{ACAD_XDICTIONARY
360
125
102
}
330
1F
100
AcDbEntity
  8
Main lines
 48
0.75
100
AcDbLine
 10
106.6438364126502
 20
220.467618703446
 30
0.0
 11
102.3088859151012
 21
216.5644117436219
 31
0.0
  0
ARC
  5
12A
102
{ACAD_XDICTIONARY
360
128
102
}
330
1F
100
AcDbEntity
  8
Main lines
 48
0.75
100
AcDbCircle
 10
74.17241992781018
 20
186.6441995643877
 30
0.0
 40
21.66666
100
AcDbArc
 50
31.90127764098079
 51
46.87282742039523
  0
LINE
  5
12D
102
{ACAD_XDICTIONARY
360
12B
102
}
330
1F
100
AcDbEntity
  8
Main lines
 48
0.75
100
AcDbLine
 10
82.98232437072917
 20
203.6076067060544
 30
0.0
 11
85.7069121929396
 21
208.3267312438063
 31
0.0
  0
ARC
  5
130
102
{ACAD_XDICTIONARY
360
12E
102
}
330
1F
100
AcDbEntity
  8
Main lines
 48
0.75
100
AcDbCircle
 10
152.0789417317343
 20
170.0068221234887
 30
0.0
 40
73.09874030710832
100
AcDbArc
 50
156.4236168409993
 51
160.8947945075794
  0
ARC
  5
133
102
{ACAD_XDICTIONARY
360
131
102
}
330
1F
100
AcDbEntity
  8
Main lines
 48
0.75
100
AcDbCircle
 10
74.17241992781018
 20
186.6441995643877
 30
0.0
 40
16.666666
100
AcDbArc
 50
35.74025851659372
 51
55.06777635278173
  0
ARC
  5
136
102
{ACAD_XDICTIONARY
360
134
102
}
330
1F
100
AcDbEntity
  8
Main lines
 48
0.75
100
AcDbCircle
 10
84.36721056928661
 20
192.4665118290207
 30
0.0
 40
1.999999999999993
100
AcDbArc
 50
96.0693334663961
 51
167.9999999999995
  0
ARC
  5
139
102
{ACAD_XDICTIONARY
360
137
102
}
330
1F
100
AcDbEntity
  8
Main lines
 48
0.75
100
AcDbCircle
 10
82.39354998694449
 20
211.0285391822308
 30
0.0
 40
21.66666666
100
AcDbArc
 50
-78.06607843183663
 51
-69.16415325071375
  0
LINE
  5
13C
102
{ACAD_XDICTIONARY
360
13A
102
}
330
1F
100
AcDbEntity
  8
Main lines
 48
0.75
100
AcDbLine
 10
85.66105733875031
 20
184.1243792634584
 30
0.0
 11
86.87385847341167
 21
189.8301599983959
 31
0.0
  0
LINE
  5
13F
102
{ACAD_XDICTIONARY
360
13D
102
}
330
1F
100
AcDbEntity
  8
Main lines
 48
0.75
100
AcDbLine
 10
85.51940686891226
 20
183.4579661980366
 30
0.0
 11
85.66105733875031
 21
184.1243792634584
 31
0.0
  0
LINE
  5
142
102
{ACAD_XDICTIONARY
360
140
102
}
330
1F
100
AcDbEntity
  8
Main lines
 48
0.75
100
AcDbLine
 10
80.77031933508127
 20
185.1639377175472
 30
0.0
 11
82.41091536781906
 21
192.8823352106562
 31
0.0
  0
LINE
  5
145
102
{ACAD_XDICTIONARY
360
143
102
}
330
1F
100
AcDbEntity
  8
Main lines
 48
0.75
100
AcDbLine
 10
80.68314981525694
 20
184.7538373699528
 30
0.0
 11
80.77031933508127
 21
185.1639377175472
 31
0.0
  0
LINE
  5
148
102
{ACAD_XDICTIONARY
360
146
102
}
330
1F
100
AcDbEntity
  8
Main lines
 48
0.75
100
AcDbLine
 10
87.70030780207972
 20
196.3793937184218
 30
0.0
 11
87.3101154232152
 21
195.1035606935022
 31
0.0
  0
ARC
  5
14B
102
{ACAD_XDICTIONARY
360
149
102
}
330
1F
100
AcDbEntity
  8
Main lines
 48
0.75
100
AcDbCircle
 10
82.39354998694449
 20
211.0285391822308
 30
0.0
 40
16.66666000000001
100
AcDbArc
 50
-83.9306665336036
 51
-72.84281976525027
  0
ARC
  5
14E
102
{ACAD_XDICTIONARY
360
14C
102
}
330
1F
100
AcDbEntity
  8
Main lines
 48
0.75
100
AcDbCircle
 10
85.14738788019025
 20
202.3576067060544
 30
0.0
 40
2.500000000000008
100
AcDbArc
 50
150.0000000000001
 51
235.0677763527812
  0
ARC
  5
151
102
{ACAD_XDICTIONARY
360
14F
102
}
330
1F
100
AcDbEntity
  8
Main lines
 48
0.75
100
AcDbCircle
 10
152.0789417317343
 20
170.0068221234887
 30
0.0
 40
73.09874030710832
100
AcDbArc
 50
139.1052054924206
 51
143.5763831590007
  0
ARC
  5
154
102
{ACAD_XDICTIONARY
360
152
102
}
330
1F
100
AcDbEntity
  8
Main lines
 48
0.75
100
AcDbCircle
 10
98.71728931360357
 20
229.1571604057237
 30
0.0
 40
16.66666599999999
100
AcDbArc
 50
-115.0677763527818
 51
-95.74025851659377
  0
ARC
  5
157
102
{ACAD_XDICTIONARY
360
155
102
}
330
1F
100
AcDbEntity
  8
Main lines
 48
0.75
100
AcDbCircle
 10
98.71728931360357
 20
229.1571604057237
 30
0.0
 40
21.66665999999999
100
AcDbArc
 50
-106.8728274203952
 51
-91.90127764098084
  0
LINE
  5
15A
102
{ACAD_XDICTIONARY
360
158
102
}
330
1F
100
AcDbEntity
  8
Main lines
 48
0.75
100
AcDbLine
 10
91.27230231222237
 20
207.9662696943456
 30
0.0
 11
90.03703921235316
 21
205.8267312446572
 31
0.0
  0
LINE
  5
15D
102
{ACAD_XDICTIONARY
360
15B
102
}
330
1F
100
AcDbEntity
  8
Main lines
 48
0.75
100
AcDbLine
 10
88.80177611199272
 20
203.6871927941178
 30
0.0
 11
90.03703921186187
 21
205.8267312438063
 31
0.0
  0
ARC
  5
160
102
{ACAD_XDICTIONARY
360
15E
102
}
330
1F
100
AcDbEntity
  8
Main lines
 48
0.75
100
AcDbCircle
 10
89.6678015157772
 20
203.1871927941179
 30
0.0
 40
1.000000000000008
100
AcDbArc
 50
150.0000000000003
 51
226.8728274203959
  0
ARC
  5
163
102
{ACAD_XDICTIONARY
360
161
102
}
330
1F
100
AcDbEntity
  8
Main lines
 48
0.75
100
AcDbCircle
 10
92.13832771600673
 20
207.4662696943456
 30
0.0
 40
0.9999999999999869
100
AcDbArc
 50
73.1271725796043
 51
149.9999999999999
  0
ARC
  5
166
102
{ACAD_XDICTIONARY
360
164
102
}
330
1F
100
AcDbEntity
  8
Main lines
 48
0.75
100
AcDbCircle
 10
81.7103967796113
 20
209.845283117776
 30
0.0
 40
21.66666666000001
100
AcDbArc
 50
9.16415325071375
 51
18.06607843183664
  0
ARC
  5
169
102
{ACAD_XDICTIONARY
360
167
102
}
330
1F
100
AcDbEntity
  8
Main lines
 48
0.75
100
AcDbCircle
 10
81.7103967796113
 20
209.845283117776
 30
0.0
 40
16.66666000000001
100
AcDbArc
 50
12.84281976525036
 51
23.93066653360365
  0
LINE
  5
16C
102
{ACAD_XDICTIONARY
360
16A
102
}
330
1F
100
AcDbEntity
  8
Main lines
 48
0.75
100
AcDbLine
 10
97.0503078025711
 20
212.5740687700418
 30
0.0
 11
97.96011542370636
 21
213.5499017949614
 31
0.0
  0
ARC
  5
16F
102
{ACAD_XDICTIONARY
360
16D
102
}
330
1F
100
AcDbEntity
  8
Main lines
 48
0.75
100
AcDbCircle
 10
98.77241430440392
 20
217.4170565916248
 30
0.0
 40
2.000000000000009
100
AcDbArc
 50
132.0000000000012
 51
203.9306665336046
  0
ARC
  5
172
102
{ACAD_XDICTIONARY
360
170
102
}
330
1F
100
AcDbEntity
  8
Main lines
 48
0.75
100
AcDbCircle
 10
90.5965635251024
 20
211.7958557824091
 30
0.0
 40
2.500000000000008
100
AcDbArc
 50
64.9322236472182
 51
150.0000000000001
  0
LINE
  5
175
102
{ACAD_XDICTIONARY
360
173
102
}
330
1F
100
AcDbEntity
  8
Main lines
 48
0.75
100
AcDbLine
 10
88.43150001564132
 20
213.0458557824091
 30
0.0
 11
85.70691219343095
 21
208.3267312446573
 31
0.0
  0
LINE
  5
178
102
{ACAD_XDICTIONARY
360
176
102
}
330
1F
100
AcDbEntity
  8
Main lines
 48
0.75
100
AcDbLine
 10
107.1501418225066
 20
220.9234981421307
 30
0.0
 11
106.6438364126502
 21
220.467618703446
 31
0.0
  0
LINE
  5
17B
102
{ACAD_XDICTIONARY
360
179
102
}
330
1F
100
AcDbEntity
  8
Main lines
 48
0.75
100
AcDbLine
 10
103.6097559407676
 20
224.4638840238697
 30
0.0
 11
103.2981833808559
 21
224.1833428308329
 31
0.0
  0
ARC
  5
17E
102
{ACAD_XDICTIONARY
360
17C
102
}
330
1F
100
AcDbEntity
  8
Main lines
 48
0.75
100
AcDbCircle
 10
81.94937827369185
 20
171.6698170290091
 30
0.0
 40
5.000000000000009
100
AcDbArc
 50
-61.90127764098126
 51
39.16415325071362
  0
ARC
  5
181
102
{ACAD_XDICTIONARY
360
17F
102
}
330
1F
100
AcDbEntity
  8
Main lines
 48
0.75
100
AcDbCircle
 10
81.94937827369185
 20
151.9846454593228
 30
0.0
 40
5.000000000000012
100
AcDbArc
 50
-39.16415325071397
 51
61.90127764098112
  0
LINE
  5
184
102
{ACAD_XDICTIONARY
360
182
102
}
330
1F
100
AcDbEntity
  8
Main lines
 48
0.75
100
AcDbLine
 10
80.55359066006335
 20
184.3550952899406
 30
0.0
 11
78.1151897552077
 21
176.8504689680331
 31
0.0
  0
LINE
  5
187
102
{ACAD_XDICTIONARY
360
185
102
}
330
1F
100
AcDbEntity
  8
Main lines
 48
0.75
100
AcDbLine
 10
85.30887324153912
 20
182.8100103180658
 30
0.0
 11
83.5062994664257
 21
177.2622586858554
 31
0.0
  0
ARC
  5
18A
102
{ACAD_XDICTIONARY
360
188
102
}
330
1F
100
AcDbEntity
  8
Main lines
 48
0.75
100
AcDbCircle
 10
74.09951123833207
 20
137.2823618583726
 30
0.0
 40
21.66666
100
AcDbArc
 50
61.90127764098087
 51
76.8728274203952
  0
LINE
  5
18D
102
{ACAD_XDICTIONARY
360
18B
102
}
330
1F
100
AcDbEntity
  8
Main lines
 48
0.75
100
AcDbLine
 10
73.24740871997992
 20
156.3780555992538
 30
0.0
 11
73.24740871997992
 21
161.8272312436746
 31
0.0
  0
ARC
  5
190
102
{ACAD_XDICTIONARY
360
18E
102
}
330
1F
100
AcDbEntity
  8
Main lines
 48
0.75
100
AcDbCircle
 10
149.8872269614661
 20
161.8272312441659
 30
0.0
 40
73.0987403071083
100
AcDbArc
 50
-173.5763831590007
 51
-169.1052054924206
  0
ARC
  5
193
102
{ACAD_XDICTIONARY
360
191
102
}
330
1F
100
AcDbEntity
  8
Main lines
 48
0.75
100
AcDbCircle
 10
74.09951123833207
 20
137.2823618583726
 30
0.0
 40
16.666666
100
AcDbArc
 50
65.74025851659383
 51
85.06777635278183
  0
ARC
  5
196
102
{ACAD_XDICTIONARY
360
194
102
}
330
1F
100
AcDbEntity
  8
Main lines
 48
0.75
100
AcDbCircle
 10
80.01730278779803
 20
147.4220275090486
 30
0.0
 40
2.000000000000004
100
AcDbArc
 50
126.0693334663959
 51
197.9999999999988
  0
ARC
  5
199
102
{ACAD_XDICTIONARY
360
197
102
}
330
1F
100
AcDbEntity
  8
Main lines
 48
0.75
100
AcDbCircle
 10
69.02704890843671
 20
162.5103844514991
 30
0.0
 40
21.66666666
100
AcDbArc
 50
-48.06607843183666
 51
-39.16415325071375
  0
LINE
  5
19C
102
{ACAD_XDICTIONARY
360
19A
102
}
330
1F
100
AcDbEntity
  8
Main lines
 48
0.75
100
AcDbLine
 10
85.30887324153912
 20
140.8444521702661
 30
0.0
 11
83.5062994664257
 21
146.3922038024764
 31
0.0
  0
LINE
  5
19F
102
{ACAD_XDICTIONARY
360
19D
102
}
330
1F
100
AcDbEntity
  8
Main lines
 48
0.75
100
AcDbLine
 10
85.51940686891228
 20
140.1964962912779
 30
0.0
 11
85.30887324153909
 21
140.8444521702661
 31
0.0
  0
LINE
  5
1A2
102
{ACAD_XDICTIONARY
360
1A0
102
}
330
1F
100
AcDbEntity
  8
Main lines
 48
0.75
100
AcDbLine
 10
80.55359066006335
 20
139.2993671983913
 30
0.0
 11
78.1151897552077
 21
146.8039935202988
 31
0.0
  0
LINE
  5
1A5
102
{ACAD_XDICTIONARY
360
1A3
102
}
330
1F
100
AcDbEntity
  8
Main lines
 48
0.75
100
AcDbLine
 10
80.68314981525694
 20
138.9006251193616
 30
0.0
 11
80.55359066006335
 21
139.2993671983913
 31
0.0
  0
LINE
  5
1A8
102
{ACAD_XDICTIONARY
360
1A6
102
}
330
1F
100
AcDbEntity
  8
Main lines
 48
0.75
100
AcDbLine
 10
80.94740871997988
 20
152.4772312436746
 30
0.0
 11
81.24740871997992
 21
151.1772312436748
 31
0.0
  0
ARC
  5
1AB
102
{ACAD_XDICTIONARY
360
1A9
102
}
330
1F
100
AcDbEntity
  8
Main lines
 48
0.75
100
AcDbCircle
 10
69.02704890843671
 20
162.5103844514991
 30
0.0
 40
16.66666
100
AcDbArc
 50
-53.93066653360357
 51
-42.84281976525028
  0
ARC
  5
1AE
102
{ACAD_XDICTIONARY
360
1AC
102
}
330
1F
100
AcDbEntity
  8
Main lines
 48
0.75
100
AcDbCircle
 10
75.74740871997994
 20
156.3780555992538
 30
0.0
 40
2.5
100
AcDbArc
 50
180.0
 51
265.0677763527819
  0
ARC
  5
1B1
102
{ACAD_XDICTIONARY
360
1AF
102
}
330
1F
100
AcDbEntity
  8
Main lines
 48
0.75
100
AcDbCircle
 10
149.8872269614661
 20
161.8272312441659
 30
0.0
 40
73.0987403071083
100
AcDbArc
 50
169.1052054924207
 51
173.5763831590007
  0
ARC
  5
1B4
102
{ACAD_XDICTIONARY
360
1B2
102
}
330
1F
100
AcDbEntity
  8
Main lines
 48
0.75
100
AcDbCircle
 10
74.09951123833207
 20
186.3721006299593
 30
0.0
 40
16.666666
100
AcDbArc
 50
-85.06777635278173
 51
-65.74025851659384
  0
ARC
  5
1B7
102
{ACAD_XDICTIONARY
360
1B5
102
}
330
1F
100
AcDbEntity
  8
Main lines
 48
0.75
100
AcDbCircle
 10
74.09951123833207
 20
186.3721006299593
 30
0.0
 40
21.66665999999999
100
AcDbArc
 50
-76.8728274203952
 51
-61.90127764098088
  0
LINE
  5
1BA
102
{ACAD_XDICTIONARY
360
1B8
102
}
330
1F
100
AcDbEntity
  8
Main lines
 48
0.75
100
AcDbLine
 10
78.24740871998003
 20
164.2977574443956
 30
0.0
 11
78.24740871998
 21
161.8272312446572
 31
0.0
  0
LINE
  5
1BD
102
{ACAD_XDICTIONARY
360
1BB
102
}
330
1F
100
AcDbEntity
  8
Main lines
 48
0.75
100
AcDbLine
 10
78.24740871998003
 20
159.3567050439363
 30
0.0
 11
78.24740871998
 21
161.8272312436746
 31
0.0
  0
ARC
  5
1C0
102
{ACAD_XDICTIONARY
360
1BE
102
}
330
1F
100
AcDbEntity
  8
Main lines
 48
0.75
100
AcDbCircle
 10
79.24740871998
 20
159.3567050439364
 30
0.0
 40
1.0
100
AcDbArc
 50
180.0
 51
256.8728274203953
  0
ARC
  5
1C3
102
{ACAD_XDICTIONARY
360
1C1
102
}
330
1F
100
AcDbEntity
  8
Main lines
 48
0.75
100
AcDbCircle
 10
79.24740871998
 20
164.2977574443955
 30
0.0
 40
1.0
100
AcDbArc
 50
103.1271725796048
 51
180.0
  0
ARC
  5
1C6
102
{ACAD_XDICTIONARY
360
1C4
102
}
330
1F
100
AcDbEntity
  8
Main lines
 48
0.75
100
AcDbCircle
 10
69.02704890843671
 20
161.1440780368328
 30
0.0
 40
21.66666665999998
100
AcDbArc
 50
39.16415325071369
 51
48.06607843183654
  0
ARC
  5
1C9
102
{ACAD_XDICTIONARY
360
1C7
102
}
330
1F
100
AcDbEntity
  8
Main lines
 48
0.75
100
AcDbCircle
 10
69.02704890843671
 20
161.1440780368328
 30
0.0
 40
16.66666000000001
100
AcDbArc
 50
42.84281976525024
 51
53.93066653360353
  0
LINE
  5
1CC
102
{ACAD_XDICTIONARY
360
1CA
102
}
330
1F
100
AcDbEntity
  8
Main lines
 48
0.75
100
AcDbLine
 10
80.94740871997988
 20
171.1772312446573
 30
0.0
 11
81.24740871997992
 21
172.4772312446571
 31
0.0
  0
ARC
  5
1CF
102
{ACAD_XDICTIONARY
360
1CD
102
}
330
1F
100
AcDbEntity
  8
Main lines
 48
0.75
100
AcDbCircle
 10
80.01730278779803
 20
176.2324349792833
 30
0.0
 40
2.000000000000009
100
AcDbArc
 50
162.0000000000013
 51
233.9306665336039
  0
ARC
  5
1D2
102
{ACAD_XDICTIONARY
360
1D0
102
}
330
1F
100
AcDbEntity
  8
Main lines
 48
0.75
100
AcDbCircle
 10
75.74740871997994
 20
167.2764068890781
 30
0.0
 40
2.500000000000004
100
AcDbArc
 50
94.93222364721812
 51
180.0
  0
LINE
  5
1D5
102
{ACAD_XDICTIONARY
360
1D3
102
}
330
1F
100
AcDbEntity
  8
Main lines
 48
0.75
100
AcDbLine
 10
73.24740871997992
 20
167.2764068890781
 30
0.0
 11
73.24740871997992
 21
161.8272312446573
 31
0.0
  0
LINE
  5
1D8
102
{ACAD_XDICTIONARY
360
1D6
102
}
330
1F
100
AcDbEntity
  8
Main lines
 48
0.75
100
AcDbLine
 10
85.51940686920597
 20
183.4579661979579
 30
0.0
 11
85.30887324153912
 21
182.8100103180658
 31
0.0
  0
LINE
  5
1DB
102
{ACAD_XDICTIONARY
360
1D9
102
}
330
1F
100
AcDbEntity
  8
Main lines
 48
0.75
100
AcDbLine
 10
80.68314981555065
 20
184.7538373698742
 30
0.0
 11
80.55359066006335
 21
184.3550952899406
 31
0.0
  0
ARC
  5
1DE
102
{ACAD_XDICTIONARY
360
1DC
102
}
330
1F
100
AcDbEntity
  8
Main lines
 48
0.75
100
AcDbCircle
 10
88.32174599772827
 20
128.2026453496896
 30
0.0
 40
5.000000000000008
100
AcDbArc
 50
-31.90127764098102
 51
69.16415325071374
  0
ARC
  5
1E1
102
{ACAD_XDICTIONARY
360
1DF
102
}
330
1F
100
AcDbEntity
  8
Main lines
 48
0.75
100
AcDbCircle
 10
98.1643317825714
 20
111.1547866924861
 30
0.0
 40
4.999999999999991
100
AcDbArc
 50
-9.164153250714028
 51
91.90127764098108
  0
LINE
  5
1E4
102
{ACAD_XDICTIONARY
360
1E2
102
}
330
1F
100
AcDbEntity
  8
Main lines
 48
0.75
100
AcDbLine
 10
80.7703193355726
 20
138.4905247709164
 30
0.0
 11
82.41091536831038
 21
130.7721272778073
 31
0.0
  0
LINE
  5
1E7
102
{ACAD_XDICTIONARY
360
1E5
102
}
330
1F
100
AcDbEntity
  8
Main lines
 48
0.75
100
AcDbLine
 10
85.66105733924164
 20
139.5300832250052
 30
0.0
 11
86.873858473903
 21
133.8243024900677
 31
0.0
  0
ARC
  5
1EA
102
{ACAD_XDICTIONARY
360
1E8
102
}
330
1F
100
AcDbEntity
  8
Main lines
 48
0.75
100
AcDbCircle
 10
98.7172893140949
 20
94.49730208273994
 30
0.0
 40
21.66666
100
AcDbArc
 50
91.90127764098084
 51
106.8728274203951
  0
LINE
  5
1ED
102
{ACAD_XDICTIONARY
360
1EB
102
}
330
1F
100
AcDbEntity
  8
Main lines
 48
0.75
100
AcDbLine
 10
88.43150001613265
 20
110.6086067060544
 30
0.0
 11
85.70691219392228
 21
115.3277312438063
 31
0.0
  0
ARC
  5
1F0
102
{ACAD_XDICTIONARY
360
1EE
102
}
330
1F
100
AcDbEntity
  8
Main lines
 48
0.75
100
AcDbCircle
 10
152.0789417322256
 20
153.647640364975
 30
0.0
 40
73.09874030710829
100
AcDbArc
 50
-143.5763831590008
 51
-139.1052054924207
  0
ARC
  5
1F3
102
{ACAD_XDICTIONARY
360
1F1
102
}
330
1F
100
AcDbEntity
  8
Main lines
 48
0.75
100
AcDbCircle
 10
98.7172893140949
 20
94.49730208273994
 30
0.0
 40
16.666666
100
AcDbArc
 50
95.74025851659377
 51
115.0677763527818
  0
ARC
  5
1F6
102
{ACAD_XDICTIONARY
360
1F4
102
}
330
1F
100
AcDbEntity
  8
Main lines
 48
0.75
100
AcDbCircle
 10
98.77241430489525
 20
106.2374058968389
 30
0.0
 40
1.999999999999988
100
AcDbArc
 50
156.069333466396
 51
227.9999999999989
  0
ARC
  5
1F9
102
{ACAD_XDICTIONARY
360
1F7
102
}
330
1F
100
AcDbEntity
  8
Main lines
 48
0.75
100
AcDbCircle
 10
81.7103967801026
 20
113.8091793706877
 30
0.0
 40
21.66666665999999
100
AcDbArc
 50
-18.06607843183666
 51
-9.164153250713762
  0
LINE
  5
1FC
102
{ACAD_XDICTIONARY
360
1FA
102
}
330
1F
100
AcDbEntity
  8
Main lines
 48
0.75
100
AcDbLine
 10
106.6438364131415
 20
103.1868437850175
 30
0.0
 11
102.3088859155925
 21
107.0900507448416
 31
0.0
  0
LINE
  5
1FF
102
{ACAD_XDICTIONARY
360
1FD
102
}
330
1F
100
AcDbEntity
  8
Main lines
 48
0.75
100
AcDbLine
 10
107.1501418222917
 20
102.7309643469689
 30
0.0
 11
106.6438364131415
 21
103.1868437850175
 31
0.0
  0
LINE
  5
202
102
{ACAD_XDICTIONARY
360
200
102
}
330
1F
100
AcDbEntity
  8
Main lines
 48
0.75
100
AcDbLine
 10
103.2981833813472
 20
99.4711196576306
 30
0.0
 11
97.43415309217755
 21
104.751116245884
 31
0.0
  0
LINE
  5
205
102
{ACAD_XDICTIONARY
360
203
102
}
330
1F
100
AcDbEntity
  8
Main lines
 48
0.75
100
AcDbLine
 10
103.6097559405526
 20
99.19057846522983
 30
0.0
 11
103.2981833813472
 21
99.4711196576306
 31
0.0
  0
LINE
  5
208
102
{ACAD_XDICTIONARY
360
206
102
}
330
1F
100
AcDbEntity
  8
Main lines
 48
0.75
100
AcDbLine
 10
97.05030780306242
 20
111.0803937184217
 30
0.0
 11
97.96011542419768
 21
110.1045606935021
 31
0.0
  0
ARC
  5
20B
102
{ACAD_XDICTIONARY
360
209
102
}
330
1F
100
AcDbEntity
  8
Main lines
 48
0.75
100
AcDbCircle
 10
81.7103967801026
 20
113.8091793706877
 30
0.0
 40
16.66666000000001
100
AcDbArc
 50
-23.93066653360354
 51
-12.84281976525027
  0
ARC
  5
20E
102
{ACAD_XDICTIONARY
360
20C
102
}
330
1F
100
AcDbEntity
  8
Main lines
 48
0.75
100
AcDbCircle
 10
90.59656352559372
 20
111.8586067060545
 30
0.0
 40
2.500000000000008
100
AcDbArc
 50
-150.0000000000001
 51
-64.9322236472182
  0
ARC
  5
211
102
{ACAD_XDICTIONARY
360
20F
102
}
330
1F
100
AcDbEntity
  8
Main lines
 48
0.75
100
AcDbCircle
 10
152.0789417322256
 20
153.647640364975
 30
0.0
 40
73.09874030710827
100
AcDbArc
 50
-160.8947945075794
 51
-156.4236168409993
  0
ARC
  5
214
102
{ACAD_XDICTIONARY
360
212
102
}
330
1F
100
AcDbEntity
  8
Main lines
 48
0.75
100
AcDbCircle
 10
74.17241992830151
 20
137.010262924076
 30
0.0
 40
16.66666599999999
100
AcDbArc
 50
-55.0677763527818
 51
-35.74025851659387
  0
ARC
  5
217
102
{ACAD_XDICTIONARY
360
215
102
}
330
1F
100
AcDbEntity
  8
Main lines
 48
0.75
100
AcDbCircle
 10
74.17241992830151
 20
137.010262924076
 30
0.0
 40
21.66666000000001
100
AcDbArc
 50
-46.87282742039519
 51
-31.90127764098081
  0
LINE
  5
21A
102
{ACAD_XDICTIONARY
360
218
102
}
330
1F
100
AcDbEntity
  8
Main lines
 48
0.75
100
AcDbLine
 10
88.80177611248405
 20
119.9672696943458
 30
0.0
 11
90.03703921235319
 21
117.8277312446573
 31
0.0
  0
LINE
  5
21D
102
{ACAD_XDICTIONARY
360
21B
102
}
330
1F
100
AcDbEntity
  8
Main lines
 48
0.75
100
AcDbLine
 10
91.27230231271369
 20
115.6881927941179
 30
0.0
 11
90.03703921284449
 21
117.8277312438063
 31
0.0
  0
ARC
  5
220
102
{ACAD_XDICTIONARY
360
21E
102
}
330
1F
100
AcDbEntity
  8
Main lines
 48
0.75
100
AcDbCircle
 10
92.13832771649803
 20
116.1881927941181
 30
0.0
 40
1.000000000000008
100
AcDbArc
 50
-150.0000000000003
 51
-73.12717257960455
  0
ARC
  5
223
102
{ACAD_XDICTIONARY
360
221
102
}
330
1F
100
AcDbEntity
  8
Main lines
 48
0.75
100
AcDbCircle
 10
89.6678015162685
 20
120.4672696943458
 30
0.0
 40
1.000000000000007
100
AcDbArc
 50
133.1271725796041
 51
209.9999999999997
  0
ARC
  5
226
102
{ACAD_XDICTIONARY
360
224
102
}
330
1F
100
AcDbEntity
  8
Main lines
 48
0.75
100
AcDbCircle
 10
82.39354998743579
 20
112.6259233062329
 30
0.0
 40
21.66666666000001
100
AcDbArc
 50
69.16415325071367
 51
78.06607843183653
  0
ARC
  5
229
102
{ACAD_XDICTIONARY
360
227
102
}
330
1F
100
AcDbEntity
  8
Main lines
 48
0.75
100
AcDbCircle
 10
82.39354998743579
 20
112.6259233062329
 30
0.0
 40
16.66666000000001
100
AcDbArc
 50
72.84281976525027
 51
83.9306665336035
  0
LINE
  5
22C
102
{ACAD_XDICTIONARY
360
22A
102
}
330
1F
100
AcDbEntity
  8
Main lines
 48
0.75
100
AcDbLine
 10
87.70030780257105
 20
127.2750687700418
 30
0.0
 11
87.31011542370652
 21
128.5509017949614
 31
0.0
  0
ARC
  5
22F
102
{ACAD_XDICTIONARY
360
22D
102
}
330
1F
100
AcDbEntity
  8
Main lines
 48
0.75
100
AcDbCircle
 10
84.36721056977797
 20
131.187950659443
 30
0.0
 40
2.000000000000009
100
AcDbArc
 50
-167.9999999999988
 51
-96.06933346639607
  0
ARC
  5
232
102
{ACAD_XDICTIONARY
360
230
102
}
330
1F
100
AcDbEntity
  8
Main lines
 48
0.75
100
AcDbCircle
 10
85.14738788068158
 20
121.2968557824093
 30
0.0
 40
2.500000000000013
100
AcDbArc
 50
124.9322236472182
 51
209.9999999999999
  0
LINE
  5
235
102
{ACAD_XDICTIONARY
360
233
102
}
330
1F
100
AcDbEntity
  8
Main lines
 48
0.75
100
AcDbLine
 10
82.9823243712205
 20
120.0468557824091
 30
0.0
 11
85.70691219343092
 21
115.3277312446573
 31
0.0
  0
LINE
  5
238
102
{ACAD_XDICTIONARY
360
236
102
}
330
1F
100
AcDbEntity
  8
Main lines
 48
0.75
100
AcDbLine
 10
85.519406869206
 20
140.1964962913566
 30
0.0
 11
85.66105733924164
 21
139.5300832250052
 31
0.0
  0
LINE
  5
23B
102
{ACAD_XDICTIONARY
360
239
102
}
330
1F
100
AcDbEntity
  8
Main lines
 48
0.75
100
AcDbLine
 10
80.68314981555065
 20
138.9006251194403
 30
0.0
 11
80.7703193355726
 21
138.4905247709164
 31
0.0
  0
ARC
  5
23E
102
{ACAD_XDICTIONARY
360
23C
102
}
330
1F
100
AcDbEntity
  8
Main lines
 48
0.75
100
AcDbCircle
 10
115.5739641686596
 20
93.7451543067574
 30
0.0
 40
4.999999999999991
100
AcDbArc
 50
-1.901277640981071
 51
99.16415325071402
  0
ARC
  5
241
102
{ACAD_XDICTIONARY
360
23F
102
}
330
1F
100
AcDbEntity
  8
Main lines
 48
0.75
100
AcDbCircle
 10
132.6218228258631
 20
83.90256852191425
 30
0.0
 40
4.999999999999989
100
AcDbArc
 50
20.83584674928622
 51
121.9012776409815
  0
LINE
  5
244
102
{ACAD_XDICTIONARY
360
242
102
}
330
1F
100
AcDbEntity
  8
Main lines
 48
0.75
100
AcDbLine
 10
103.8902971338042
 20
98.87900590553323
 30
0.0
 11
109.1702937220575
 21
93.01497561636359
 31
0.0
  0
LINE
  5
247
102
{ACAD_XDICTIONARY
360
245
102
}
330
1F
100
AcDbEntity
  8
Main lines
 48
0.75
100
AcDbLine
 10
107.6060212611911
 20
102.2246589373275
 30
0.0
 11
111.5092282210152
 21
97.88970843977853
 31
0.0
  0
ARC
  5
24A
102
{ACAD_XDICTIONARY
360
248
102
}
330
1F
100
AcDbEntity
  8
Main lines
 48
0.75
100
AcDbCircle
 10
141.4294404002495
 20
69.75324245248748
 30
0.0
 40
21.66665999999999
100
AcDbArc
 50
121.9012776409809
 51
136.8728274203951
  0
LINE
  5
24D
102
{ACAD_XDICTIONARY
360
24B
102
}
330
1F
100
AcDbEntity
  8
Main lines
 48
0.75
100
AcDbLine
 10
124.4660332585827
 20
78.5631468954065
 30
0.0
 11
119.7469087208309
 21
81.28773471761693
 31
0.0
  0
ARC
  5
250
102
{ACAD_XDICTIONARY
360
24E
102
}
330
1F
100
AcDbEntity
  8
Main lines
 48
0.75
100
AcDbCircle
 10
158.0668178411485
 20
147.6597642564116
 30
0.0
 40
73.0987403071083
100
AcDbArc
 50
-113.5763831590007
 51
-109.1052054924206
  0
ARC
  5
253
102
{ACAD_XDICTIONARY
360
251
102
}
330
1F
100
AcDbEntity
  8
Main lines
 48
0.75
100
AcDbCircle
 10
141.4294404002495
 20
69.75324245248748
 30
0.0
 40
16.666666
100
AcDbArc
 50
125.7402585165937
 51
145.0677763527817
  0
ARC
  5
256
102
{ACAD_XDICTIONARY
360
254
102
}
330
1F
100
AcDbEntity
  8
Main lines
 48
0.75
100
AcDbCircle
 10
135.6071281356166
 20
79.94803309396394
 30
0.0
 40
2.000000000000015
100
AcDbArc
 50
-173.930666533604
 51
-102.0000000000012
  0
ARC
  5
259
102
{ACAD_XDICTIONARY
360
257
102
}
330
1F
100
AcDbEntity
  8
Main lines
 48
0.75
100
AcDbCircle
 10
117.0451007824065
 20
77.9743725116218
 30
0.0
 40
21.66666665999999
100
AcDbArc
 50
11.93392156816338
 51
20.83584674928625
  0
LINE
  5
25C
102
{ACAD_XDICTIONARY
360
25A
102
}
330
1F
100
AcDbEntity
  8
Main lines
 48
0.75
100
AcDbLine
 10
143.9492607011787
 20
81.24187986342764
 30
0.0
 11
138.2434799662412
 21
82.454680998089
 31
0.0
  0
LINE
  5
25F
102
{ACAD_XDICTIONARY
360
25D
102
}
330
1F
100
AcDbEntity
  8
Main lines
 48
0.75
100
AcDbLine
 10
144.6156737666006
 20
81.10022939358959
 30
0.0
 11
143.9492607011787
 21
81.24187986342764
 31
0.0
  0
LINE
  5
262
102
{ACAD_XDICTIONARY
360
260
102
}
330
1F
100
AcDbEntity
  8
Main lines
 48
0.75
100
AcDbLine
 10
142.90970224709
 20
76.3511418597586
 30
0.0
 11
135.1913047539809
 21
77.99173789249639
 31
0.0
  0
LINE
  5
265
102
{ACAD_XDICTIONARY
360
263
102
}
330
1F
100
AcDbEntity
  8
Main lines
 48
0.75
100
AcDbLine
 10
143.3198025946843
 20
76.26397233993427
 30
0.0
 11
142.90970224709
 21
76.3511418597586
 31
0.0
  0
LINE
  5
268
102
{ACAD_XDICTIONARY
360
266
102
}
330
1F
100
AcDbEntity
  8
Main lines
 48
0.75
100
AcDbLine
 10
131.6942462462154
 20
83.28113032675705
 30
0.0
 11
132.970079271135
 21
82.89093794789252
 31
0.0
  0
ARC
  5
26B
102
{ACAD_XDICTIONARY
360
269
102
}
330
1F
100
AcDbEntity
  8
Main lines
 48
0.75
100
AcDbCircle
 10
117.0451007824065
 20
77.9743725116218
 30
0.0
 40
16.66666000000001
100
AcDbArc
 50
6.069333466396405
 51
17.15718023474976
  0
ARC
  5
26E
102
{ACAD_XDICTIONARY
360
26C
102
}
330
1F
100
AcDbEntity
  8
Main lines
 48
0.75
100
AcDbCircle
 10
125.7160332585828
 20
80.72821040486758
 30
0.0
 40
2.499999999999996
100
AcDbArc
 50
-120.0000000000001
 51
-34.93222364721838
  0
ARC
  5
271
102
{ACAD_XDICTIONARY
360
26F
102
}
330
1F
100
AcDbEntity
  8
Main lines
 48
0.75
100
AcDbCircle
 10
158.0668178411485
 20
147.6597642564116
 30
0.0
 40
73.09874030710833
100
AcDbArc
 50
-130.8947945075794
 51
-126.4236168409993
  0
ARC
  5
274
102
{ACAD_XDICTIONARY
360
272
102
}
330
1F
100
AcDbEntity
  8
Main lines
 48
0.75
100
AcDbCircle
 10
98.91647955891347
 20
94.29811183828093
 30
0.0
 40
16.66666599999999
100
AcDbArc
 50
-25.06777635278183
 51
-5.740258516593778
  0
ARC
  5
277
102
{ACAD_XDICTIONARY
360
275
102
}
330
1F
100
AcDbEntity
  8
Main lines
 48
0.75
100
AcDbCircle
 10
98.91647955891347
 20
94.29811183828093
 30
0.0
 40
21.66666000000001
100
AcDbArc
 50
-16.8728274203952
 51
-1.901277640980831
  0
LINE
  5
27A
102
{ACAD_XDICTIONARY
360
278
102
}
330
1F
100
AcDbEntity
  8
Main lines
 48
0.75
100
AcDbLine
 10
120.1073702702915
 20
86.8531248368997
 30
0.0
 11
122.2469087199799
 21
85.6178617370305
 31
0.0
  0
LINE
  5
27D
102
{ACAD_XDICTIONARY
360
27B
102
}
330
1F
100
AcDbEntity
  8
Main lines
 48
0.75
100
AcDbLine
 10
124.3864471705193
 20
84.38259863667005
 30
0.0
 11
122.2469087208309
 21
85.6178617365392
 31
0.0
  0
ARC
  5
280
102
{ACAD_XDICTIONARY
360
27E
102
}
330
1F
100
AcDbEntity
  8
Main lines
 48
0.75
100
AcDbCircle
 10
124.8864471705193
 20
85.2486240404545
 30
0.0
 40
1.000000000000008
100
AcDbArc
 50
-119.9999999999997
 51
-43.12717257960408
  0
ARC
  5
283
102
{ACAD_XDICTIONARY
360
281
102
}
330
1F
100
AcDbEntity
  8
Main lines
 48
0.75
100
AcDbCircle
 10
120.6073702702917
 20
87.71915024068403
 30
0.0
 40
0.9999999999999869
100
AcDbArc
 50
163.1271725796043
 51
240.0000000000005
  0
ARC
  5
286
102
{ACAD_XDICTIONARY
360
284
102
}
330
1F
100
AcDbEntity
  8
Main lines
 48
0.75
100
AcDbCircle
 10
118.2283568468612
 20
77.2912193042886
 30
0.0
 40
21.66666666
100
AcDbArc
 50
99.16415325071368
 51
108.0660784318367
  0
ARC
  5
289
102
{ACAD_XDICTIONARY
360
287
102
}
330
1F
100
AcDbEntity
  8
Main lines
 48
0.75
100
AcDbCircle
 10
118.2283568468612
 20
77.2912193042886
 30
0.0
 40
16.66666
100
AcDbArc
 50
102.8428197652502
 51
113.9306665336035
  0
LINE
  5
28C
102
{ACAD_XDICTIONARY
360
28A
102
}
330
1F
100
AcDbEntity
  8
Main lines
 48
0.75
100
AcDbLine
 10
115.4995711945953
 20
92.63113032724846
 30
0.0
 11
114.5237381696757
 21
93.54093794838371
 31
0.0
  0
ARC
  5
28F
102
{ACAD_XDICTIONARY
360
28D
102
}
330
1F
100
AcDbEntity
  8
Main lines
 48
0.75
100
AcDbCircle
 10
110.6565833730124
 20
94.35323682908128
 30
0.0
 40
2.000000000000014
100
AcDbArc
 50
-137.9999999999989
 51
-66.06933346639596
  0
ARC
  5
292
102
{ACAD_XDICTIONARY
360
290
102
}
330
1F
100
AcDbEntity
  8
Main lines
 48
0.75
100
AcDbCircle
 10
116.277784182228
 20
86.17738604977973
 30
0.0
 40
2.500000000000008
100
AcDbArc
 50
154.9322236472182
 51
240.0000000000001
  0
LINE
  5
295
102
{ACAD_XDICTIONARY
360
293
102
}
330
1F
100
AcDbEntity
  8
Main lines
 48
0.75
100
AcDbLine
 10
115.027784182228
 20
84.01232254031868
 30
0.0
 11
119.7469087199798
 21
81.28773471810828
 31
0.0
  0
LINE
  5
298
102
{ACAD_XDICTIONARY
360
296
102
}
330
1F
100
AcDbEntity
  8
Main lines
 48
0.75
100
AcDbLine
 10
107.1501418225065
 20
102.730964347184
 30
0.0
 11
107.6060212611911
 21
102.2246589373275
 31
0.0
  0
LINE
  5
29B
102
{ACAD_XDICTIONARY
360
299
102
}
330
1F
100
AcDbEntity
  8
Main lines
 48
0.75
100
AcDbLine
 10
103.6097559407675
 20
99.19057846544493
 30
0.0
 11
103.8902971338042
 21
98.87900590553323
 31
0.0
  0
ARC
  5
29E
102
{ACAD_XDICTIONARY
360
29C
102
}
330
1F
100
AcDbEntity
  8
Main lines
 48
0.75
100
AcDbCircle
 10
156.4038229356281
 20
77.53020079836915
 30
0.0
 40
5.000000000000009
100
AcDbArc
 50
28.09872235901875
 51
129.164153250714
  0
ARC
  5
2A1
102
{ACAD_XDICTIONARY
360
29F
102
}
330
1F
100
AcDbEntity
  8
Main lines
 48
0.75
100
AcDbCircle
 10
176.0889945053144
 20
77.53020079836915
 30
0.0
 40
5.000000000000012
100
AcDbArc
 50
50.83584674928603
 51
151.901277640981
  0
LINE
  5
2A4
102
{ACAD_XDICTIONARY
360
2A2
102
}
330
1F
100
AcDbEntity
  8
Main lines
 48
0.75
100
AcDbLine
 10
143.7185446746967
 20
76.13441318474065
 30
0.0
 11
151.2231709966041
 21
73.69601227988503
 31
0.0
  0
LINE
  5
2A7
102
{ACAD_XDICTIONARY
360
2A5
102
}
330
1F
100
AcDbEntity
  8
Main lines
 48
0.75
100
AcDbLine
 10
145.2636296465714
 20
80.88969576621642
 30
0.0
 11
150.8113812787818
 21
79.08712199110303
 31
0.0
  0
ARC
  5
2AA
102
{ACAD_XDICTIONARY
360
2A8
102
}
330
1F
100
AcDbEntity
  8
Main lines
 48
0.75
100
AcDbCircle
 10
190.7912781062647
 20
69.68033376300934
 30
0.0
 40
21.66666
100
AcDbArc
 50
151.9012776409809
 51
166.8728274203952
  0
LINE
  5
2AD
102
{ACAD_XDICTIONARY
360
2AB
102
}
330
1F
100
AcDbEntity
  8
Main lines
 48
0.75
100
AcDbLine
 10
171.6955843653834
 20
68.82823124465722
 30
0.0
 11
166.2464087209626
 21
68.82823124465722
 31
0.0
  0
ARC
  5
2B0
102
{ACAD_XDICTIONARY
360
2AE
102
}
330
1F
100
AcDbEntity
  8
Main lines
 48
0.75
100
AcDbCircle
 10
166.2464087204713
 20
145.4680494861434
 30
0.0
 40
73.0987403071083
100
AcDbArc
 50
-83.57638315900073
 51
-79.1052054924207
  0
ARC
  5
2B3
102
{ACAD_XDICTIONARY
360
2B1
102
}
330
1F
100
AcDbEntity
  8
Main lines
 48
0.75
100
AcDbCircle
 10
190.7912781062647
 20
69.68033376300934
 30
0.0
 40
16.66666599999999
100
AcDbArc
 50
155.7402585165939
 51
175.0677763527817
  0
ARC
  5
2B6
102
{ACAD_XDICTIONARY
360
2B4
102
}
330
1F
100
AcDbEntity
  8
Main lines
 48
0.75
100
AcDbCircle
 10
180.6516124555886
 20
75.5981253124753
 30
0.0
 40
2.00000000000001
100
AcDbArc
 50
-143.9306665336042
 51
-72.0000000000012
  0
ARC
  5
2B9
102
{ACAD_XDICTIONARY
360
2B7
102
}
330
1F
100
AcDbEntity
  8
Main lines
 48
0.75
100
AcDbCircle
 10
165.5632555131381
 20
64.60787143311398
 30
0.0
 40
21.66666665999999
100
AcDbArc
 50
41.93392156816341
 51
50.83584674928621
  0
LINE
  5
2BC
102
{ACAD_XDICTIONARY
360
2BA
102
}
330
1F
100
AcDbEntity
  8
Main lines
 48
0.75
100
AcDbLine
 10
187.2291877943711
 20
80.88969576621639
 30
0.0
 11
181.6814361621608
 21
79.087121991103
 31
0.0
  0
LINE
  5
2BF
102
{ACAD_XDICTIONARY
360
2BD
102
}
330
1F
100
AcDbEntity
  8
Main lines
 48
0.75
100
AcDbLine
 10
187.8771436733593
 20
81.10022939358959
 30
0.0
 11
187.2291877943711
 21
80.88969576621639
 31
0.0
  0
LINE
  5
2C2
102
{ACAD_XDICTIONARY
360
2C0
102
}
330
1F
100
AcDbEntity
  8
Main lines
 48
0.75
100
AcDbLine
 10
188.7742727662459
 20
76.13441318474062
 30
0.0
 11
181.2696464443384
 21
73.696012279885
 31
0.0
  0
LINE
  5
2C5
102
{ACAD_XDICTIONARY
360
2C3
102
}
330
1F
100
AcDbEntity
  8
Main lines
 48
0.75
100
AcDbLine
 10
189.1730148452756
 20
76.26397233993424
 30
0.0
 11
188.7742727662459
 21
76.13441318474062
 31
0.0
  0
LINE
  5
2C8
102
{ACAD_XDICTIONARY
360
2C6
102
}
330
1F
100
AcDbEntity
  8
Main lines
 48
0.75
100
AcDbLine
 10
175.5964087209626
 20
76.52823124465718
 30
0.0
 11
176.8964087209624
 21
76.82823124465722
 31
0.0
  0
ARC
  5
2CB
102
{ACAD_XDICTIONARY
360
2C9
102
}
330
1F
100
AcDbEntity
  8
Main lines
 48
0.75
100
AcDbCircle
 10
165.5632555131381
 20
64.60787143311398
 30
0.0
 40
16.66666
100
AcDbArc
 50
36.06933346639651
 51
47.15718023474975
  0
ARC
  5
2CE
102
{ACAD_XDICTIONARY
360
2CC
102
}
330
1F
100
AcDbEntity
  8
Main lines
 48
0.75
100
AcDbCircle
 10
171.6955843653834
 20
71.32823124465722
 30
0.0
 40
2.5
100
AcDbArc
 50
-90.0
 51
-4.932223647218086
  0
ARC
  5
2D1
102
{ACAD_XDICTIONARY
360
2CF
102
}
330
1F
100
AcDbEntity
  8
Main lines
 48
0.75
100
AcDbCircle
 10
166.2464087204713
 20
145.4680494861434
 30
0.0
 40
73.0987403071083
100
AcDbArc
 50
-100.8947945075794
 51
-96.42361684099929
  0
ARC
  5
2D4
102
{ACAD_XDICTIONARY
360
2D2
102
}
330
1F
100
AcDbEntity
  8
Main lines
 48
0.75
100
AcDbCircle
 10
141.7015393346779
 20
69.68033376300937
 30
0.0
 40
16.666666
100
AcDbArc
 50
4.932223647218173
 51
24.25974148340616
  0
ARC
  5
2D7
102
{ACAD_XDICTIONARY
360
2D5
102
}
330
1F
100
AcDbEntity
  8
Main lines
 48
0.75
100
AcDbCircle
 10
141.7015393346779
 20
69.68033376300937
 30
0.0
 40
21.66665999999999
100
AcDbArc
 50
13.12717257960481
 51
28.0987223590192
  0
LINE
  5
2DA
102
{ACAD_XDICTIONARY
360
2D8
102
}
330
1F
100
AcDbEntity
  8
Main lines
 48
0.75
100
AcDbLine
 10
163.7758825202416
 20
73.82823124465733
 30
0.0
 11
166.24640871998
 21
73.8282312446573
 31
0.0
  0
LINE
  5
2DD
102
{ACAD_XDICTIONARY
360
2DB
102
}
330
1F
100
AcDbEntity
  8
Main lines
 48
0.75
100
AcDbLine
 10
168.7169349207009
 20
73.82823124465733
 30
0.0
 11
166.2464087209626
 21
73.8282312446573
 31
0.0
  0
ARC
  5
2E0
102
{ACAD_XDICTIONARY
360
2DE
102
}
330
1F
100
AcDbEntity
  8
Main lines
 48
0.75
100
AcDbCircle
 10
168.7169349207008
 20
74.82823124465733
 30
0.0
 40
1.0
100
AcDbArc
 50
-90.0
 51
-13.12717257960477
  0
ARC
  5
2E3
102
{ACAD_XDICTIONARY
360
2E1
102
}
330
1F
100
AcDbEntity
  8
Main lines
 48
0.75
100
AcDbCircle
 10
163.7758825202417
 20
74.82823124465733
 30
0.0
 40
1.0
100
AcDbArc
 50
-166.8728274203953
 51
-90.0
  0
ARC
  5
2E6
102
{ACAD_XDICTIONARY
360
2E4
102
}
330
1F
100
AcDbEntity
  8
Main lines
 48
0.75
100
AcDbCircle
 10
166.9295619278045
 20
64.60787143311398
 30
0.0
 40
21.66666666000002
100
AcDbArc
 50
129.1641532507137
 51
138.0660784318365
  0
ARC
  5
2E9
102
{ACAD_XDICTIONARY
360
2E7
102
}
330
1F
100
AcDbEntity
  8
Main lines
 48
0.75
100
AcDbCircle
 10
166.9295619278045
 20
64.60787143311398
 30
0.0
 40
16.66666000000002
100
AcDbArc
 50
132.8428197652503
 51
143.9306665336034
  0
LINE
  5
2EC
102
{ACAD_XDICTIONARY
360
2EA
102
}
330
1F
100
AcDbEntity
  8
Main lines
 48
0.75
100
AcDbLine
 10
156.8964087199799
 20
76.5282312446572
 30
0.0
 11
155.5964087199801
 21
76.82823124465725
 31
0.0
  0
ARC
  5
2EF
102
{ACAD_XDICTIONARY
360
2ED
102
}
330
1F
100
AcDbEntity
  8
Main lines
 48
0.75
100
AcDbCircle
 10
151.841204985354
 20
75.5981253124753
 30
0.0
 40
1.999999999999989
100
AcDbArc
 50
-107.999999999999
 51
-36.06933346639524
  0
ARC
  5
2F2
102
{ACAD_XDICTIONARY
360
2F0
102
}
330
1F
100
AcDbEntity
  8
Main lines
 48
0.75
100
AcDbCircle
 10
160.7972330755591
 20
71.32823124465722
 30
0.0
 40
2.500000000000011
100
AcDbArc
 50
-175.0677763527819
 51
-90.0
  0
LINE
  5
2F5
102
{ACAD_XDICTIONARY
360
2F3
102
}
330
1F
100
AcDbEntity
  8
Main lines
 48
0.75
100
AcDbLine
 10
160.7972330755591
 20
68.82823124465722
 30
0.0
 11
166.2464087199799
 21
68.82823124465722
 31
0.0
  0
LINE
  5
2F8
102
{ACAD_XDICTIONARY
360
2F6
102
}
330
1F
100
AcDbEntity
  8
Main lines
 48
0.75
100
AcDbLine
 10
144.6156737666793
 20
81.1002293938833
 30
0.0
 11
145.2636296465714
 21
80.88969576621642
 31
0.0
  0
LINE
  5
2FB
102
{ACAD_XDICTIONARY
360
2F9
102
}
330
1F
100
AcDbEntity
  8
Main lines
 48
0.75
100
AcDbLine
 10
143.319802594763
 20
76.26397234022795
 30
0.0
 11
143.7185446746967
 21
76.13441318474065
 31
0.0
  0
ARC
  5
2FE
102
{ACAD_XDICTIONARY
360
2FC
102
}
330
1F
100
AcDbEntity
  8
Main lines
 48
0.75
100
AcDbCircle
 10
199.8709946149478
 20
83.90256852240549
 30
0.0
 40
5.000000000000001
100
AcDbArc
 50
58.09872235901859
 51
159.1641532507136
  0
ARC
  5
301
102
{ACAD_XDICTIONARY
360
2FF
102
}
330
1F
100
AcDbEntity
  8
Main lines
 48
0.75
100
AcDbCircle
 10
216.9188532721513
 20
93.74515430724864
 30
0.0
 40
5.000000000000008
100
AcDbArc
 50
80.83584674928635
 51
181.9012776409811
  0
LINE
  5
304
102
{ACAD_XDICTIONARY
360
302
102
}
330
1F
100
AcDbEntity
  8
Main lines
 48
0.75
100
AcDbLine
 10
189.5831151937209
 20
76.35114186024987
 30
0.0
 11
197.3015126868299
 21
77.99173789298766
 31
0.0
  0
LINE
  5
307
102
{ACAD_XDICTIONARY
360
305
102
}
330
1F
100
AcDbEntity
  8
Main lines
 48
0.75
100
AcDbLine
 10
188.543556739632
 20
81.24187986391891
 30
0.0
 11
194.2493374745695
 21
82.45468099858027
 31
0.0
  0
ARC
  5
30A
102
{ACAD_XDICTIONARY
360
308
102
}
330
1F
100
AcDbEntity
  8
Main lines
 48
0.75
100
AcDbCircle
 10
233.5763378818975
 20
94.29811183877214
 30
0.0
 40
21.66666
100
AcDbArc
 50
-178.0987223590192
 51
-163.1271725796048
  0
LINE
  5
30D
102
{ACAD_XDICTIONARY
360
30B
102
}
330
1F
100
AcDbEntity
  8
Main lines
 48
0.75
100
AcDbLine
 10
217.4650332585828
 20
84.01232254080989
 30
0.0
 11
212.745908720831
 21
81.28773471859952
 31
0.0
  0
ARC
  5
310
102
{ACAD_XDICTIONARY
360
30E
102
}
330
1F
100
AcDbEntity
  8
Main lines
 48
0.75
100
AcDbCircle
 10
174.4259995996625
 20
147.6597642569029
 30
0.0
 40
73.0987403071083
100
AcDbArc
 50
-53.5763831590008
 51
-49.10520549242067
  0
ARC
  5
313
102
{ACAD_XDICTIONARY
360
311
102
}
330
1F
100
AcDbEntity
  8
Main lines
 48
0.75
100
AcDbCircle
 10
233.5763378818975
 20
94.29811183877214
 30
0.0
 40
16.66666600000001
100
AcDbArc
 50
-174.2597414834062
 51
-154.9322236472181
  0
ARC
  5
316
102
{ACAD_XDICTIONARY
360
314
102
}
330
1F
100
AcDbEntity
  8
Main lines
 48
0.75
100
AcDbCircle
 10
221.8362340677986
 20
94.35323682957252
 30
0.0
 40
1.999999999999988
100
AcDbArc
 50
-113.930666533604
 51
-42.00000000000163
  0
ARC
  5
319
102
{ACAD_XDICTIONARY
360
317
102
}
330
1F
100
AcDbEntity
  8
Main lines
 48
0.75
100
AcDbCircle
 10
214.2644605939498
 20
77.29121930477987
 30
0.0
 40
21.66666665999998
100
AcDbArc
 50
71.93392156816341
 51
80.83584674928616
  0
LINE
  5
31C
102
{ACAD_XDICTIONARY
360
31A
102
}
330
1F
100
AcDbEntity
  8
Main lines
 48
0.75
100
AcDbLine
 10
224.8867961796196
 20
102.2246589378187
 30
0.0
 11
220.9835892197956
 21
97.88970844026974
 31
0.0
  0
LINE
  5
31F
102
{ACAD_XDICTIONARY
360
31D
102
}
330
1F
100
AcDbEntity
  8
Main lines
 48
0.75
100
AcDbLine
 10
225.3426756176684
 20
102.7309643469689
 30
0.0
 11
224.8867961796196
 21
102.2246589378187
 31
0.0
  0
LINE
  5
322
102
{ACAD_XDICTIONARY
360
320
102
}
330
1F
100
AcDbEntity
  8
Main lines
 48
0.75
100
AcDbLine
 10
228.6025203070067
 20
98.87900590602447
 30
0.0
 11
223.3225237187532
 21
93.0149756168548
 31
0.0
  0
LINE
  5
325
102
{ACAD_XDICTIONARY
360
323
102
}
330
1F
100
AcDbEntity
  8
Main lines
 48
0.75
100
AcDbLine
 10
228.8830614994074
 20
99.19057846522983
 30
0.0
 11
228.6025203070067
 21
98.87900590602447
 31
0.0
  0
LINE
  5
328
102
{ACAD_XDICTIONARY
360
326
102
}
330
1F
100
AcDbEntity
  8
Main lines
 48
0.75
100
AcDbLine
 10
216.9932462462156
 20
92.63113032773967
 30
0.0
 11
217.9690792711351
 21
93.54093794887493
 31
0.0
  0
ARC
  5
32B
102
{ACAD_XDICTIONARY
360
329
102
}
330
1F
100
AcDbEntity
  8
Main lines
 48
0.75
100
AcDbCircle
 10
214.2644605939498
 20
77.29121930477987
 30
0.0
 40
16.66666
100
AcDbArc
 50
66.06933346639633
 51
77.15718023474963
  0
ARC
  5
32E
102
{ACAD_XDICTIONARY
360
32C
102
}
330
1F
100
AcDbEntity
  8
Main lines
 48
0.75
100
AcDbCircle
 10
216.2150332585829
 20
86.17738605027097
 30
0.0
 40
2.500000000000008
100
AcDbArc
 50
-60.00000000000011
 51
25.06777635278211
  0
ARC
  5
331
102
{ACAD_XDICTIONARY
360
32F
102
}
330
1F
100
AcDbEntity
  8
Main lines
 48
0.75
100
AcDbCircle
 10
174.4259995996625
 20
147.6597642569029
 30
0.0
 40
73.09874030710832
100
AcDbArc
 50
-70.89479450757942
 51
-66.42361684099932
  0
ARC
  5
334
102
{ACAD_XDICTIONARY
360
332
102
}
330
1F
100
AcDbEntity
  8
Main lines
 48
0.75
100
AcDbCircle
 10
191.0633770405614
 20
69.75324245297878
 30
0.0
 40
16.66666599999999
100
AcDbArc
 50
34.9322236472182
 51
54.25974148340634
  0
ARC
  5
337
102
{ACAD_XDICTIONARY
360
335
102
}
330
1F
100
AcDbEntity
  8
Main lines
 48
0.75
100
AcDbCircle
 10
191.0633770405614
 20
69.75324245297878
 30
0.0
 40
21.66666
100
AcDbArc
 50
43.12717257960477
 51
58.09872235901914
  0
LINE
  5
33A
102
{ACAD_XDICTIONARY
360
338
102
}
330
1F
100
AcDbEntity
  8
Main lines
 48
0.75
100
AcDbLine
 10
208.1063702702914
 20
84.3825986371613
 30
0.0
 11
210.24590871998
 21
85.61786173703044
 31
0.0
  0
LINE
  5
33D
102
{ACAD_XDICTIONARY
360
33B
102
}
330
1F
100
AcDbEntity
  8
Main lines
 48
0.75
100
AcDbLine
 10
212.3854471705193
 20
86.85312483739094
 30
0.0
 11
210.2459087208309
 21
85.61786173752174
 31
0.0
  0
ARC
  5
340
102
{ACAD_XDICTIONARY
360
33E
102
}
330
1F
100
AcDbEntity
  8
Main lines
 48
0.75
100
AcDbCircle
 10
211.8854471705193
 20
87.71915024117533
 30
0.0
 40
0.9999999999999898
100
AcDbArc
 50
-59.99999999999956
 51
16.8728274203955
  0
ARC
  5
343
102
{ACAD_XDICTIONARY
360
341
102
}
330
1F
100
AcDbEntity
  8
Main lines
 48
0.75
100
AcDbCircle
 10
207.6063702702917
 20
85.2486240409458
 30
0.0
 40
1.000000000000002
100
AcDbArc
 50
-136.8728274203956
 51
-60.00000000000012
  0
ARC
  5
346
102
{ACAD_XDICTIONARY
360
344
102
}
330
1F
100
AcDbEntity
  8
Main lines
 48
0.75
100
AcDbCircle
 10
215.4477166584045
 20
77.97437251211306
 30
0.0
 40
21.66666666
100
AcDbArc
 50
159.1641532507138
 51
168.0660784318366
  0
ARC
  5
349
102
{ACAD_XDICTIONARY
360
347
102
}
330
1F
100
AcDbEntity
  8
Main lines
 48
0.75
100
AcDbCircle
 10
215.4477166584045
 20
77.97437251211306
 30
0.0
 40
16.66666000000001
100
AcDbArc
 50
162.8428197652503
 51
173.9306665336035
  0
LINE
  5
34C
102
{ACAD_XDICTIONARY
360
34A
102
}
330
1F
100
AcDbEntity
  8
Main lines
 48
0.75
100
AcDbLine
 10
200.7985711945954
 20
83.28113032724832
 30
0.0
 11
199.5227381696758
 21
82.8909379483838
 31
0.0
  0
ARC
  5
34F
102
{ACAD_XDICTIONARY
360
34D
102
}
330
1F
100
AcDbEntity
  8
Main lines
 48
0.75
100
AcDbCircle
 10
196.8856893051944
 20
79.94803309445524
 30
0.0
 40
1.999999999999988
100
AcDbArc
 50
-77.99999999999862
 51
-6.069333466396103
  0
ARC
  5
352
102
{ACAD_XDICTIONARY
360
350
102
}
330
1F
100
AcDbEntity
  8
Main lines
 48
0.75
100
AcDbCircle
 10
206.7767841822281
 20
80.72821040535882
 30
0.0
 40
2.500000000000009
100
AcDbArc
 50
-145.067776352782
 51
-60.00000000000018
  0
LINE
  5
355
102
{ACAD_XDICTIONARY
360
353
102
}
330
1F
100
AcDbEntity
  8
Main lines
 48
0.75
100
AcDbLine
 10
208.0267841822281
 20
78.56314689589775
 30
0.0
 11
212.7459087199799
 21
81.28773471810817
 31
0.0
  0
LINE
  5
358
102
{ACAD_XDICTIONARY
360
356
102
}
330
1F
100
AcDbEntity
  8
Main lines
 48
0.75
100
AcDbLine
 10
187.8771436732806
 20
81.10022939388327
 30
0.0
 11
188.543556739632
 21
81.24187986391891
 31
0.0
  0
LINE
  5
35B
102
{ACAD_XDICTIONARY
360
359
102
}
330
1F
100
AcDbEntity
  8
Main lines
 48
0.75
100
AcDbLine
 10
189.1730148451969
 20
76.26397234022792
 30
0.0
 11
189.5831151937209
 21
76.35114186024987
 31
0.0
  0
ARC
  5
35E
102
{ACAD_XDICTIONARY
360
35C
102
}
330
1F
100
AcDbEntity
  8
Main lines
 48
0.75
100
AcDbCircle
 10
234.3284856578798
 20
111.1547866933369
 30
0.0
 40
4.999999999999999
100
AcDbArc
 50
88.09872235901861
 51
189.164153250714
  0
ARC
  5
361
102
{ACAD_XDICTIONARY
360
35F
102
}
330
1F
100
AcDbEntity
  8
Main lines
 48
0.75
100
AcDbCircle
 10
244.171071442723
 20
128.2026453505404
 30
0.0
 40
4.999999999999989
100
AcDbArc
 50
110.8358467492862
 51
211.901277640981
  0
LINE
  5
364
102
{ACAD_XDICTIONARY
360
362
102
}
330
1F
100
AcDbEntity
  8
Main lines
 48
0.75
100
AcDbLine
 10
229.194634059104
 20
99.47111965848154
 30
0.0
 11
235.0586643482736
 21
104.7511162467349
 31
0.0
  0
LINE
  5
367
102
{ACAD_XDICTIONARY
360
365
102
}
330
1F
100
AcDbEntity
  8
Main lines
 48
0.75
100
AcDbLine
 10
225.8489810273097
 20
103.1868437858685
 30
0.0
 11
230.1839315248587
 21
107.0900507456926
 31
0.0
  0
ARC
  5
36A
102
{ACAD_XDICTIONARY
360
368
102
}
330
1F
100
AcDbEntity
  8
Main lines
 48
0.75
100
AcDbCircle
 10
258.3203975121497
 20
137.0102629249267
 30
0.0
 40
21.66665999999999
100
AcDbArc
 50
-148.0987223590191
 51
-133.1271725796048
  0
LINE
  5
36D
102
{ACAD_XDICTIONARY
360
36B
102
}
330
1F
100
AcDbEntity
  8
Main lines
 48
0.75
100
AcDbLine
 10
249.5104930692307
 20
120.04685578326
 30
0.0
 11
246.7859052470203
 21
115.3277312455082
 31
0.0
  0
ARC
  5
370
102
{ACAD_XDICTIONARY
360
36E
102
}
330
1F
100
AcDbEntity
  8
Main lines
 48
0.75
100
AcDbCircle
 10
180.4138757082256
 20
153.6476403658258
 30
0.0
 40
73.09874030710832
100
AcDbArc
 50
-23.57638315900078
 51
-19.10520549242065
  0
ARC
  5
373
102
{ACAD_XDICTIONARY
360
371
102
}
330
1F
100
AcDbEntity
  8
Main lines
 48
0.75
100
AcDbCircle
 10
258.3203975121497
 20
137.0102629249267
 30
0.0
 40
16.666666
100
AcDbArc
 50
-144.2597414834063
 51
-124.9322236472183
  0
ARC
  5
376
102
{ACAD_XDICTIONARY
360
374
102
}
330
1F
100
AcDbEntity
  8
Main lines
 48
0.75
100
AcDbCircle
 10
248.1256068706733
 20
131.1879506602938
 30
0.0
 40
2.000000000000012
100
AcDbArc
 50
-83.93066653360476
 51
-12.00000000000121
  0
ARC
  5
379
102
{ACAD_XDICTIONARY
360
377
102
}
330
1F
100
AcDbEntity
  8
Main lines
 48
0.75
100
AcDbCircle
 10
250.0992674530154
 20
112.6259233070837
 30
0.0
 40
21.66666665999999
100
AcDbArc
 50
101.9339215681634
 51
110.8358467492863
  0
LINE
  5
37C
102
{ACAD_XDICTIONARY
360
37A
102
}
330
1F
100
AcDbEntity
  8
Main lines
 48
0.75
100
AcDbLine
 10
246.8317601012096
 20
139.5300832258561
 30
0.0
 11
245.6189589665482
 21
133.8243024909186
 31
0.0
  0
LINE
  5
37F
102
{ACAD_XDICTIONARY
360
37D
102
}
330
1F
100
AcDbEntity
  8
Main lines
 48
0.75
100
AcDbLine
 10
246.9734105710477
 20
140.1964962912779
 30
0.0
 11
246.8317601012096
 21
139.5300832258561
 31
0.0
  0
LINE
  5
382
102
{ACAD_XDICTIONARY
360
380
102
}
330
1F
100
AcDbEntity
  8
Main lines
 48
0.75
100
AcDbLine
 10
251.7224981048786
 20
138.4905247717673
 30
0.0
 11
250.0819020721408
 21
130.7721272786582
 31
0.0
  0
LINE
  5
385
102
{ACAD_XDICTIONARY
360
383
102
}
330
1F
100
AcDbEntity
  8
Main lines
 48
0.75
100
AcDbLine
 10
251.809667624703
 20
138.9006251193616
 30
0.0
 11
251.7224981048786
 21
138.4905247717673
 31
0.0
  0
LINE
  5
388
102
{ACAD_XDICTIONARY
360
386
102
}
330
1F
100
AcDbEntity
  8
Main lines
 48
0.75
100
AcDbLine
 10
244.7925096378802
 20
127.2750687708927
 30
0.0
 11
245.1827020167447
 21
128.5509017958123
 31
0.0
  0
ARC
  5
38B
102
{ACAD_XDICTIONARY
360
389
102
}
330
1F
100
AcDbEntity
  8
Main lines
 48
0.75
100
AcDbCircle
 10
250.0992674530154
 20
112.6259233070837
 30
0.0
 40
16.66666000000001
100
AcDbArc
 50
96.06933346639642
 51
107.1571802347497
  0
ARC
  5
38E
102
{ACAD_XDICTIONARY
360
38C
102
}
330
1F
100
AcDbEntity
  8
Main lines
 48
0.75
100
AcDbCircle
 10
247.3454295597696
 20
121.29685578326
 30
0.0
 40
2.500000000000008
100
AcDbArc
 50
-29.99999999999989
 51
55.06777635278253
  0
ARC
  5
391
102
{ACAD_XDICTIONARY
360
38F
102
}
330
1F
100
AcDbEntity
  8
Main lines
 48
0.75
100
AcDbCircle
 10
180.4138757082256
 20
153.6476403658258
 30
0.0
 40
73.09874030710832
100
AcDbArc
 50
-40.89479450757942
 51
-36.42361684099929
  0
ARC
  5
394
102
{ACAD_XDICTIONARY
360
392
102
}
330
1F
100
AcDbEntity
  8
Main lines
 48
0.75
100
AcDbCircle
 10
233.7755281263563
 20
94.49730208359068
 30
0.0
 40
16.66666600000001
100
AcDbArc
 50
64.93222364721821
 51
84.25974148340623
  0
ARC
  5
397
102
{ACAD_XDICTIONARY
360
395
102
}
330
1F
100
AcDbEntity
  8
Main lines
 48
0.75
100
AcDbCircle
 10
233.7755281263563
 20
94.49730208359068
 30
0.0
 40
21.66665999999999
100
AcDbArc
 50
73.12717257960479
 51
88.09872235901916
  0
LINE
  5
39A
102
{ACAD_XDICTIONARY
360
398
102
}
330
1F
100
AcDbEntity
  8
Main lines
 48
0.75
100
AcDbLine
 10
241.2205151277375
 20
115.6881927949688
 30
0.0
 11
242.4557782276067
 21
117.8277312446573
 31
0.0
  0
LINE
  5
39D
102
{ACAD_XDICTIONARY
360
39B
102
}
330
1F
100
AcDbEntity
  8
Main lines
 48
0.75
100
AcDbLine
 10
243.6910413279671
 20
119.9672696951966
 30
0.0
 11
242.455778228098
 21
117.8277312455082
 31
0.0
  0
ARC
  5
3A0
102
{ACAD_XDICTIONARY
360
39E
102
}
330
1F
100
AcDbEntity
  8
Main lines
 48
0.75
100
AcDbCircle
 10
242.8250159241827
 20
120.4672696951965
 30
0.0
 40
1.000000000000002
100
AcDbArc
 50
-30.00000000000004
 51
46.87282742039572
  0
ARC
  5
3A3
102
{ACAD_XDICTIONARY
360
3A1
102
}
330
1F
100
AcDbEntity
  8
Main lines
 48
0.75
100
AcDbCircle
 10
240.3544897239531
 20
116.1881927949689
 30
0.0
 40
0.9999999999999869
100
AcDbArc
 50
-106.8728274203957
 51
-30.00000000000054
  0
ARC
  5
3A6
102
{ACAD_XDICTIONARY
360
3A4
102
}
330
1F
100
AcDbEntity
  8
Main lines
 48
0.75
100
AcDbCircle
 10
250.7824206603485
 20
113.8091793715384
 30
0.0
 40
21.66666666
100
AcDbArc
 50
-170.8358467492863
 51
-161.9339215681634
  0
ARC
  5
3A9
102
{ACAD_XDICTIONARY
360
3A7
102
}
330
1F
100
AcDbEntity
  8
Main lines
 48
0.75
100
AcDbCircle
 10
250.7824206603485
 20
113.8091793715384
 30
0.0
 40
16.66666
100
AcDbArc
 50
-167.1571802347497
 51
-156.0693334663965
  0
LINE
  5
3AC
102
{ACAD_XDICTIONARY
360
3AA
102
}
330
1F
100
AcDbEntity
  8
Main lines
 48
0.75
100
AcDbLine
 10
235.4425096373888
 20
111.0803937192726
 30
0.0
 11
234.5327020162536
 21
110.1045606943531
 31
0.0
  0
ARC
  5
3AF
102
{ACAD_XDICTIONARY
360
3AD
102
}
330
1F
100
AcDbEntity
  8
Main lines
 48
0.75
100
AcDbCircle
 10
233.720403135556
 20
106.2374058976896
 30
0.0
 40
1.999999999999984
100
AcDbArc
 50
-47.99999999999898
 51
23.93066653360342
  0
ARC
  5
3B2
102
{ACAD_XDICTIONARY
360
3B0
102
}
330
1F
100
AcDbEntity
  8
Main lines
 48
0.75
100
AcDbCircle
 10
241.8962539148574
 20
111.8586067069053
 30
0.0
 40
2.499999999999993
100
AcDbArc
 50
-115.0677763527813
 51
-29.99999999999939
  0
LINE
  5
3B5
102
{ACAD_XDICTIONARY
360
3B3
102
}
330
1F
100
AcDbEntity
  8
Main lines
 48
0.75
100
AcDbLine
 10
244.0613174243185
 20
110.6086067069053
 30
0.0
 11
246.785905246529
 21
115.3277312446571
 31
0.0
  0
LINE
  5
3B8
102
{ACAD_XDICTIONARY
360
3B6
102
}
330
1F
100
AcDbEntity
  8
Main lines
 48
0.75
100
AcDbLine
 10
225.3426756174533
 20
102.7309643471839
 30
0.0
 11
225.8489810273097
 21
103.1868437858685
 31
0.0
  0
LINE
  5
3BB
102
{ACAD_XDICTIONARY
360
3B9
102
}
330
1F
100
AcDbEntity
  8
Main lines
 48
0.75
100
AcDbLine
 10
228.8830614991923
 20
99.19057846544484
 30
0.0
 11
229.194634059104
 21
99.47111965848154
 31
0.0
  0
ARC
  5
3BE
102
{ACAD_XDICTIONARY
360
3BC
102
}
330
1F
100
AcDbEntity
  8
Main lines
 48
0.75
100
AcDbCircle
 10
250.5434391662681
 20
151.9846454603054
 30
0.0
 40
5.000000000000009
100
AcDbArc
 50
118.0987223590187
 51
219.164153250714
  0
ARC
  5
3C1
102
{ACAD_XDICTIONARY
360
3BF
102
}
330
1F
100
AcDbEntity
  8
Main lines
 48
0.75
100
AcDbCircle
 10
250.5434391662681
 20
171.6698170299917
 30
0.0
 40
4.999999999999994
100
AcDbArc
 50
140.8358467492863
 51
241.9012776409812
  0
LINE
  5
3C4
102
{ACAD_XDICTIONARY
360
3C2
102
}
330
1F
100
AcDbEntity
  8
Main lines
 48
0.75
100
AcDbLine
 10
251.9392267798966
 20
139.299367199374
 30
0.0
 11
254.3776276847522
 21
146.8039935212814
 31
0.0
  0
LINE
  5
3C7
102
{ACAD_XDICTIONARY
360
3C5
102
}
330
1F
100
AcDbEntity
  8
Main lines
 48
0.75
100
AcDbLine
 10
247.1839441984208
 20
140.8444521712487
 30
0.0
 11
248.9865179735342
 21
146.3922038034591
 31
0.0
  0
ARC
  5
3CA
102
{ACAD_XDICTIONARY
360
3C8
102
}
330
1F
100
AcDbEntity
  8
Main lines
 48
0.75
100
AcDbCircle
 10
258.3933062016279
 20
186.372100630942
 30
0.0
 40
21.66665999999999
100
AcDbArc
 50
-118.0987223590192
 51
-103.1271725796049
  0
LINE
  5
3CD
102
{ACAD_XDICTIONARY
360
3CB
102
}
330
1F
100
AcDbEntity
  8
Main lines
 48
0.75
100
AcDbLine
 10
259.24540871998
 20
167.2764068900607
 30
0.0
 11
259.24540871998
 21
161.8272312456399
 31
0.0
  0
ARC
  5
3D0
102
{ACAD_XDICTIONARY
360
3CE
102
}
330
1F
100
AcDbEntity
  8
Main lines
 48
0.75
100
AcDbCircle
 10
182.6055904784938
 20
161.8272312451486
 30
0.0
 40
73.09874030710829
100
AcDbArc
 50
6.423616840999254
 51
10.89479450757938
  0
ARC
  5
3D3
102
{ACAD_XDICTIONARY
360
3D1
102
}
330
1F
100
AcDbEntity
  8
Main lines
 48
0.75
100
AcDbCircle
 10
258.3933062016279
 20
186.372100630942
 30
0.0
 40
16.666666
100
AcDbArc
 50
-114.2597414834062
 51
-94.93222364721817
  0
ARC
  5
3D6
102
{ACAD_XDICTIONARY
360
3D4
102
}
330
1F
100
AcDbEntity
  8
Main lines
 48
0.75
100
AcDbCircle
 10
252.4755146521619
 20
176.2324349802659
 30
0.0
 40
2.000000000000005
100
AcDbArc
 50
-53.93066653360444
 51
17.99999999999976
  0
ARC
  5
3D9
102
{ACAD_XDICTIONARY
360
3D7
102
}
330
1F
100
AcDbEntity
  8
Main lines
 48
0.75
100
AcDbCircle
 10
263.4657685315232
 20
161.1440780378154
 30
0.0
 40
21.66666665999998
100
AcDbArc
 50
131.9339215681634
 51
140.8358467492862
  0
LINE
  5
3DC
102
{ACAD_XDICTIONARY
360
3DA
102
}
330
1F
100
AcDbEntity
  8
Main lines
 48
0.75
100
AcDbLine
 10
247.1839441984208
 20
182.8100103190484
 30
0.0
 11
248.9865179735342
 21
177.2622586868381
 31
0.0
  0
LINE
  5
3DF
102
{ACAD_XDICTIONARY
360
3DD
102
}
330
1F
100
AcDbEntity
  8
Main lines
 48
0.75
100
AcDbLine
 10
246.9734105710476
 20
183.4579661980366
 30
0.0
 11
247.1839441984208
 21
182.8100103190484
 31
0.0
  0
LINE
  5
3E2
102
{ACAD_XDICTIONARY
360
3E0
102
}
330
1F
100
AcDbEntity
  8
Main lines
 48
0.75
100
AcDbLine
 10
251.9392267798966
 20
184.3550952909232
 30
0.0
 11
254.3776276847522
 21
176.8504689690157
 31
0.0
  0
LINE
  5
3E5
102
{ACAD_XDICTIONARY
360
3E3
102
}
330
1F
100
AcDbEntity
  8
Main lines
 48
0.75
100
AcDbLine
 10
251.809667624703
 20
184.7538373699529
 30
0.0
 11
251.9392267798966
 21
184.3550952909232
 31
0.0
  0
LINE
  5
3E8
102
{ACAD_XDICTIONARY
360
3E6
102
}
330
1F
100
AcDbEntity
  8
Main lines
 48
0.75
100
AcDbLine
 10
251.54540871998
 20
171.1772312456399
 30
0.0
 11
251.24540871998
 21
172.4772312456397
 31
0.0
  0
ARC
  5
3EB
102
{ACAD_XDICTIONARY
360
3E9
102
}
330
1F
100
AcDbEntity
  8
Main lines
 48
0.75
100
AcDbCircle
 10
263.4657685315232
 20
161.1440780378154
 30
0.0
 40
16.66666000000002
100
AcDbArc
 50
126.0693334663966
 51
137.1571802347497
  0
ARC
  5
3EE
102
{ACAD_XDICTIONARY
360
3EC
102
}
330
1F
100
AcDbEntity
  8
Main lines
 48
0.75
100
AcDbCircle
 10
256.74540871998
 20
167.2764068900607
 30
0.0
 40
2.5
100
AcDbArc
 50
0.0
 51
85.06777635278127
  0
ARC
  5
3F1
102
{ACAD_XDICTIONARY
360
3EF
102
}
330
1F
100
AcDbEntity
  8
Main lines
 48
0.75
100
AcDbCircle
 10
182.6055904784938
 20
161.8272312451486
 30
0.0
 40
73.09874030710832
100
AcDbArc
 50
-10.89479450757944
 51
-6.423616840999276
  0
ARC
  5
3F4
102
{ACAD_XDICTIONARY
360
3F2
102
}
330
1F
100
AcDbEntity
  8
Main lines
 48
0.75
100
AcDbCircle
 10
258.3933062016279
 20
137.2823618593552
 30
0.0
 40
16.66666599999999
100
AcDbArc
 50
94.93222364721818
 51
114.2597414834062
  0
ARC
  5
3F7
102
{ACAD_XDICTIONARY
360
3F5
102
}
330
1F
100
AcDbEntity
  8
Main lines
 48
0.75
100
AcDbCircle
 10
258.3933062016279
 20
137.2823618593552
 30
0.0
 40
21.66666
100
AcDbArc
 50
103.1271725796049
 51
118.0987223590192
  0
LINE
  5
3FA
102
{ACAD_XDICTIONARY
360
3F8
102
}
330
1F
100
AcDbEntity
  8
Main lines
 48
0.75
100
AcDbLine
 10
254.2454087199799
 20
159.3567050449189
 30
0.0
 11
254.2454087199799
 21
161.8272312446573
 31
0.0
  0
LINE
  5
3FD
102
{ACAD_XDICTIONARY
360
3FB
102
}
330
1F
100
AcDbEntity
  8
Main lines
 48
0.75
100
AcDbLine
 10
254.2454087199799
 20
164.2977574453782
 30
0.0
 11
254.2454087199799
 21
161.8272312456399
 31
0.0
  0
ARC
  5
400
102
{ACAD_XDICTIONARY
360
3FE
102
}
330
1F
100
AcDbEntity
  8
Main lines
 48
0.75
100
AcDbCircle
 10
253.2454087199799
 20
164.2977574453781
 30
0.0
 40
1.0
100
AcDbArc
 50
0.0
 51
76.87282742039523
  0
ARC
  5
403
102
{ACAD_XDICTIONARY
360
401
102
}
330
1F
100
AcDbEntity
  8
Main lines
 48
0.75
100
AcDbCircle
 10
253.2454087199799
 20
159.3567050449191
 30
0.0
 40
1.0
100
AcDbArc
 50
-76.87282742039523
 51
0.0
  0
ARC
  5
406
102
{ACAD_XDICTIONARY
360
404
102
}
330
1F
100
AcDbEntity
  8
Main lines
 48
0.75
100
AcDbCircle
 10
263.4657685315232
 20
162.5103844524818
 30
0.0
 40
21.66666666000003
100
AcDbArc
 50
-140.8358467492863
 51
-131.9339215681634
  0
ARC
  5
409
102
{ACAD_XDICTIONARY
360
407
102
}
330
1F
100
AcDbEntity
  8
Main lines
 48
0.75
100
AcDbCircle
 10
263.4657685315232
 20
162.5103844524818
 30
0.0
 40
16.66666
100
AcDbArc
 50
-137.1571802347497
 51
-126.0693334663965
  0
LINE
  5
40C
102
{ACAD_XDICTIONARY
360
40A
102
}
330
1F
100
AcDbEntity
  8
Main lines
 48
0.75
100
AcDbLine
 10
251.54540871998
 20
152.4772312446572
 30
0.0
 11
251.24540871998
 21
151.1772312446574
 31
0.0
  0
ARC
  5
40F
102
{ACAD_XDICTIONARY
360
40D
102
}
330
1F
100
AcDbEntity
  8
Main lines
 48
0.75
100
AcDbCircle
 10
252.4755146521619
 20
147.4220275100313
 30
0.0
 40
1.999999999999989
100
AcDbArc
 50
-17.99999999999898
 51
53.9306665336033
  0
ARC
  5
412
102
{ACAD_XDICTIONARY
360
410
102
}
330
1F
100
AcDbEntity
  8
Main lines
 48
0.75
100
AcDbCircle
 10
256.74540871998
 20
156.3780556002365
 30
0.0
 40
2.500000000000013
100
AcDbArc
 50
-85.06777635278127
 51
0.0
  0
LINE
  5
415
102
{ACAD_XDICTIONARY
360
413
102
}
330
1F
100
AcDbEntity
  8
Main lines
 48
0.75
100
AcDbLine
 10
259.24540871998
 20
156.3780556002364
 30
0.0
 11
259.24540871998
 21
161.8272312446572
 31
0.0
  0
LINE
  5
418
102
{ACAD_XDICTIONARY
360
416
102
}
330
1F
100
AcDbEntity
  8
Main lines
 48
0.75
100
AcDbLine
 10
246.9734105707539
 20
140.1964962913566
 30
0.0
 11
247.1839441984208
 21
140.8444521712487
 31
0.0
  0
LINE
  5
41B
102
{ACAD_XDICTIONARY
360
419
102
}
330
1F
100
AcDbEntity
  8
Main lines
 48
0.75
100
AcDbLine
 10
251.8096676244093
 20
138.9006251194403
 30
0.0
 11
251.9392267798966
 21
139.299367199374
 31
0.0
  0
ARC
  5
41E
102
{ACAD_XDICTIONARY
360
41C
102
}
330
1F
100
AcDbEntity
  8
Main lines
 48
0.75
100
AcDbCircle
 10
244.1710714422317
 20
195.451817139625
 30
0.0
 40
4.999999999999989
100
AcDbArc
 50
148.0987223590188
 51
249.1641532507138
  0
ARC
  5
421
102
{ACAD_XDICTIONARY
360
41F
102
}
330
1F
100
AcDbEntity
  8
Main lines
 48
0.75
100
AcDbCircle
 10
234.3284856573886
 20
212.4996757968286
 30
0.0
 40
5.000000000000015
100
AcDbArc
 50
170.8358467492863
 51
271.9012776409814
  0
LINE
  5
424
102
{ACAD_XDICTIONARY
360
422
102
}
330
1F
100
AcDbEntity
  8
Main lines
 48
0.75
100
AcDbLine
 10
251.7224981043873
 20
185.1639377183982
 30
0.0
 11
250.0819020716496
 21
192.8823352115072
 31
0.0
  0
LINE
  5
427
102
{ACAD_XDICTIONARY
360
425
102
}
330
1F
100
AcDbEntity
  8
Main lines
 48
0.75
100
AcDbLine
 10
246.8317601007183
 20
184.1243792643094
 30
0.0
 11
245.618958966057
 21
189.8301599992468
 31
0.0
  0
ARC
  5
42A
102
{ACAD_XDICTIONARY
360
428
102
}
330
1F
100
AcDbEntity
  8
Main lines
 48
0.75
100
AcDbCircle
 10
233.7755281258651
 20
229.1571604065747
 30
0.0
 40
21.66666
100
AcDbArc
 50
-88.09872235901916
 51
-73.1271725796048
  0
LINE
  5
42D
102
{ACAD_XDICTIONARY
360
42B
102
}
330
1F
100
AcDbEntity
  8
Main lines
 48
0.75
100
AcDbLine
 10
244.0613174238273
 20
213.0458557832602
 30
0.0
 11
246.7859052460377
 21
208.3267312455083
 31
0.0
  0
ARC
  5
430
102
{ACAD_XDICTIONARY
360
42E
102
}
330
1F
100
AcDbEntity
  8
Main lines
 48
0.75
100
AcDbCircle
 10
180.4138757077343
 20
170.0068221243397
 30
0.0
 40
73.0987403071083
100
AcDbArc
 50
36.42361684099927
 51
40.8947945075794
  0
ARC
  5
433
102
{ACAD_XDICTIONARY
360
431
102
}
330
1F
100
AcDbEntity
  8
Main lines
 48
0.75
100
AcDbCircle
 10
233.7755281258651
 20
229.1571604065747
 30
0.0
 40
16.666666
100
AcDbArc
 50
-84.25974148340623
 51
-64.93222364721821
  0
ARC
  5
436
102
{ACAD_XDICTIONARY
360
434
102
}
330
1F
100
AcDbEntity
  8
Main lines
 48
0.75
100
AcDbCircle
 10
233.7204031350647
 20
217.4170565924758
 30
0.0
 40
1.999999999999988
100
AcDbArc
 50
-23.930666533604
 51
47.99999999999952
  0
ARC
  5
439
102
{ACAD_XDICTIONARY
360
437
102
}
330
1F
100
AcDbEntity
  8
Main lines
 48
0.75
100
AcDbCircle
 10
250.7824206598573
 20
209.845283118627
 30
0.0
 40
21.66666665999998
100
AcDbArc
 50
161.9339215681634
 51
170.8358467492863
  0
LINE
  5
43C
102
{ACAD_XDICTIONARY
360
43A
102
}
330
1F
100
AcDbEntity
  8
Main lines
 48
0.75
100
AcDbLine
 10
225.8489810268185
 20
220.467618704297
 30
0.0
 11
230.1839315243675
 21
216.5644117444729
 31
0.0
  0
LINE
  5
43F
102
{ACAD_XDICTIONARY
360
43D
102
}
330
1F
100
AcDbEntity
  8
Main lines
 48
0.75
100
AcDbLine
 10
225.3426756176683
 20
220.9234981423457
 30
0.0
 11
225.8489810268185
 21
220.467618704297
 31
0.0
  0
LINE
  5
442
102
{ACAD_XDICTIONARY
360
440
102
}
330
1F
100
AcDbEntity
  8
Main lines
 48
0.75
100
AcDbLine
 10
229.1946340586128
 20
224.183342831684
 30
0.0
 11
235.0586643477824
 21
218.9033462434306
 31
0.0
  0
LINE
  5
445
102
{ACAD_XDICTIONARY
360
443
102
}
330
1F
100
AcDbEntity
  8
Main lines
 48
0.75
100
AcDbLine
 10
228.8830614994074
 20
224.4638840240847
 30
0.0
 11
229.1946340586128
 21
224.183342831684
 31
0.0
  0
LINE
  5
448
102
{ACAD_XDICTIONARY
360
446
102
}
330
1F
100
AcDbEntity
  8
Main lines
 48
0.75
100
AcDbLine
 10
235.4425096368975
 20
212.5740687708928
 30
0.0
 11
234.5327020157623
 21
213.5499017958124
 31
0.0
  0
ARC
  5
44B
102
{ACAD_XDICTIONARY
360
449
102
}
330
1F
100
AcDbEntity
  8
Main lines
 48
0.75
100
AcDbCircle
 10
250.7824206598573
 20
209.845283118627
 30
0.0
 40
16.66666000000004
100
AcDbArc
 50
156.0693334663965
 51
167.1571802347496
  0
ARC
  5
44E
102
{ACAD_XDICTIONARY
360
44C
102
}
330
1F
100
AcDbEntity
  8
Main lines
 48
0.75
100
AcDbCircle
 10
241.8962539143662
 20
211.7958557832602
 30
0.0
 40
2.500000000000008
100
AcDbArc
 50
29.99999999999989
 51
115.0677763527812
  0
ARC
  5
451
102
{ACAD_XDICTIONARY
360
44F
102
}
330
1F
100
AcDbEntity
  8
Main lines
 48
0.75
100
AcDbCircle
 10
180.4138757077343
 20
170.0068221243397
 30
0.0
 40
73.0987403071083
100
AcDbArc
 50
19.10520549242061
 51
23.57638315900073
  0
ARC
  5
454
102
{ACAD_XDICTIONARY
360
452
102
}
330
1F
100
AcDbEntity
  8
Main lines
 48
0.75
100
AcDbCircle
 10
258.3203975116585
 20
186.6441995652387
 30
0.0
 40
16.666666
100
AcDbArc
 50
124.9322236472183
 51
144.2597414834063
  0
ARC
  5
457
102
{ACAD_XDICTIONARY
360
455
102
}
330
1F
100
AcDbEntity
  8
Main lines
 48
0.75
100
AcDbCircle
 10
258.3203975116585
 20
186.6441995652387
 30
0.0
 40
21.66666
100
AcDbArc
 50
133.1271725796048
 51
148.0987223590191
  0
LINE
  5
45A
102
{ACAD_XDICTIONARY
360
458
102
}
330
1F
100
AcDbEntity
  8
Main lines
 48
0.75
100
AcDbLine
 10
243.6910413274759
 20
203.6871927949688
 30
0.0
 11
242.4557782276067
 21
205.8267312446573
 31
0.0
  0
LINE
  5
45D
102
{ACAD_XDICTIONARY
360
45B
102
}
330
1F
100
AcDbEntity
  8
Main lines
 48
0.75
100
AcDbLine
 10
241.2205151272462
 20
207.9662696951966
 30
0.0
 11
242.4557782271155
 21
205.8267312455082
 31
0.0
  0
ARC
  5
460
102
{ACAD_XDICTIONARY
360
45E
102
}
330
1F
100
AcDbEntity
  8
Main lines
 48
0.75
100
AcDbCircle
 10
240.3544897234619
 20
207.4662696951965
 30
0.0
 40
1.000000000000008
100
AcDbArc
 50
29.99999999999973
 51
106.8728274203957
  0
ARC
  5
463
102
{ACAD_XDICTIONARY
360
461
102
}
330
1F
100
AcDbEntity
  8
Main lines
 48
0.75
100
AcDbCircle
 10
242.8250159236915
 20
203.1871927949689
 30
0.0
 40
0.9999999999999865
100
AcDbArc
 50
-46.87282742039481
 51
29.99999999999973
  0
ARC
  5
466
102
{ACAD_XDICTIONARY
360
464
102
}
330
1F
100
AcDbEntity
  8
Main lines
 48
0.75
100
AcDbCircle
 10
250.0992674525241
 20
211.0285391830818
 30
0.0
 40
21.66666666000001
100
AcDbArc
 50
-110.8358467492863
 51
-101.9339215681634
  0
ARC
  5
469
102
{ACAD_XDICTIONARY
360
467
102
}
330
1F
100
AcDbEntity
  8
Main lines
 48
0.75
100
AcDbCircle
 10
250.0992674525241
 20
211.0285391830818
 30
0.0
 40
16.66665999999999
100
AcDbArc
 50
-107.1571802347498
 51
-96.06933346639642
  0
LINE
  5
46C
102
{ACAD_XDICTIONARY
360
46A
102
}
330
1F
100
AcDbEntity
  8
Main lines
 48
0.75
100
AcDbLine
 10
244.7925096373889
 20
196.3793937192728
 30
0.0
 11
245.1827020162534
 21
195.1035606943531
 31
0.0
  0
ARC
  5
46F
102
{ACAD_XDICTIONARY
360
46D
102
}
330
1F
100
AcDbEntity
  8
Main lines
 48
0.75
100
AcDbCircle
 10
248.125606870182
 20
192.4665118298716
 30
0.0
 40
1.999999999999981
100
AcDbArc
 50
12.00000000000138
 51
83.93066653360466
  0
ARC
  5
472
102
{ACAD_XDICTIONARY
360
470
102
}
330
1F
100
AcDbEntity
  8
Main lines
 48
0.75
100
AcDbCircle
 10
247.3454295592784
 20
202.3576067069054
 30
0.0
 40
2.499999999999997
100
AcDbArc
 50
-55.06777635278235
 51
29.99999999999989
  0
LINE
  5
475
102
{ACAD_XDICTIONARY
360
473
102
}
330
1F
100
AcDbEntity
  8
Main lines
 48
0.75
100
AcDbLine
 10
249.5104930687395
 20
203.6076067069054
 30
0.0
 11
246.7859052465291
 21
208.3267312446572
 31
0.0
  0
LINE
  5
478
102
{ACAD_XDICTIONARY
360
476
102
}
330
1F
100
AcDbEntity
  8
Main lines
 48
0.75
100
AcDbLine
 10
246.973410570754
 20
183.4579661979579
 30
0.0
 11
246.8317601007183
 21
184.1243792643094
 31
0.0
  0
LINE
  5
47B
102
{ACAD_XDICTIONARY
360
479
102
}
330
1F
100
AcDbEntity
  8
Main lines
 48
0.75
100
AcDbLine
 10
251.8096676244093
 20
184.7538373698741
 30
0.0
 11
251.7224981043873
 21
185.1639377183982
 31
0.0
  0
ARC
  5
47E
102
{ACAD_XDICTIONARY
360
47C
102
}
330
1F
100
AcDbEntity
  8
Main lines
 48
0.75
100
AcDbCircle
 10
216.9188532713002
 20
229.9093081825572
 30
0.0
 40
4.999999999999991
100
AcDbArc
 50
178.0987223590189
 51
279.1641532507136
  0
ARC
  5
481
102
{ACAD_XDICTIONARY
360
47F
102
}
330
1F
100
AcDbEntity
  8
Main lines
 48
0.75
100
AcDbCircle
 10
199.8709946140967
 20
239.7518939674003
 30
0.0
 40
4.999999999999989
100
AcDbArc
 50
-159.1641532507138
 51
-58.09872235901855
  0
LINE
  5
484
102
{ACAD_XDICTIONARY
360
482
102
}
330
1F
100
AcDbEntity
  8
Main lines
 48
0.75
100
AcDbLine
 10
228.6025203061557
 20
224.7754565837814
 30
0.0
 11
223.3225237179023
 21
230.639486872951
 31
0.0
  0
LINE
  5
487
102
{ACAD_XDICTIONARY
360
485
102
}
330
1F
100
AcDbEntity
  8
Main lines
 48
0.75
100
AcDbLine
 10
224.8867961787686
 20
221.4298035519871
 30
0.0
 11
220.9835892189446
 21
225.7647540495361
 31
0.0
  0
ARC
  5
48A
102
{ACAD_XDICTIONARY
360
488
102
}
330
1F
100
AcDbEntity
  8
Main lines
 48
0.75
100
AcDbCircle
 10
191.0633770397104
 20
253.901220036827
 30
0.0
 40
21.66666000000002
100
AcDbArc
 50
-58.0987223590191
 51
-43.12717257960475
  0
LINE
  5
48D
102
{ACAD_XDICTIONARY
360
48B
102
}
330
1F
100
AcDbEntity
  8
Main lines
 48
0.75
100
AcDbLine
 10
208.0267841813771
 20
245.0913155939081
 30
0.0
 11
212.7459087191289
 21
242.3667277716976
 31
0.0
  0
ARC
  5
490
102
{ACAD_XDICTIONARY
360
48E
102
}
330
1F
100
AcDbEntity
  8
Main lines
 48
0.75
100
AcDbCircle
 10
174.4259995988114
 20
175.9946982329029
 30
0.0
 40
73.09874030710833
100
AcDbArc
 50
66.42361684099929
 51
70.89479450757942
  0
ARC
  5
493
102
{ACAD_XDICTIONARY
360
491
102
}
330
1F
100
AcDbEntity
  8
Main lines
 48
0.75
100
AcDbCircle
 10
191.0633770397104
 20
253.901220036827
 30
0.0
 40
16.66666600000001
100
AcDbArc
 50
-54.25974148340624
 51
-34.93222364721815
  0
ARC
  5
496
102
{ACAD_XDICTIONARY
360
494
102
}
330
1F
100
AcDbEntity
  8
Main lines
 48
0.75
100
AcDbCircle
 10
196.8856893043433
 20
243.7064293953506
 30
0.0
 40
2.000000000000015
100
AcDbArc
 50
6.069333466396058
 51
77.9999999999988
  0
ARC
  5
499
102
{ACAD_XDICTIONARY
360
497
102
}
330
1F
100
AcDbEntity
  8
Main lines
 48
0.75
100
AcDbCircle
 10
215.4477166575534
 20
245.6800899776927
 30
0.0
 40
21.66666666
100
AcDbArc
 50
-168.0660784318366
 51
-159.1641532507138
  0
LINE
  5
49C
102
{ACAD_XDICTIONARY
360
49A
102
}
330
1F
100
AcDbEntity
  8
Main lines
 48
0.75
100
AcDbLine
 10
188.5435567387811
 20
242.4125826258869
 30
0.0
 11
194.2493374737186
 21
241.1997814912256
 31
0.0
  0
LINE
  5
49F
102
{ACAD_XDICTIONARY
360
49D
102
}
330
1F
100
AcDbEntity
  8
Main lines
 48
0.75
100
AcDbLine
 10
187.8771436733592
 20
242.554233095725
 30
0.0
 11
188.5435567387811
 21
242.4125826258869
 31
0.0
  0
LINE
  5
4A2
102
{ACAD_XDICTIONARY
360
4A0
102
}
330
1F
100
AcDbEntity
  8
Main lines
 48
0.75
100
AcDbLine
 10
189.5831151928699
 20
247.303320629556
 30
0.0
 11
197.3015126859789
 21
245.6627245968182
 31
0.0
  0
LINE
  5
4A5
102
{ACAD_XDICTIONARY
360
4A3
102
}
330
1F
100
AcDbEntity
  8
Main lines
 48
0.75
100
AcDbLine
 10
189.1730148452755
 20
247.3904901493803
 30
0.0
 11
189.5831151928699
 21
247.303320629556
 31
0.0
  0
LINE
  5
4A8
102
{ACAD_XDICTIONARY
360
4A6
102
}
330
1F
100
AcDbEntity
  8
Main lines
 48
0.75
100
AcDbLine
 10
200.7985711937445
 20
240.3733321625575
 30
0.0
 11
199.5227381688248
 21
240.763524541422
 31
0.0
  0
ARC
  5
4AB
102
{ACAD_XDICTIONARY
360
4A9
102
}
330
1F
100
AcDbEntity
  8
Main lines
 48
0.75
100
AcDbCircle
 10
215.4477166575534
 20
245.6800899776927
 30
0.0
 40
16.66666000000001
100
AcDbArc
 50
-173.9306665336035
 51
-162.8428197652502
  0
ARC
  5
4AE
102
{ACAD_XDICTIONARY
360
4AC
102
}
330
1F
100
AcDbEntity
  8
Main lines
 48
0.75
100
AcDbCircle
 10
206.7767841813771
 20
242.926252084447
 30
0.0
 40
2.500000000000008
100
AcDbArc
 50
60.00000000000011
 51
145.0677763527818
  0
ARC
  5
4B1
102
{ACAD_XDICTIONARY
360
4AF
102
}
330
1F
100
AcDbEntity
  8
Main lines
 48
0.75
100
AcDbCircle
 10
174.4259995988114
 20
175.9946982329029
 30
0.0
 40
73.09874030710832
100
AcDbArc
 50
49.10520549242062
 51
53.57638315900075
  0
ARC
  5
4B4
102
{ACAD_XDICTIONARY
360
4B2
102
}
330
1F
100
AcDbEntity
  8
Main lines
 48
0.75
100
AcDbCircle
 10
233.5763378810464
 20
229.3563506510337
 30
0.0
 40
16.666666
100
AcDbArc
 50
154.9322236472182
 51
174.2597414834062
  0
ARC
  5
4B7
102
{ACAD_XDICTIONARY
360
4B5
102
}
330
1F
100
AcDbEntity
  8
Main lines
 48
0.75
100
AcDbCircle
 10
233.5763378810464
 20
229.3563506510337
 30
0.0
 40
21.66666000000003
100
AcDbArc
 50
163.1271725796048
 51
178.0987223590192
  0
LINE
  5
4BA
102
{ACAD_XDICTIONARY
360
4B8
102
}
330
1F
100
AcDbEntity
  8
Main lines
 48
0.75
100
AcDbLine
 10
212.3854471696683
 20
236.8013376524149
 30
0.0
 11
210.2459087199799
 21
238.0366007522841
 31
0.0
  0
LINE
  5
4BD
102
{ACAD_XDICTIONARY
360
4BB
102
}
330
1F
100
AcDbEntity
  8
Main lines
 48
0.75
100
AcDbLine
 10
208.1063702694405
 20
239.2718638526445
 30
0.0
 11
210.245908719129
 21
238.0366007527754
 31
0.0
  0
ARC
  5
4C0
102
{ACAD_XDICTIONARY
360
4BE
102
}
330
1F
100
AcDbEntity
  8
Main lines
 48
0.75
100
AcDbCircle
 10
207.6063702694406
 20
238.40583844886
 30
0.0
 40
0.9999999999999836
100
AcDbArc
 50
59.99999999999946
 51
136.8728274203959
  0
ARC
  5
4C3
102
{ACAD_XDICTIONARY
360
4C1
102
}
330
1F
100
AcDbEntity
  8
Main lines
 48
0.75
100
AcDbCircle
 10
211.8854471696682
 20
235.9353122486305
 30
0.0
 40
0.9999999999999869
100
AcDbArc
 50
-16.87282742039569
 51
59.99999999999946
  0
ARC
  5
4C6
102
{ACAD_XDICTIONARY
360
4C4
102
}
330
1F
100
AcDbEntity
  8
Main lines
 48
0.75
100
AcDbCircle
 10
214.2644605930986
 20
246.3632431850259
 30
0.0
 40
21.66666666
100
AcDbArc
 50
-80.83584674928633
 51
-71.93392156816341
  0
ARC
  5
4C9
102
{ACAD_XDICTIONARY
360
4C7
102
}
330
1F
100
AcDbEntity
  8
Main lines
 48
0.75
100
AcDbCircle
 10
214.2644605930986
 20
246.3632431850259
 30
0.0
 40
16.66666000000001
100
AcDbArc
 50
-77.15718023474965
 51
-66.06933346639639
  0
LINE
  5
4CC
102
{ACAD_XDICTIONARY
360
4CA
102
}
330
1F
100
AcDbEntity
  8
Main lines
 48
0.75
100
AcDbLine
 10
216.9932462453646
 20
231.0233321620662
 30
0.0
 11
217.9690792702841
 21
230.1135245409309
 31
0.0
  0
ARC
  5
4CF
102
{ACAD_XDICTIONARY
360
4CD
102
}
330
1F
100
AcDbEntity
  8
Main lines
 48
0.75
100
AcDbCircle
 10
221.8362340669475
 20
229.3012256602333
 30
0.0
 40
1.999999999999984
100
AcDbArc
 50
42.00000000000135
 51
113.9306665336049
  0
ARC
  5
4D2
102
{ACAD_XDICTIONARY
360
4D0
102
}
330
1F
100
AcDbEntity
  8
Main lines
 48
0.75
100
AcDbCircle
 10
216.2150332577318
 20
237.4770764395348
 30
0.0
 40
2.499999999999983
100
AcDbArc
 50
-25.06777635278209
 51
59.99999999999979
  0
LINE
  5
4D5
102
{ACAD_XDICTIONARY
360
4D3
102
}
330
1F
100
AcDbEntity
  8
Main lines
 48
0.75
100
AcDbLine
 10
217.4650332577319
 20
239.6421399489959
 30
0.0
 11
212.74590871998
 21
242.3667277712063
 31
0.0
  0
LINE
  5
4D8
102
{ACAD_XDICTIONARY
360
4D6
102
}
330
1F
100
AcDbEntity
  8
Main lines
 48
0.75
100
AcDbLine
 10
225.3426756174533
 20
220.9234981421307
 30
0.0
 11
224.8867961787686
 21
221.4298035519871
 31
0.0
  0
LINE
  5
4DB
102
{ACAD_XDICTIONARY
360
4D9
102
}
330
1F
100
AcDbEntity
  8
Main lines
 48
0.75
100
AcDbLine
 10
228.8830614991924
 20
224.4638840238697
 30
0.0
 11
228.6025203061557
 21
224.7754565837814
 31
0.0
  0
LINE
  5
4DE
102
{ACAD_XDICTIONARY
360
4DC
102
}
330
1F
100
AcDbEntity
  8
Main lines
 48
0.75
100
AcDbLine
 10
348.070246487228
 20
238.4670494861435
 30
0.0
 11
348.070246487228
 21
254.8262312446573
 31
0.0
  0
LINE
  5
4E1
102
{ACAD_XDICTIONARY
360
4DF
102
}
330
1F
100
AcDbEntity
  8
Main lines
 48
0.75
100
AcDbLine
 10
328.070246487228
 20
238.4670494861435
 30
0.0
 11
328.0702464872281
 21
254.8262312446573
 31
0.0
  0
LINE
  5
4E4
102
{ACAD_XDICTIONARY
360
4E2
102
}
330
1F
100
AcDbEntity
  8
Main lines
 48
0.75
100
AcDbLine
 10
358.070246487228
 20
186.8272312446573
 30
0.0
 11
358.0702464872279
 21
196.8272312446573
 31
0.0
  0
LINE
  5
4E7
102
{ACAD_XDICTIONARY
360
4E5
102
}
330
1F
100
AcDbEntity
  8
Main lines
 48
0.75
100
AcDbLine
 10
318.070246487228
 20
186.8272312446573
 30
0.0
 11
318.070246487228
 21
196.8272312446573
 31
0.0
  0
LINE
  5
4EA
102
{ACAD_XDICTIONARY
360
4E8
102
}
330
1F
100
AcDbEntity
  8
Main lines
 48
0.75
100
AcDbLine
 10
328.070246487228
 20
254.8262312446573
 30
0.0
 11
348.070246487228
 21
254.8262312446573
 31
0.0
  0
LINE
  5
4ED
102
{ACAD_XDICTIONARY
360
4EB
102
}
330
1F
100
AcDbEntity
  8
Main lines
 48
0.75
100
AcDbLine
 10
328.070246487228
 20
249.8262312446572
 30
0.0
 11
335.0702464872281
 21
249.8262312446572
 31
0.0
  0
LINE
  5
4F0
102
{ACAD_XDICTIONARY
360
4EE
102
}
330
1F
100
AcDbEntity
  8
Main lines
 48
0.75
100
AcDbLine
 10
328.070246487228
 20
254.8262312446573
 30
0.0
 11
328.070246487228
 21
198.9272312446573
 31
0.0
  0
LINE
  5
4F3
102
{ACAD_XDICTIONARY
360
4F1
102
}
330
1F
100
AcDbEntity
  8
Main lines
 48
0.75
100
AcDbLine
 10
348.070246487228
 20
254.8262312446573
 30
0.0
 11
348.070246487228
 21
198.9272312446573
 31
0.0
  0
LINE
  5
4F6
102
{ACAD_XDICTIONARY
360
4F4
102
}
330
1F
100
AcDbEntity
  8
Main lines
 48
0.75
100
AcDbLine
 10
335.0702464872281
 20
249.8262312446572
 30
0.0
 11
335.0702464872281
 21
198.9272312446573
 31
0.0
  0
LINE
  5
4F9
102
{ACAD_XDICTIONARY
360
4F7
102
}
330
1F
100
AcDbEntity
  8
Main lines
 48
0.75
100
AcDbLine
 10
341.070246487228
 20
249.8262312446572
 30
0.0
 11
341.070246487228
 21
198.9272312446573
 31
0.0
  0
LINE
  5
4FC
102
{ACAD_XDICTIONARY
360
4FA
102
}
330
1F
100
AcDbEntity
  8
Main lines
 48
0.75
100
AcDbLine
 10
318.070246487228
 20
196.8272312446573
 30
0.0
 11
318.070246487228
 21
124.7272312446573
 31
0.0
  0
LINE
  5
4FF
102
{ACAD_XDICTIONARY
360
4FD
102
}
330
1F
100
AcDbEntity
  8
Main lines
 48
0.75
100
AcDbLine
 10
358.070246487228
 20
196.8272312446573
 30
0.0
 11
358.070246487228
 21
124.7272312446573
 31
0.0
  0
LINE
  5
502
102
{ACAD_XDICTIONARY
360
500
102
}
330
1F
100
AcDbEntity
  8
Main lines
 48
0.75
100
AcDbLine
 10
318.070246487228
 20
198.9272312446573
 30
0.0
 11
335.0702464872281
 21
198.9272312446573
 31
0.0
  0
LINE
  5
505
102
{ACAD_XDICTIONARY
360
503
102
}
330
1F
100
AcDbEntity
  8
Main lines
 48
0.75
100
AcDbLine
 10
358.070246487228
 20
196.8272312446573
 30
0.0
 11
358.0702464872281
 21
198.9272312446573
 31
0.0
  0
LINE
  5
508
102
{ACAD_XDICTIONARY
360
506
102
}
330
1F
100
AcDbEntity
  8
Main lines
 48
0.75
100
AcDbLine
 10
318.070246487228
 20
196.8272312446573
 30
0.0
 11
318.070246487228
 21
198.9272312446573
 31
0.0
  0
LINE
  5
50B
102
{ACAD_XDICTIONARY
360
509
102
}
330
1F
100
AcDbEntity
  8
Main lines
 48
0.75
100
AcDbLine
 10
318.070246487228
 20
124.7272312446573
 30
0.0
 11
328.0702464872281
 21
124.7272312446572
 31
0.0
  0
LINE
  5
50E
102
{ACAD_XDICTIONARY
360
50C
102
}
330
1F
100
AcDbEntity
  8
Main lines
 48
0.75
100
AcDbLine
 10
328.070246487228
 20
68.82823124465722
 30
0.0
 11
348.0702464872281
 21
68.82823124465719
 31
0.0
  0
LINE
  5
511
102
{ACAD_XDICTIONARY
360
50F
102
}
330
1F
100
AcDbEntity
  8
Main lines
 48
0.75
100
AcDbLine
 10
341.070246487228
 20
198.9272312446573
 30
0.0
 11
358.0702464872282
 21
198.9272312446573
 31
0.0
  0
LINE
  5
514
102
{ACAD_XDICTIONARY
360
512
102
}
330
1F
100
AcDbEntity
  8
Main lines
 48
0.75
100
AcDbLine
 10
328.070246487228
 20
161.8272312446573
 30
0.0
 11
328.070246487228
 21
68.82823124465722
 31
0.0
  0
LINE
  5
517
102
{ACAD_XDICTIONARY
360
515
102
}
330
1F
100
AcDbEntity
  8
Main lines
 48
0.75
100
AcDbLine
 10
348.0702464872281
 20
161.8272312446573
 30
0.0
 11
348.070246487228
 21
68.82823124465725
 31
0.0
  0
LINE
  5
51A
102
{ACAD_XDICTIONARY
360
518
102
}
330
1F
100
AcDbEntity
  8
Main lines
 48
0.75
100
AcDbLine
 10
348.0702464872281
 20
124.7272312446573
 30
0.0
 11
358.070246487228
 21
124.7272312446573
 31
0.0
  0
LINE
  5
51D
102
{ACAD_XDICTIONARY
360
51B
102
}
330
1F
100
AcDbEntity
  8
Main lines
 48
0.75
100
AcDbLine
 10
341.070246487228
 20
249.8262312446572
 30
0.0
 11
348.0702464872281
 21
249.8262312446572
 31
0.0
  0
LINE
  5
520
102
{ACAD_XDICTIONARY
360
51E
102
}
330
1F
100
AcDbEntity
  8
Main lines
 48
0.75
100
AcDbLine
 10
318.070246487228
 20
177.7272312446573
 30
0.0
 11
358.070246487228
 21
177.7272312446573
 31
0.0
  0
LINE
  5
523
102
{ACAD_XDICTIONARY
360
521
102
}
330
1F
100
AcDbEntity
  8
Main lines
 48
0.75
100
AcDbLine
 10
318.070246487228
 20
176.8272312446572
 30
0.0
 11
358.0702464872281
 21
176.8272312446572
 31
0.0
  0
LINE
  5
526
102
{ACAD_XDICTIONARY
360
524
102
}
330
1F
100
AcDbEntity
  8
Main lines
 48
0.75
100
AcDbLine
 10
318.070246487228
 20
192.0272312446573
 30
0.0
 11
358.070246487228
 21
192.0272312446573
 31
0.0
  0
LINE
  5
529
102
{ACAD_XDICTIONARY
360
527
102
}
330
1F
100
AcDbEntity
  8
Main lines
 48
0.75
100
AcDbLine
 10
318.070246487228
 20
192.9272312446573
 30
0.0
 11
358.0702464872281
 21
192.9272312446573
 31
0.0
  0
HATCH
  5
52A
330
1F
100
AcDbEntity
  8
Main lines
  6
Durchgehend
 48
0.75
100
AcDbHatch
 10
0.0
 20
0.0
 30
0.0
210
0.0
220
0.0
230
1.0
  2
ANSI31
 70
     0
 71
     0
 91
        1
 92
        3
 72
     0
 73
     1
 93
       14
 10
358.070246487228
 20
196.8272312446573
 10
358.0702464872281
 20
198.9272312446573
 10
341.0702464872279
 20
198.9272312446573
 10
341.0702464872281
 20
249.8262312446572
 10
348.070246487228
 20
249.8262312446572
 10
348.070246487228
 20
254.8262312446573
 10
328.070246487228
 20
254.8262312446573
 10
328.070246487228
 20
249.8262312446572
 10
335.070246487228
 20
249.8262312446572
 10
335.0702464872281
 20
198.9272312446573
 10
318.070246487228
 20
198.9272312446573
 10
318.070246487228
 20
196.8272312446573
 10
318.070246487228
 20
192.9272312446573
 10
358.070246487228
 20
192.9272312446573
 97
        0
 75
     0
 76
     1
 52
0.0
 41
20.0
 77
     0
 78
     1
 53
45.0
 43
0.0
 44
0.0
 45
-1.767766952966369
 46
1.767766952966369
 79
     1
 49
20.0
 98
        0
  0
LINE
  5
52D
102
{ACAD_XDICTIONARY
360
52B
102
}
330
1F
100
AcDbEntity
  8
Main lines
 48
0.75
100
AcDbLine
 10
328.070246487228
 20
156.3780556002365
 30
0.0
 11
348.0702464872282
 21
156.3780556002365
 31
0.0
  0
LINE
  5
530
102
{ACAD_XDICTIONARY
360
52E
102
}
330
1F
100
AcDbEntity
  8
Main lines
 48
0.75
100
AcDbLine
 10
328.070246487228
 20
121.29685578326
 30
0.0
 11
348.0702464872281
 21
121.29685578326
 31
0.0
  0
LINE
  5
533
102
{ACAD_XDICTIONARY
360
531
102
}
330
1F
100
AcDbEntity
  8
Main lines
 48
0.75
100
AcDbLine
 10
328.070246487228
 20
109.3586067069053
 30
0.0
 11
348.0702464872281
 21
109.3586067069053
 31
0.0
  0
LINE
  5
536
102
{ACAD_XDICTIONARY
360
534
102
}
330
1F
100
AcDbEntity
  8
Main lines
 48
0.75
100
AcDbLine
 10
328.070246487228
 20
153.6490504981908
 30
0.0
 11
348.0702464872281
 21
153.6490504981908
 31
0.0
  0
LINE
  5
539
102
{ACAD_XDICTIONARY
360
537
102
}
330
1F
100
AcDbEntity
  8
Main lines
 48
0.75
100
AcDbLine
 10
328.070246487228
 20
148.0111140438514
 30
0.0
 11
348.0702464872281
 21
148.0111140438514
 31
0.0
  0
LINE
  5
53C
102
{ACAD_XDICTIONARY
360
53A
102
}
330
1F
100
AcDbEntity
  8
Main lines
 48
0.75
100
AcDbLine
 10
328.070246487228
 20
152.4772312446576
 30
0.0
 11
336.0702464872282
 21
152.4772312446576
 31
0.0
  0
LINE
  5
53F
102
{ACAD_XDICTIONARY
360
53D
102
}
330
1F
100
AcDbEntity
  8
Main lines
 48
0.75
100
AcDbLine
 10
328.070246487228
 20
151.1772312446574
 30
0.0
 11
336.0702464872281
 21
151.1772312446574
 31
0.0
  0
LINE
  5
542
102
{ACAD_XDICTIONARY
360
540
102
}
330
1F
100
AcDbEntity
  8
Main lines
 48
0.75
100
AcDbLine
 10
339.0702464872281
 20
153.6490504981908
 30
0.0
 11
339.0702464872281
 21
148.0111140438514
 31
0.0
  0
LINE
  5
545
102
{ACAD_XDICTIONARY
360
543
102
}
330
1F
100
AcDbEntity
  8
Main lines
 48
0.75
100
AcDbLine
 10
337.0702464872281
 20
153.6490504981908
 30
0.0
 11
337.0702464872281
 21
148.0111140438514
 31
0.0
  0
LINE
  5
548
102
{ACAD_XDICTIONARY
360
546
102
}
330
1F
100
AcDbEntity
  8
Main lines
 48
0.75
100
AcDbLine
 10
336.0702464872281
 20
152.4772312446574
 30
0.0
 11
336.0702464872281
 21
151.1772312446576
 31
0.0
  0
LINE
  5
54B
102
{ACAD_XDICTIONARY
360
549
102
}
330
1F
100
AcDbEntity
  8
Main lines
 48
0.75
100
AcDbLine
 10
340.0702464872282
 20
152.4772312446575
 30
0.0
 11
340.0702464872282
 21
151.1772312446573
 31
0.0
  0
LINE
  5
54E
102
{ACAD_XDICTIONARY
360
54C
102
}
330
1F
100
AcDbEntity
  8
Main lines
 48
0.75
100
AcDbLine
 10
337.0702464872281
 20
153.6490504981908
 30
0.0
 11
336.0702464872281
 21
152.4772312446576
 31
0.0
  0
LINE
  5
551
102
{ACAD_XDICTIONARY
360
54F
102
}
330
1F
100
AcDbEntity
  8
Main lines
 48
0.75
100
AcDbLine
 10
337.0702464872281
 20
148.0111140438514
 30
0.0
 11
336.0702464872281
 21
151.1772312446574
 31
0.0
  0
LINE
  5
554
102
{ACAD_XDICTIONARY
360
552
102
}
330
1F
100
AcDbEntity
  8
Main lines
 48
0.75
100
AcDbLine
 10
339.0702464872281
 20
148.0111140438514
 30
0.0
 11
340.0702464872282
 21
151.1772312446574
 31
0.0
  0
LINE
  5
557
102
{ACAD_XDICTIONARY
360
555
102
}
330
1F
100
AcDbEntity
  8
Main lines
 48
0.75
100
AcDbLine
 10
340.0702464872282
 20
152.4772312446576
 30
0.0
 11
339.0702464872281
 21
153.6490504981908
 31
0.0
  0
LINE
  5
55A
102
{ACAD_XDICTIONARY
360
558
102
}
330
1F
100
AcDbEntity
  8
Main lines
 48
0.75
100
AcDbLine
 10
340.0702464872282
 20
152.4772312446576
 30
0.0
 11
348.0702464872282
 21
152.4772312446576
 31
0.0
  0
LINE
  5
55D
102
{ACAD_XDICTIONARY
360
55B
102
}
330
1F
100
AcDbEntity
  8
Main lines
 48
0.75
100
AcDbLine
 10
340.0702464872281
 20
151.1772312446574
 30
0.0
 11
348.0702464872282
 21
151.1772312446574
 31
0.0
  0
LINE
  5
560
102
{ACAD_XDICTIONARY
360
55E
102
}
330
1F
100
AcDbEntity
  8
Main lines
 48
0.75
100
AcDbLine
 10
328.0702464872281
 20
128.5509017958123
 30
0.0
 11
336.070246487228
 21
128.5509017958123
 31
0.0
  0
LINE
  5
563
102
{ACAD_XDICTIONARY
360
561
102
}
330
1F
100
AcDbEntity
  8
Main lines
 48
0.75
100
AcDbLine
 10
337.0702464872281
 20
129.7221486121148
 30
0.0
 11
339.0702464872281
 21
129.7221486121148
 31
0.0
  0
LINE
  5
566
102
{ACAD_XDICTIONARY
360
564
102
}
330
1F
100
AcDbEntity
  8
Main lines
 48
0.75
100
AcDbLine
 10
328.070246487228
 20
127.2750687708924
 30
0.0
 11
336.070246487228
 21
127.2750687708924
 31
0.0
  0
LINE
  5
569
102
{ACAD_XDICTIONARY
360
567
102
}
330
1F
100
AcDbEntity
  8
Main lines
 48
0.75
100
AcDbLine
 10
337.070246487228
 20
124.4102435286888
 30
0.0
 11
339.0702464872282
 21
124.4102435286888
 31
0.0
  0
LINE
  5
56C
102
{ACAD_XDICTIONARY
360
56A
102
}
330
1F
100
AcDbEntity
  8
Main lines
 48
0.75
100
AcDbLine
 10
339.0702464872281
 20
129.7221486121148
 30
0.0
 11
339.0702464872281
 21
124.4102435286889
 31
0.0
  0
LINE
  5
56F
102
{ACAD_XDICTIONARY
360
56D
102
}
330
1F
100
AcDbEntity
  8
Main lines
 48
0.75
100
AcDbLine
 10
337.0702464872281
 20
129.7221486121148
 30
0.0
 11
337.0702464872281
 21
124.4102435286889
 31
0.0
  0
LINE
  5
572
102
{ACAD_XDICTIONARY
360
570
102
}
330
1F
100
AcDbEntity
  8
Main lines
 48
0.75
100
AcDbLine
 10
340.0702464872281
 20
128.5509017958123
 30
0.0
 11
340.0702464872281
 21
127.2750687708923
 31
0.0
  0
LINE
  5
575
102
{ACAD_XDICTIONARY
360
573
102
}
330
1F
100
AcDbEntity
  8
Main lines
 48
0.75
100
AcDbLine
 10
336.070246487228
 20
128.5509017958122
 30
0.0
 11
336.070246487228
 21
127.2750687708925
 31
0.0
  0
LINE
  5
578
102
{ACAD_XDICTIONARY
360
576
102
}
330
1F
100
AcDbEntity
  8
Main lines
 48
0.75
100
AcDbLine
 10
337.0702464872281
 20
129.7221486121148
 30
0.0
 11
336.0702464872281
 21
128.5509017958123
 31
0.0
  0
LINE
  5
57B
102
{ACAD_XDICTIONARY
360
579
102
}
330
1F
100
AcDbEntity
  8
Main lines
 48
0.75
100
AcDbLine
 10
339.0702464872281
 20
129.7221486121148
 30
0.0
 11
340.0702464872281
 21
128.5509017958123
 31
0.0
  0
LINE
  5
57E
102
{ACAD_XDICTIONARY
360
57C
102
}
330
1F
100
AcDbEntity
  8
Main lines
 48
0.75
100
AcDbLine
 10
339.0702464872281
 20
124.4102435286888
 30
0.0
 11
340.0702464872281
 21
127.2750687708924
 31
0.0
  0
LINE
  5
581
102
{ACAD_XDICTIONARY
360
57F
102
}
330
1F
100
AcDbEntity
  8
Main lines
 48
0.75
100
AcDbLine
 10
337.0702464872281
 20
124.4102435286888
 30
0.0
 11
336.0702464872281
 21
127.2750687708924
 31
0.0
  0
LINE
  5
584
102
{ACAD_XDICTIONARY
360
582
102
}
330
1F
100
AcDbEntity
  8
Main lines
 48
0.75
100
AcDbLine
 10
340.0702464872282
 20
128.5509017958123
 30
0.0
 11
348.0702464872281
 21
128.5509017958123
 31
0.0
  0
LINE
  5
587
102
{ACAD_XDICTIONARY
360
585
102
}
330
1F
100
AcDbEntity
  8
Main lines
 48
0.75
100
AcDbLine
 10
340.0702464872282
 20
127.2750687708923
 30
0.0
 11
348.0702464872281
 21
127.2750687708924
 31
0.0
  0
LINE
  5
58A
102
{ACAD_XDICTIONARY
360
588
102
}
330
1F
100
AcDbEntity
  8
Main lines
 48
0.75
100
AcDbLine
 10
328.070246487228
 20
129.7221486121148
 30
0.0
 11
348.070246487228
 21
129.7221486121148
 31
0.0
  0
LINE
  5
58D
102
{ACAD_XDICTIONARY
360
58B
102
}
330
1F
100
AcDbEntity
  8
Main lines
 48
0.75
100
AcDbLine
 10
328.070246487228
 20
105.7919316561419
 30
0.0
 11
340.0702464872282
 21
105.7919316561419
 31
0.0
  0
LINE
  5
590
102
{ACAD_XDICTIONARY
360
58E
102
}
330
1F
100
AcDbEntity
  8
Main lines
 48
0.75
100
AcDbLine
 10
339.0702464872281
 20
109.3586067069053
 30
0.0
 11
339.0702464872282
 21
105.7919316561419
 31
0.0
  0
LINE
  5
593
102
{ACAD_XDICTIONARY
360
591
102
}
330
1F
100
AcDbEntity
  8
Main lines
 48
0.75
100
AcDbLine
 10
337.070246487228
 20
109.3586067069053
 30
0.0
 11
337.0702464872281
 21
105.7919316561419
 31
0.0
  0
LINE
  5
596
102
{ACAD_XDICTIONARY
360
594
102
}
330
1F
100
AcDbEntity
  8
Main lines
 48
0.75
100
AcDbLine
 10
337.0702464872281
 20
105.7919316561419
 30
0.0
 11
336.2432161493154
 21
109.3586067069053
 31
0.0
  0
LINE
  5
599
102
{ACAD_XDICTIONARY
360
597
102
}
330
1F
100
AcDbEntity
  8
Main lines
 48
0.75
100
AcDbLine
 10
339.0702464872281
 20
105.7919316561419
 30
0.0
 11
339.8972768251408
 21
109.3586067069053
 31
0.0
  0
LINE
  5
59C
102
{ACAD_XDICTIONARY
360
59A
102
}
330
1F
100
AcDbEntity
  8
Main lines
 48
0.75
100
AcDbLine
 10
340.0702464872282
 20
105.7919316561419
 30
0.0
 11
348.070246487228
 21
105.7919316561419
 31
0.0
  0
LINE
  5
59F
102
{ACAD_XDICTIONARY
360
59D
102
}
330
1F
100
AcDbEntity
  8
Main lines
 48
0.75
100
AcDbLine
 10
328.070246487228
 20
92.4034797421082
 30
0.0
 11
348.0702464872281
 21
92.4034797421082
 31
0.0
  0
LINE
  5
5A2
102
{ACAD_XDICTIONARY
360
5A0
102
}
330
1F
100
AcDbEntity
  8
Main lines
 48
0.75
100
AcDbLine
 10
337.070246487228
 20
88.84092670697046
 30
0.0
 11
339.0702464872281
 21
88.84092670697046
 31
0.0
  0
LINE
  5
5A5
102
{ACAD_XDICTIONARY
360
5A3
102
}
330
1F
100
AcDbEntity
  8
Main lines
 48
0.75
100
AcDbLine
 10
328.070246487228
 20
86.177386050271
 30
0.0
 11
348.0702464872281
 21
86.17738605027094
 31
0.0
  0
LINE
  5
5A8
102
{ACAD_XDICTIONARY
360
5A6
102
}
330
1F
100
AcDbEntity
  8
Main lines
 48
0.75
100
AcDbLine
 10
339.0702464872281
 20
92.4034797421082
 30
0.0
 11
339.0702464872281
 21
88.84092670697046
 31
0.0
  0
LINE
  5
5AB
102
{ACAD_XDICTIONARY
360
5A9
102
}
330
1F
100
AcDbEntity
  8
Main lines
 48
0.75
100
AcDbLine
 10
337.070246487228
 20
92.4034797421082
 30
0.0
 11
337.070246487228
 21
88.84092670697046
 31
0.0
  0
LINE
  5
5AE
102
{ACAD_XDICTIONARY
360
5AC
102
}
330
1F
100
AcDbEntity
  8
Main lines
 48
0.75
100
AcDbLine
 10
337.070246487228
 20
88.84092670697046
 30
0.0
 11
336.1303093778822
 21
92.40347974210823
 31
0.0
  0
LINE
  5
5B1
102
{ACAD_XDICTIONARY
360
5AF
102
}
330
1F
100
AcDbEntity
  8
Main lines
 48
0.75
100
AcDbLine
 10
339.0702464872281
 20
88.84092670697046
 30
0.0
 11
340.0101835965739
 21
92.40347974210823
 31
0.0
  0
LINE
  5
5B4
102
{ACAD_XDICTIONARY
360
5B2
102
}
330
1F
100
AcDbEntity
  8
Main lines
 48
0.75
100
AcDbLine
 10
328.070246487228
 20
78.22821040535877
 30
0.0
 11
348.0702464872281
 21
78.2282104053588
 31
0.0
  0
LINE
  5
5B7
102
{ACAD_XDICTIONARY
360
5B5
102
}
330
1F
100
AcDbEntity
  8
Main lines
 48
0.75
100
AcDbLine
 10
328.070246487228
 20
73.59812531247533
 30
0.0
 11
348.0702464872281
 21
73.59812531247533
 31
0.0
  0
LINE
  5
5BA
102
{ACAD_XDICTIONARY
360
5B8
102
}
330
1F
100
AcDbEntity
  8
Main lines
100
AcDbLine
 10
186.4464087199799
 20
172.6272312446571
 30
0.0
 11
186.44640871998
 21
181.5272312446571
 31
0.0
  0
LINE
  5
5BD
102
{ACAD_XDICTIONARY
360
5BB
102
}
330
1F
100
AcDbEntity
  8
Main lines
100
AcDbLine
 10
146.04640871998
 20
172.6272312446571
 30
0.0
 11
146.0464087199798
 21
181.5272312446571
 31
0.0
  0
LINE
  5
5C0
102
{ACAD_XDICTIONARY
360
5BE
102
}
330
1F
100
AcDbEntity
  8
Main lines
100
AcDbLine
 10
191.2464087199801
 20
181.8272312446571
 30
0.0
 11
191.24640871998
 21
141.8272312446571
 31
0.0
  0
LINE
  5
5C3
102
{ACAD_XDICTIONARY
360
5C1
102
}
330
1F
100
AcDbEntity
  8
Main lines
100
AcDbLine
 10
141.24640871998
 20
181.8272312446571
 30
0.0
 11
141.2464087199799
 21
141.8272312446571
 31
0.0
  0
LINE
  5
5C6
102
{ACAD_XDICTIONARY
360
5C4
102
}
330
1F
100
AcDbEntity
  8
Main lines
100
AcDbLine
 10
176.2464087199801
 20
140.8272312446571
 30
0.0
 11
156.2464087199799
 21
140.8272312446571
 31
0.0
  0
LINE
  5
5C9
102
{ACAD_XDICTIONARY
360
5C7
102
}
330
1F
100
AcDbEntity
  8
Main lines
100
AcDbLine
 10
146.2464087199799
 20
136.8272312446571
 30
0.0
 11
186.24640871998
 21
136.8272312446571
 31
0.0
  0
LINE
  5
5CC
102
{ACAD_XDICTIONARY
360
5CA
102
}
330
1F
100
AcDbEntity
  8
Main lines
100
AcDbLine
 10
145.2464087199801
 20
151.827231244657
 30
0.0
 11
145.24640871998
 21
171.8272312446571
 31
0.0
  0
ARC
  5
5CF
102
{ACAD_XDICTIONARY
360
5CD
102
}
330
1F
100
AcDbEntity
  8
Main lines
100
AcDbCircle
 10
146.54640871998
 20
142.1272312446571
 30
0.0
 40
0.5
100
AcDbArc
 50
180.0
 51
270.0
  0
LINE
  5
5D2
102
{ACAD_XDICTIONARY
360
5D0
102
}
330
1F
100
AcDbEntity
  8
Main lines
100
AcDbLine
 10
146.04640871998
 20
151.0272312446571
 30
0.0
 11
146.04640871998
 21
142.1272312446571
 31
0.0
  0
ARC
  5
5D5
102
{ACAD_XDICTIONARY
360
5D3
102
}
330
1F
100
AcDbEntity
  8
Main lines
100
AcDbCircle
 10
146.2464087199799
 20
141.8272312446571
 30
0.0
 40
5.0
100
AcDbArc
 50
180.0
 51
270.0
  0
LINE
  5
5D8
102
{ACAD_XDICTIONARY
360
5D6
102
}
330
1F
100
AcDbEntity
  8
Main lines
100
AcDbLine
 10
145.2464087199801
 20
151.8272312446571
 30
0.0
 11
146.04640871998
 21
151.027231244657
 31
0.0
  0
LINE
  5
5DB
102
{ACAD_XDICTIONARY
360
5D9
102
}
330
1F
100
AcDbEntity
  8
Main lines
100
AcDbLine
 10
155.4464087199799
 20
141.6272312446571
 30
0.0
 11
146.54640871998
 21
141.6272312446571
 31
0.0
  0
LINE
  5
5DE
102
{ACAD_XDICTIONARY
360
5DC
102
}
330
1F
100
AcDbEntity
  8
Main lines
100
AcDbLine
 10
156.24640871998
 20
140.8272312446571
 30
0.0
 11
155.4464087199799
 21
141.6272312446571
 31
0.0
  0
LINE
  5
5E1
102
{ACAD_XDICTIONARY
360
5DF
102
}
330
1F
100
AcDbEntity
  8
Main lines
100
AcDbLine
 10
145.24640871998
 20
171.8272312446571
 30
0.0
 11
146.04640871998
 21
172.6272312446571
 31
0.0
  0
LINE
  5
5E4
102
{ACAD_XDICTIONARY
360
5E2
102
}
330
1F
100
AcDbEntity
  8
Main lines
100
AcDbLine
 10
187.2464087199799
 20
151.827231244657
 30
0.0
 11
187.24640871998
 21
171.8272312446571
 31
0.0
  0
LINE
  5
5E7
102
{ACAD_XDICTIONARY
360
5E5
102
}
330
1F
100
AcDbEntity
  8
Main lines
100
AcDbLine
 10
186.4464087199799
 20
151.0272312446571
 30
0.0
 11
186.4464087199799
 21
142.1272312446571
 31
0.0
  0
LINE
  5
5EA
102
{ACAD_XDICTIONARY
360
5E8
102
}
330
1F
100
AcDbEntity
  8
Main lines
100
AcDbLine
 10
177.04640871998
 20
141.6272312446571
 30
0.0
 11
185.9464087199799
 21
141.6272312446571
 31
0.0
  0
LINE
  5
5ED
102
{ACAD_XDICTIONARY
360
5EB
102
}
330
1F
100
AcDbEntity
  8
Main lines
100
AcDbLine
 10
176.24640871998
 20
140.8272312446571
 30
0.0
 11
177.04640871998
 21
141.6272312446571
 31
0.0
  0
ARC
  5
5F0
102
{ACAD_XDICTIONARY
360
5EE
102
}
330
1F
100
AcDbEntity
  8
Main lines
100
AcDbCircle
 10
186.24640871998
 20
141.8272312446571
 30
0.0
 40
5.0
100
AcDbArc
 50
-90.0
 51
0.0
  0
ARC
  5
5F3
102
{ACAD_XDICTIONARY
360
5F1
102
}
330
1F
100
AcDbEntity
  8
Main lines
100
AcDbCircle
 10
185.9464087199799
 20
142.1272312446571
 30
0.0
 40
0.5
100
AcDbArc
 50
-90.0
 51
0.0
  0
LINE
  5
5F6
102
{ACAD_XDICTIONARY
360
5F4
102
}
330
1F
100
AcDbEntity
  8
Main lines
100
AcDbLine
 10
187.2464087199799
 20
151.8272312446571
 30
0.0
 11
186.4464087199799
 21
151.027231244657
 31
0.0
  0
LINE
  5
5F9
102
{ACAD_XDICTIONARY
360
5F7
102
}
330
1F
100
AcDbEntity
  8
Main lines
100
AcDbLine
 10
187.24640871998
 20
171.8272312446571
 30
0.0
 11
186.4464087199799
 21
172.6272312446571
 31
0.0
  0
LINE
  5
5FC
102
{ACAD_XDICTIONARY
360
5FA
102
}
330
1F
100
AcDbEntity
  8
Main lines
100
AcDbLine
 10
176.2464087199801
 20
182.8272312446571
 30
0.0
 11
156.2464087199799
 21
182.8272312446571
 31
0.0
  0
LINE
  5
5FF
102
{ACAD_XDICTIONARY
360
5FD
102
}
330
1F
100
AcDbEntity
  8
Main lines
100
AcDbLine
 10
186.2464087199801
 20
186.8272312446571
 30
0.0
 11
146.24640871998
 21
186.8272312446571
 31
0.0
  0
ARC
  5
602
102
{ACAD_XDICTIONARY
360
600
102
}
330
1F
100
AcDbEntity
  8
Main lines
100
AcDbCircle
 10
146.5464087199798
 20
181.5272312446571
 30
0.0
 40
0.5
100
AcDbArc
 50
90.0
 51
180.0
  0
ARC
  5
605
102
{ACAD_XDICTIONARY
360
603
102
}
330
1F
100
AcDbEntity
  8
Main lines
100
AcDbCircle
 10
146.24640871998
 20
181.8272312446571
 30
0.0
 40
5.0
100
AcDbArc
 50
90.0
 51
179.9999999999997
  0
LINE
  5
608
102
{ACAD_XDICTIONARY
360
606
102
}
330
1F
100
AcDbEntity
  8
Main lines
100
AcDbLine
 10
155.4464087199799
 20
182.0272312446571
 30
0.0
 11
146.5464087199798
 21
182.0272312446571
 31
0.0
  0
LINE
  5
60B
102
{ACAD_XDICTIONARY
360
609
102
}
330
1F
100
AcDbEntity
  8
Main lines
100
AcDbLine
 10
156.24640871998
 20
182.8272312446571
 30
0.0
 11
155.4464087199799
 21
182.0272312446571
 31
0.0
  0
LINE
  5
60E
102
{ACAD_XDICTIONARY
360
60C
102
}
330
1F
100
AcDbEntity
  8
Main lines
100
AcDbLine
 10
177.04640871998
 20
182.0272312446571
 30
0.0
 11
185.94640871998
 21
182.0272312446571
 31
0.0
  0
LINE
  5
611
102
{ACAD_XDICTIONARY
360
60F
102
}
330
1F
100
AcDbEntity
  8
Main lines
100
AcDbLine
 10
176.24640871998
 20
182.8272312446571
 30
0.0
 11
177.04640871998
 21
182.0272312446571
 31
0.0
  0
ARC
  5
614
102
{ACAD_XDICTIONARY
360
612
102
}
330
1F
100
AcDbEntity
  8
Main lines
100
AcDbCircle
 10
186.2464087199801
 20
181.8272312446571
 30
0.0
 40
5.0
100
AcDbArc
 50
0.0
 51
90.0
  0
ARC
  5
617
102
{ACAD_XDICTIONARY
360
615
102
}
330
1F
100
AcDbEntity
  8
Main lines
100
AcDbCircle
 10
185.94640871998
 20
181.5272312446571
 30
0.0
 40
0.5
100
AcDbArc
 50
0.0
 51
90.0
  0
VIEWPORT
  5
618
330
1B
100
AcDbEntity
 67
     1
  8
0
100
AcDbViewport
 10
140.0218848823794
 20
101.9028953504165
 30
0.0
 40
280.2283957583874
 41
201.3931063490108
 68
     1
 69
     1
 12
140.0218848823794
 22
101.9028953504165
 13
0.0
 23
0.0
 14
10.0
 24
10.0
 15
10.0
 25
10.0
 16
0.0
 26
0.0
 36
1.0
 17
0.0
 27
0.0
 37
0.0
 42
50.0
 43
0.0
 44
0.0
 45
201.3931063490108
 50
0.0
 51
0.0
 72
  1000
 90
    32800
  1

281
     0
 71
     1
 74
     0
110
0.0
120
0.0
130
0.0
111
1.0
121
0.0
131
0.0
112
0.0
122
1.0
132
0.0
 79
     0
146
0.0
170
     0
  0
VIEWPORT
  5
619
330
1B
100
AcDbEntity
 67
     1
  8
0
  6
Durchgehend
100
AcDbViewport
 10
140.0218848823794
 20
101.9028953504165
 30
0.0
 40
280.2283957583874
 41
201.3931063490108
 68
     2
 69
     2
 12
717.1860259187298
 22
392.4295065236427
 13
0.0
 23
0.0
 14
0.5
 24
0.5
 15
0.0
 25
0.0
 16
0.0
 26
0.0
 36
1.0
 17
0.0
 27
0.0
 37
0.0
 42
50.0
 43
0.0
 44
0.0
 45
201.393107068014
 50
0.0
 51
0.0
 72
   100
331
51
331
52
331
53
 90
   557152
  1

281
     0
 71
     1
 74
     0
110
0.0
120
0.0
130
0.0
111
1.0
121
0.0
131
0.0
112
0.0
122
1.0
132
0.0
 79
     0
146
0.0
170
     0
  0
ENDSEC
  0
SECTION
  2
OBJECTS
  0
DICTIONARY
  5
C
330
0
100
AcDbDictionary
281
     1
  3
ACAD_GROUP
350
D
  3
ACAD_LAYOUT
350
1A
  3
ACAD_MLINESTYLE
350
17
  3
ACAD_PLOTSETTINGS
350
19
  3
ACAD_PLOTSTYLENAME
350
E
  3
ACAD_TABLESTYLE
350
61B
  3
ACAD_VISUALSTYLE
350
2A
  0
DICTIONARY
  5
5C
330
5E
100
AcDbDictionary
280
     1
281
     1
  3
TC_OPTIONAL_DATA
360
5D
  0
DICTIONARY
  5
5F
330
61
100
AcDbDictionary
280
     1
281
     1
  3
TC_OPTIONAL_DATA
360
60
  0
DICTIONARY
  5
62
330
64
100
AcDbDictionary
280
     1
281
     1
  3
TC_OPTIONAL_DATA
360
63
  0
DICTIONARY
  5
65
330
67
100
AcDbDictionary
280
     1
281
     1
  3
TC_OPTIONAL_DATA
360
66
  0
DICTIONARY
  5
68
330
6A
100
AcDbDictionary
280
     1
281
     1
  3
TC_OPTIONAL_DATA
360
69
  0
DICTIONARY
  5
6B
330
6D
100
AcDbDictionary
280
     1
281
     1
  3
TC_OPTIONAL_DATA
360
6C
  0
DICTIONARY
  5
6E
330
70
100
AcDbDictionary
280
     1
281
     1
  3
TC_OPTIONAL_DATA
360
6F
  0
DICTIONARY
  5
71
330
73
100
AcDbDictionary
280
     1
281
     1
  3
TC_OPTIONAL_DATA
360
72
  0
DICTIONARY
  5
74
330
76
100
AcDbDictionary
280
     1
281
     1
  3
TC_OPTIONAL_DATA
360
75
  0
DICTIONARY
  5
77
330
79
100
AcDbDictionary
280
     1
281
     1
  3
TC_OPTIONAL_DATA
360
78
  0
DICTIONARY
  5
7A
330
7C
100
AcDbDictionary
280
     1
281
     1
  3
TC_OPTIONAL_DATA
360
7B
  0
DICTIONARY
  5
7D
330
7F
100
AcDbDictionary
280
     1
281
     1
  3
TC_OPTIONAL_DATA
360
7E
  0
DICTIONARY
  5
80
330
82
100
AcDbDictionary
280
     1
281
     1
  3
TC_OPTIONAL_DATA
360
81
  0
DICTIONARY
  5
83
330
85
100
AcDbDictionary
280
     1
281
     1
  3
TC_OPTIONAL_DATA
360
84
  0
DICTIONARY
  5
86
330
88
100
AcDbDictionary
280
     1
281
     1
  3
TC_OPTIONAL_DATA
360
87
  0
DICTIONARY
  5
89
330
8B
100
AcDbDictionary
280
     1
281
     1
  3
TC_OPTIONAL_DATA
360
8A
  0
DICTIONARY
  5
8C
330
8E
100
AcDbDictionary
280
     1
281
     1
  3
TC_OPTIONAL_DATA
360
8D
  0
DICTIONARY
  5
8F
330
91
100
AcDbDictionary
280
     1
281
     1
  3
TC_OPTIONAL_DATA
360
90
  0
DICTIONARY
  5
92
330
94
100
AcDbDictionary
280
     1
281
     1
  3
TC_OPTIONAL_DATA
360
93
  0
DICTIONARY
  5
95
330
97
100
AcDbDictionary
280
     1
281
     1
  3
TC_OPTIONAL_DATA
360
96
  0
DICTIONARY
  5
98
330
9A
100
AcDbDictionary
280
     1
281
     1
  3
TC_OPTIONAL_DATA
360
99
  0
DICTIONARY
  5
9B
330
9D
100
AcDbDictionary
280
     1
281
     1
  3
TC_OPTIONAL_DATA
360
9C
  0
DICTIONARY
  5
9E
330
A0
100
AcDbDictionary
280
     1
281
     1
  3
TC_OPTIONAL_DATA
360
9F
  0
DICTIONARY
  5
A1
330
A3
100
AcDbDictionary
280
     1
281
     1
  3
TC_OPTIONAL_DATA
360
A2
  0
DICTIONARY
  5
A4
330
A6
100
AcDbDictionary
280
     1
281
     1
  3
TC_OPTIONAL_DATA
360
A5
  0
DICTIONARY
  5
A7
330
A9
100
AcDbDictionary
280
     1
281
     1
  3
TC_OPTIONAL_DATA
360
A8
  0
DICTIONARY
  5
AA
330
AC
100
AcDbDictionary
280
     1
281
     1
  3
TC_OPTIONAL_DATA
360
AB
  0
DICTIONARY
  5
AD
330
AF
100
AcDbDictionary
280
     1
281
     1
  3
TC_OPTIONAL_DATA
360
AE
  0
DICTIONARY
  5
B0
330
B2
100
AcDbDictionary
280
     1
281
     1
  3
TC_OPTIONAL_DATA
360
B1
  0
DICTIONARY
  5
B3
330
B5
100
AcDbDictionary
280
     1
281
     1
  3
TC_OPTIONAL_DATA
360
B4
  0
DICTIONARY
  5
B6
330
B8
100
AcDbDictionary
280
     1
281
     1
  3
TC_OPTIONAL_DATA
360
B7
  0
DICTIONARY
  5
B9
330
BB
100
AcDbDictionary
280
     1
281
     1
  3
TC_OPTIONAL_DATA
360
BA
  0
DICTIONARY
  5
BC
330
BE
100
AcDbDictionary
280
     1
281
     1
  3
TC_OPTIONAL_DATA
360
BD
  0
DICTIONARY
  5
BF
330
C1
100
AcDbDictionary
280
     1
281
     1
  3
TC_OPTIONAL_DATA
360
C0
  0
DICTIONARY
  5
C2
330
C4
100
AcDbDictionary
280
     1
281
     1
  3
TC_OPTIONAL_DATA
360
C3
  0
DICTIONARY
  5
C5
330
C7
100
AcDbDictionary
280
     1
281
     1
  3
TC_OPTIONAL_DATA
360
C6
  0
DICTIONARY
  5
C8
330
CA
100
AcDbDictionary
280
     1
281
     1
  3
TC_OPTIONAL_DATA
360
C9
  0
DICTIONARY
  5
CB
330
CD
100
AcDbDictionary
280
     1
281
     1
  3
TC_OPTIONAL_DATA
360
CC
  0
DICTIONARY
  5
CE
330
D0
100
AcDbDictionary
280
     1
281
     1
  3
TC_OPTIONAL_DATA
360
CF
  0
DICTIONARY
  5
D1
330
D3
100
AcDbDictionary
280
     1
281
     1
  3
TC_OPTIONAL_DATA
360
D2
  0
DICTIONARY
  5
D4
330
D6
100
AcDbDictionary
280
     1
281
     1
  3
TC_OPTIONAL_DATA
360
D5
  0
DICTIONARY
  5
D7
330
D9
100
AcDbDictionary
280
     1
281
     1
  3
TC_OPTIONAL_DATA
360
D8
  0
DICTIONARY
  5
DA
330
DC
100
AcDbDictionary
280
     1
281
     1
  3
TC_OPTIONAL_DATA
360
DB
  0
DICTIONARY
  5
DD
330
DF
100
AcDbDictionary
280
     1
281
     1
  3
TC_OPTIONAL_DATA
360
DE
  0
DICTIONARY
  5
E0
330
E2
100
AcDbDictionary
280
     1
281
     1
  3
TC_OPTIONAL_DATA
360
E1
  0
DICTIONARY
  5
E3
330
E5
100
AcDbDictionary
280
     1
281
     1
  3
TC_OPTIONAL_DATA
360
E4
  0
DICTIONARY
  5
E6
330
E8
100
AcDbDictionary
280
     1
281
     1
  3
TC_OPTIONAL_DATA
360
E7
  0
DICTIONARY
  5
E9
330
EB
100
AcDbDictionary
280
     1
281
     1
  3
TC_OPTIONAL_DATA
360
EA
  0
DICTIONARY
  5
EC
330
EE
100
AcDbDictionary
280
     1
281
     1
  3
TC_OPTIONAL_DATA
360
ED
  0
DICTIONARY
  5
EF
330
F1
100
AcDbDictionary
280
     1
281
     1
  3
TC_OPTIONAL_DATA
360
F0
  0
DICTIONARY
  5
F2
330
F4
100
AcDbDictionary
280
     1
281
     1
  3
TC_OPTIONAL_DATA
360
F3
  0
DICTIONARY
  5
F5
330
F7
100
AcDbDictionary
280
     1
281
     1
  3
TC_OPTIONAL_DATA
360
F6
  0
DICTIONARY
  5
F8
330
FA
100
AcDbDictionary
280
     1
281
     1
  3
TC_OPTIONAL_DATA
360
F9
  0
DICTIONARY
  5
FB
330
FD
100
AcDbDictionary
280
     1
281
     1
  3
TC_OPTIONAL_DATA
360
FC
  0
DICTIONARY
  5
FE
330
100
100
AcDbDictionary
280
     1
281
     1
  3
TC_OPTIONAL_DATA
360
FF
  0
DICTIONARY
  5
101
330
103
100
AcDbDictionary
280
     1
281
     1
  3
TC_OPTIONAL_DATA
360
102
  0
DICTIONARY
  5
104
330
106
100
AcDbDictionary
280
     1
281
     1
  3
TC_OPTIONAL_DATA
360
105
  0
DICTIONARY
  5
107
330
109
100
AcDbDictionary
280
     1
281
     1
  3
TC_OPTIONAL_DATA
360
108
  0
DICTIONARY
  5
10A
330
10C
100
AcDbDictionary
280
     1
281
     1
  3
TC_OPTIONAL_DATA
360
10B
  0
DICTIONARY
  5
10D
330
10F
100
AcDbDictionary
280
     1
281
     1
  3
TC_OPTIONAL_DATA
360
10E
  0
DICTIONARY
  5
110
330
112
100
AcDbDictionary
280
     1
281
     1
  3
TC_OPTIONAL_DATA
360
111
  0
DICTIONARY
  5
113
330
115
100
AcDbDictionary
280
     1
281
     1
  3
TC_OPTIONAL_DATA
360
114
  0
DICTIONARY
  5
116
330
118
100
AcDbDictionary
280
     1
281
     1
  3
TC_OPTIONAL_DATA
360
117
  0
DICTIONARY
  5
119
330
11B
100
AcDbDictionary
280
     1
281
     1
  3
TC_OPTIONAL_DATA
360
11A
  0
DICTIONARY
  5
11C
330
11E
100
AcDbDictionary
280
     1
281
     1
  3
TC_OPTIONAL_DATA
360
11D
  0
DICTIONARY
  5
11F
330
121
100
AcDbDictionary
280
     1
281
     1
  3
TC_OPTIONAL_DATA
360
120
  0
DICTIONARY
  5
122
330
124
100
AcDbDictionary
280
     1
281
     1
  3
TC_OPTIONAL_DATA
360
123
  0
DICTIONARY
  5
125
330
127
100
AcDbDictionary
280
     1
281
     1
  3
TC_OPTIONAL_DATA
360
126
  0
DICTIONARY
  5
128
330
12A
100
AcDbDictionary
280
     1
281
     1
  3
TC_OPTIONAL_DATA
360
129
  0
DICTIONARY
  5
12B
330
12D
100
AcDbDictionary
280
     1
281
     1
  3
TC_OPTIONAL_DATA
360
12C
  0
DICTIONARY
  5
12E
330
130
100
AcDbDictionary
280
     1
281
     1
  3
TC_OPTIONAL_DATA
360
12F
  0
DICTIONARY
  5
131
330
133
100
AcDbDictionary
280
     1
281
     1
  3
TC_OPTIONAL_DATA
360
132
  0
DICTIONARY
  5
134
330
136
100
AcDbDictionary
280
     1
281
     1
  3
TC_OPTIONAL_DATA
360
135
  0
DICTIONARY
  5
137
330
139
100
AcDbDictionary
280
     1
281
     1
  3
TC_OPTIONAL_DATA
360
138
  0
DICTIONARY
  5
13A
330
13C
100
AcDbDictionary
280
     1
281
     1
  3
TC_OPTIONAL_DATA
360
13B
  0
DICTIONARY
  5
13D
330
13F
100
AcDbDictionary
280
     1
281
     1
  3
TC_OPTIONAL_DATA
360
13E
  0
DICTIONARY
  5
140
330
142
100
AcDbDictionary
280
     1
281
     1
  3
TC_OPTIONAL_DATA
360
141
  0
DICTIONARY
  5
143
330
145
100
AcDbDictionary
280
     1
281
     1
  3
TC_OPTIONAL_DATA
360
144
  0
DICTIONARY
  5
146
330
148
100
AcDbDictionary
280
     1
281
     1
  3
TC_OPTIONAL_DATA
360
147
  0
DICTIONARY
  5
149
330
14B
100
AcDbDictionary
280
     1
281
     1
  3
TC_OPTIONAL_DATA
360
14A
  0
DICTIONARY
  5
14C
330
14E
100
AcDbDictionary
280
     1
281
     1
  3
TC_OPTIONAL_DATA
360
14D
  0
DICTIONARY
  5
14F
330
151
100
AcDbDictionary
280
     1
281
     1
  3
TC_OPTIONAL_DATA
360
150
  0
DICTIONARY
  5
152
330
154
100
AcDbDictionary
280
     1
281
     1
  3
TC_OPTIONAL_DATA
360
153
  0
DICTIONARY
  5
155
330
157
100
AcDbDictionary
280
     1
281
     1
  3
TC_OPTIONAL_DATA
360
156
  0
DICTIONARY
  5
158
330
15A
100
AcDbDictionary
280
     1
281
     1
  3
TC_OPTIONAL_DATA
360
159
  0
DICTIONARY
  5
15B
330
15D
100
AcDbDictionary
280
     1
281
     1
  3
TC_OPTIONAL_DATA
360
15C
  0
DICTIONARY
  5
15E
330
160
100
AcDbDictionary
280
     1
281
     1
  3
TC_OPTIONAL_DATA
360
15F
  0
DICTIONARY
  5
161
330
163
100
AcDbDictionary
280
     1
281
     1
  3
TC_OPTIONAL_DATA
360
162
  0
DICTIONARY
  5
164
330
166
100
AcDbDictionary
280
     1
281
     1
  3
TC_OPTIONAL_DATA
360
165
  0
DICTIONARY
  5
167
330
169
100
AcDbDictionary
280
     1
281
     1
  3
TC_OPTIONAL_DATA
360
168
  0
DICTIONARY
  5
16A
330
16C
100
AcDbDictionary
280
     1
281
     1
  3
TC_OPTIONAL_DATA
360
16B
  0
DICTIONARY
  5
16D
330
16F
100
AcDbDictionary
280
     1
281
     1
  3
TC_OPTIONAL_DATA
360
16E
  0
DICTIONARY
  5
170
330
172
100
AcDbDictionary
280
     1
281
     1
  3
TC_OPTIONAL_DATA
360
171
  0
DICTIONARY
  5
173
330
175
100
AcDbDictionary
280
     1
281
     1
  3
TC_OPTIONAL_DATA
360
174
  0
DICTIONARY
  5
176
330
178
100
AcDbDictionary
280
     1
281
     1
  3
TC_OPTIONAL_DATA
360
177
  0
DICTIONARY
  5
179
330
17B
100
AcDbDictionary
280
     1
281
     1
  3
TC_OPTIONAL_DATA
360
17A
  0
DICTIONARY
  5
17C
330
17E
100
AcDbDictionary
280
     1
281
     1
  3
TC_OPTIONAL_DATA
360
17D
  0
DICTIONARY
  5
17F
330
181
100
AcDbDictionary
280
     1
281
     1
  3
TC_OPTIONAL_DATA
360
180
  0
DICTIONARY
  5
182
330
184
100
AcDbDictionary
280
     1
281
     1
  3
TC_OPTIONAL_DATA
360
183
  0
DICTIONARY
  5
185
330
187
100
AcDbDictionary
280
     1
281
     1
  3
TC_OPTIONAL_DATA
360
186
  0
DICTIONARY
  5
188
330
18A
100
AcDbDictionary
280
     1
281
     1
  3
TC_OPTIONAL_DATA
360
189
  0
DICTIONARY
  5
18B
330
18D
100
AcDbDictionary
280
     1
281
     1
  3
TC_OPTIONAL_DATA
360
18C
  0
DICTIONARY
  5
18E
330
190
100
AcDbDictionary
280
     1
281
     1
  3
TC_OPTIONAL_DATA
360
18F
  0
DICTIONARY
  5
191
330
193
100
AcDbDictionary
280
     1
281
     1
  3
TC_OPTIONAL_DATA
360
192
  0
DICTIONARY
  5
194
330
196
100
AcDbDictionary
280
     1
281
     1
  3
TC_OPTIONAL_DATA
360
195
  0
DICTIONARY
  5
197
330
199
100
AcDbDictionary
280
     1
281
     1
  3
TC_OPTIONAL_DATA
360
198
  0
DICTIONARY
  5
19A
330
19C
100
AcDbDictionary
280
     1
281
     1
  3
TC_OPTIONAL_DATA
360
19B
  0
DICTIONARY
  5
19D
330
19F
100
AcDbDictionary
280
     1
281
     1
  3
TC_OPTIONAL_DATA
360
19E
  0
DICTIONARY
  5
1A0
330
1A2
100
AcDbDictionary
280
     1
281
     1
  3
TC_OPTIONAL_DATA
360
1A1
  0
DICTIONARY
  5
1A3
330
1A5
100
AcDbDictionary
280
     1
281
     1
  3
TC_OPTIONAL_DATA
360
1A4
  0
DICTIONARY
  5
1A6
330
1A8
100
AcDbDictionary
280
     1
281
     1
  3
TC_OPTIONAL_DATA
360
1A7
  0
DICTIONARY
  5
1A9
330
1AB
100
AcDbDictionary
280
     1
281
     1
  3
TC_OPTIONAL_DATA
360
1AA
  0
DICTIONARY
  5
1AC
330
1AE
100
AcDbDictionary
280
     1
281
     1
  3
TC_OPTIONAL_DATA
360
1AD
  0
DICTIONARY
  5
1AF
330
1B1
100
AcDbDictionary
280
     1
281
     1
  3
TC_OPTIONAL_DATA
360
1B0
  0
DICTIONARY
  5
1B2
330
1B4
100
AcDbDictionary
280
     1
281
     1
  3
TC_OPTIONAL_DATA
360
1B3
  0
DICTIONARY
  5
1B5
330
1B7
100
AcDbDictionary
280
     1
281
     1
  3
TC_OPTIONAL_DATA
360
1B6
  0
DICTIONARY
  5
1B8
330
1BA
100
AcDbDictionary
280
     1
281
     1
  3
TC_OPTIONAL_DATA
360
1B9
  0
DICTIONARY
  5
1BB
330
1BD
100
AcDbDictionary
280
     1
281
     1
  3
TC_OPTIONAL_DATA
360
1BC
  0
DICTIONARY
  5
1BE
330
1C0
100
AcDbDictionary
280
     1
281
     1
  3
TC_OPTIONAL_DATA
360
1BF
  0
DICTIONARY
  5
1C1
330
1C3
100
AcDbDictionary
280
     1
281
     1
  3
TC_OPTIONAL_DATA
360
1C2
  0
DICTIONARY
  5
1C4
330
1C6
100
AcDbDictionary
280
     1
281
     1
  3
TC_OPTIONAL_DATA
360
1C5
  0
DICTIONARY
  5
1C7
330
1C9
100
AcDbDictionary
280
     1
281
     1
  3
TC_OPTIONAL_DATA
360
1C8
  0
DICTIONARY
  5
1CA
330
1CC
100
AcDbDictionary
280
     1
281
     1
  3
TC_OPTIONAL_DATA
360
1CB
  0
DICTIONARY
  5
1CD
330
1CF
100
AcDbDictionary
280
     1
281
     1
  3
TC_OPTIONAL_DATA
360
1CE
  0
DICTIONARY
  5
1D0
330
1D2
100
AcDbDictionary
280
     1
281
     1
  3
TC_OPTIONAL_DATA
360
1D1
  0
DICTIONARY
  5
1D3
330
1D5
100
AcDbDictionary
280
     1
281
     1
  3
TC_OPTIONAL_DATA
360
1D4
  0
DICTIONARY
  5
1D6
330
1D8
100
AcDbDictionary
280
     1
281
     1
  3
TC_OPTIONAL_DATA
360
1D7
  0
DICTIONARY
  5
1D9
330
1DB
100
AcDbDictionary
280
     1
281
     1
  3
TC_OPTIONAL_DATA
360
1DA
  0
DICTIONARY
  5
1DC
330
1DE
100
AcDbDictionary
280
     1
281
     1
  3
TC_OPTIONAL_DATA
360
1DD
  0
DICTIONARY
  5
1DF
330
1E1
100
AcDbDictionary
280
     1
281
     1
  3
TC_OPTIONAL_DATA
360
1E0
  0
DICTIONARY
  5
1E2
330
1E4
100
AcDbDictionary
280
     1
281
     1
  3
TC_OPTIONAL_DATA
360
1E3
  0
DICTIONARY
  5
1E5
330
1E7
100
AcDbDictionary
280
     1
281
     1
  3
TC_OPTIONAL_DATA
360
1E6
  0
DICTIONARY
  5
1E8
330
1EA
100
AcDbDictionary
280
     1
281
     1
  3
TC_OPTIONAL_DATA
360
1E9
  0
DICTIONARY
  5
1EB
330
1ED
100
AcDbDictionary
280
     1
281
     1
  3
TC_OPTIONAL_DATA
360
1EC
  0
DICTIONARY
  5
1EE
330
1F0
100
AcDbDictionary
280
     1
281
     1
  3
TC_OPTIONAL_DATA
360
1EF
  0
DICTIONARY
  5
1F1
330
1F3
100
AcDbDictionary
280
     1
281
     1
  3
TC_OPTIONAL_DATA
360
1F2
  0
DICTIONARY
  5
1F4
330
1F6
100
AcDbDictionary
280
     1
281
     1
  3
TC_OPTIONAL_DATA
360
1F5
  0
DICTIONARY
  5
1F7
330
1F9
100
AcDbDictionary
280
     1
281
     1
  3
TC_OPTIONAL_DATA
360
1F8
  0
DICTIONARY
  5
1FA
330
1FC
100
AcDbDictionary
280
     1
281
     1
  3
TC_OPTIONAL_DATA
360
1FB
  0
DICTIONARY
  5
1FD
330
1FF
100
AcDbDictionary
280
     1
281
     1
  3
TC_OPTIONAL_DATA
360
1FE
  0
DICTIONARY
  5
200
330
202
100
AcDbDictionary
280
     1
281
     1
  3
TC_OPTIONAL_DATA
360
201
  0
DICTIONARY
  5
203
330
205
100
AcDbDictionary
280
     1
281
     1
  3
TC_OPTIONAL_DATA
360
204
  0
DICTIONARY
  5
206
330
208
100
AcDbDictionary
280
     1
281
     1
  3
TC_OPTIONAL_DATA
360
207
  0
DICTIONARY
  5
209
330
20B
100
AcDbDictionary
280
     1
281
     1
  3
TC_OPTIONAL_DATA
360
20A
  0
DICTIONARY
  5
20C
330
20E
100
AcDbDictionary
280
     1
281
     1
  3
TC_OPTIONAL_DATA
360
20D
  0
DICTIONARY
  5
20F
330
211
100
AcDbDictionary
280
     1
281
     1
  3
TC_OPTIONAL_DATA
360
210
  0
DICTIONARY
  5
212
330
214
100
AcDbDictionary
280
     1
281
     1
  3
TC_OPTIONAL_DATA
360
213
  0
DICTIONARY
  5
215
330
217
100
AcDbDictionary
280
     1
281
     1
  3
TC_OPTIONAL_DATA
360
216
  0
DICTIONARY
  5
218
330
21A
100
AcDbDictionary
280
     1
281
     1
  3
TC_OPTIONAL_DATA
360
219
  0
DICTIONARY
  5
21B
330
21D
100
AcDbDictionary
280
     1
281
     1
  3
TC_OPTIONAL_DATA
360
21C
  0
DICTIONARY
  5
21E
330
220
100
AcDbDictionary
280
     1
281
     1
  3
TC_OPTIONAL_DATA
360
21F
  0
DICTIONARY
  5
221
330
223
100
AcDbDictionary
280
     1
281
     1
  3
TC_OPTIONAL_DATA
360
222
  0
DICTIONARY
  5
224
330
226
100
AcDbDictionary
280
     1
281
     1
  3
TC_OPTIONAL_DATA
360
225
  0
DICTIONARY
  5
227
330
229
100
AcDbDictionary
280
     1
281
     1
  3
TC_OPTIONAL_DATA
360
228
  0
DICTIONARY
  5
22A
330
22C
100
AcDbDictionary
280
     1
281
     1
  3
TC_OPTIONAL_DATA
360
22B
  0
DICTIONARY
  5
22D
330
22F
100
AcDbDictionary
280
     1
281
     1
  3
TC_OPTIONAL_DATA
360
22E
  0
DICTIONARY
  5
230
330
232
100
AcDbDictionary
280
     1
281
     1
  3
TC_OPTIONAL_DATA
360
231
  0
DICTIONARY
  5
233
330
235
100
AcDbDictionary
280
     1
281
     1
  3
TC_OPTIONAL_DATA
360
234
  0
DICTIONARY
  5
236
330
238
100
AcDbDictionary
280
     1
281
     1
  3
TC_OPTIONAL_DATA
360
237
  0
DICTIONARY
  5
239
330
23B
100
AcDbDictionary
280
     1
281
     1
  3
TC_OPTIONAL_DATA
360
23A
  0
DICTIONARY
  5
23C
330
23E
100
AcDbDictionary
280
     1
281
     1
  3
TC_OPTIONAL_DATA
360
23D
  0
DICTIONARY
  5
23F
330
241
100
AcDbDictionary
280
     1
281
     1
  3
TC_OPTIONAL_DATA
360
240
  0
DICTIONARY
  5
242
330
244
100
AcDbDictionary
280
     1
281
     1
  3
TC_OPTIONAL_DATA
360
243
  0
DICTIONARY
  5
245
330
247
100
AcDbDictionary
280
     1
281
     1
  3
TC_OPTIONAL_DATA
360
246
  0
DICTIONARY
  5
248
330
24A
100
AcDbDictionary
280
     1
281
     1
  3
TC_OPTIONAL_DATA
360
249
  0
DICTIONARY
  5
24B
330
24D
100
AcDbDictionary
280
     1
281
     1
  3
TC_OPTIONAL_DATA
360
24C
  0
DICTIONARY
  5
24E
330
250
100
AcDbDictionary
280
     1
281
     1
  3
TC_OPTIONAL_DATA
360
24F
  0
DICTIONARY
  5
251
330
253
100
AcDbDictionary
280
     1
281
     1
  3
TC_OPTIONAL_DATA
360
252
  0
DICTIONARY
  5
254
330
256
100
AcDbDictionary
280
     1
281
     1
  3
TC_OPTIONAL_DATA
360
255
  0
DICTIONARY
  5
257
330
259
100
AcDbDictionary
280
     1
281
     1
  3
TC_OPTIONAL_DATA
360
258
  0
DICTIONARY
  5
25A
330
25C
100
AcDbDictionary
280
     1
281
     1
  3
TC_OPTIONAL_DATA
360
25B
  0
DICTIONARY
  5
25D
330
25F
100
AcDbDictionary
280
     1
281
     1
  3
TC_OPTIONAL_DATA
360
25E
  0
DICTIONARY
  5
260
330
262
100
AcDbDictionary
280
     1
281
     1
  3
TC_OPTIONAL_DATA
360
261
  0
DICTIONARY
  5
263
330
265
100
AcDbDictionary
280
     1
281
     1
  3
TC_OPTIONAL_DATA
360
264
  0
DICTIONARY
  5
266
330
268
100
AcDbDictionary
280
     1
281
     1
  3
TC_OPTIONAL_DATA
360
267
  0
DICTIONARY
  5
269
330
26B
100
AcDbDictionary
280
     1
281
     1
  3
TC_OPTIONAL_DATA
360
26A
  0
DICTIONARY
  5
26C
330
26E
100
AcDbDictionary
280
     1
281
     1
  3
TC_OPTIONAL_DATA
360
26D
  0
DICTIONARY
  5
26F
330
271
100
AcDbDictionary
280
     1
281
     1
  3
TC_OPTIONAL_DATA
360
270
  0
DICTIONARY
  5
272
330
274
100
AcDbDictionary
280
     1
281
     1
  3
TC_OPTIONAL_DATA
360
273
  0
DICTIONARY
  5
275
330
277
100
AcDbDictionary
280
     1
281
     1
  3
TC_OPTIONAL_DATA
360
276
  0
DICTIONARY
  5
278
330
27A
100
AcDbDictionary
280
     1
281
     1
  3
TC_OPTIONAL_DATA
360
279
  0
DICTIONARY
  5
27B
330
27D
100
AcDbDictionary
280
     1
281
     1
  3
TC_OPTIONAL_DATA
360
27C
  0
DICTIONARY
  5
27E
330
280
100
AcDbDictionary
280
     1
281
     1
  3
TC_OPTIONAL_DATA
360
27F
  0
DICTIONARY
  5
281
330
283
100
AcDbDictionary
280
     1
281
     1
  3
TC_OPTIONAL_DATA
360
282
  0
DICTIONARY
  5
284
330
286
100
AcDbDictionary
280
     1
281
     1
  3
TC_OPTIONAL_DATA
360
285
  0
DICTIONARY
  5
287
330
289
100
AcDbDictionary
280
     1
281
     1
  3
TC_OPTIONAL_DATA
360
288
  0
DICTIONARY
  5
28A
330
28C
100
AcDbDictionary
280
     1
281
     1
  3
TC_OPTIONAL_DATA
360
28B
  0
DICTIONARY
  5
28D
330
28F
100
AcDbDictionary
280
     1
281
     1
  3
TC_OPTIONAL_DATA
360
28E
  0
DICTIONARY
  5
290
330
292
100
AcDbDictionary
280
     1
281
     1
  3
TC_OPTIONAL_DATA
360
291
  0
DICTIONARY
  5
293
330
295
100
AcDbDictionary
280
     1
281
     1
  3
TC_OPTIONAL_DATA
360
294
  0
DICTIONARY
  5
296
330
298
100
AcDbDictionary
280
     1
281
     1
  3
TC_OPTIONAL_DATA
360
297
  0
DICTIONARY
  5
299
330
29B
100
AcDbDictionary
280
     1
281
     1
  3
TC_OPTIONAL_DATA
360
29A
  0
DICTIONARY
  5
29C
330
29E
100
AcDbDictionary
280
     1
281
     1
  3
TC_OPTIONAL_DATA
360
29D
  0
DICTIONARY
  5
29F
330
2A1
100
AcDbDictionary
280
     1
281
     1
  3
TC_OPTIONAL_DATA
360
2A0
  0
DICTIONARY
  5
2A2
330
2A4
100
AcDbDictionary
280
     1
281
     1
  3
TC_OPTIONAL_DATA
360
2A3
  0
DICTIONARY
  5
2A5
330
2A7
100
AcDbDictionary
280
     1
281
     1
  3
TC_OPTIONAL_DATA
360
2A6
  0
DICTIONARY
  5
2A8
330
2AA
100
AcDbDictionary
280
     1
281
     1
  3
TC_OPTIONAL_DATA
360
2A9
  0
DICTIONARY
  5
2AB
330
2AD
100
AcDbDictionary
280
     1
281
     1
  3
TC_OPTIONAL_DATA
360
2AC
  0
DICTIONARY
  5
2AE
330
2B0
100
AcDbDictionary
280
     1
281
     1
  3
TC_OPTIONAL_DATA
360
2AF
  0
DICTIONARY
  5
2B1
330
2B3
100
AcDbDictionary
280
     1
281
     1
  3
TC_OPTIONAL_DATA
360
2B2
  0
DICTIONARY
  5
2B4
330
2B6
100
AcDbDictionary
280
     1
281
     1
  3
TC_OPTIONAL_DATA
360
2B5
  0
DICTIONARY
  5
2B7
330
2B9
100
AcDbDictionary
280
     1
281
     1
  3
TC_OPTIONAL_DATA
360
2B8
  0
DICTIONARY
  5
2BA
330
2BC
100
AcDbDictionary
280
     1
281
     1
  3
TC_OPTIONAL_DATA
360
2BB
  0
DICTIONARY
  5
2BD
330
2BF
100
AcDbDictionary
280
     1
281
     1
  3
TC_OPTIONAL_DATA
360
2BE
  0
DICTIONARY
  5
2C0
330
2C2
100
AcDbDictionary
280
     1
281
     1
  3
TC_OPTIONAL_DATA
360
2C1
  0
DICTIONARY
  5
2C3
330
2C5
100
AcDbDictionary
280
     1
281
     1
  3
TC_OPTIONAL_DATA
360
2C4
  0
DICTIONARY
  5
2C6
330
2C8
100
AcDbDictionary
280
     1
281
     1
  3
TC_OPTIONAL_DATA
360
2C7
  0
DICTIONARY
  5
2C9
330
2CB
100
AcDbDictionary
280
     1
281
     1
  3
TC_OPTIONAL_DATA
360
2CA
  0
DICTIONARY
  5
2CC
330
2CE
100
AcDbDictionary
280
     1
281
     1
  3
TC_OPTIONAL_DATA
360
2CD
  0
DICTIONARY
  5
2CF
330
2D1
100
AcDbDictionary
280
     1
281
     1
  3
TC_OPTIONAL_DATA
360
2D0
  0
DICTIONARY
  5
2D2
330
2D4
100
AcDbDictionary
280
     1
281
     1
  3
TC_OPTIONAL_DATA
360
2D3
  0
DICTIONARY
  5
2D5
330
2D7
100
AcDbDictionary
280
     1
281
     1
  3
TC_OPTIONAL_DATA
360
2D6
  0
DICTIONARY
  5
2D8
330
2DA
100
AcDbDictionary
280
     1
281
     1
  3
TC_OPTIONAL_DATA
360
2D9
  0
DICTIONARY
  5
2DB
330
2DD
100
AcDbDictionary
280
     1
281
     1
  3
TC_OPTIONAL_DATA
360
2DC
  0
DICTIONARY
  5
2DE
330
2E0
100
AcDbDictionary
280
     1
281
     1
  3
TC_OPTIONAL_DATA
360
2DF
  0
DICTIONARY
  5
2E1
330
2E3
100
AcDbDictionary
280
     1
281
     1
  3
TC_OPTIONAL_DATA
360
2E2
  0
DICTIONARY
  5
2E4
330
2E6
100
AcDbDictionary
280
     1
281
     1
  3
TC_OPTIONAL_DATA
360
2E5
  0
DICTIONARY
  5
2E7
330
2E9
100
AcDbDictionary
280
     1
281
     1
  3
TC_OPTIONAL_DATA
360
2E8
  0
DICTIONARY
  5
2EA
330
2EC
100
AcDbDictionary
280
     1
281
     1
  3
TC_OPTIONAL_DATA
360
2EB
  0
DICTIONARY
  5
2ED
330
2EF
100
AcDbDictionary
280
     1
281
     1
  3
TC_OPTIONAL_DATA
360
2EE
  0
DICTIONARY
  5
2F0
330
2F2
100
AcDbDictionary
280
     1
281
     1
  3
TC_OPTIONAL_DATA
360
2F1
  0
DICTIONARY
  5
2F3
330
2F5
100
AcDbDictionary
280
     1
281
     1
  3
TC_OPTIONAL_DATA
360
2F4
  0
DICTIONARY
  5
2F6
330
2F8
100
AcDbDictionary
280
     1
281
     1
  3
TC_OPTIONAL_DATA
360
2F7
  0
DICTIONARY
  5
2F9
330
2FB
100
AcDbDictionary
280
     1
281
     1
  3
TC_OPTIONAL_DATA
360
2FA
  0
DICTIONARY
  5
2FC
330
2FE
100
AcDbDictionary
280
     1
281
     1
  3
TC_OPTIONAL_DATA
360
2FD
  0
DICTIONARY
  5
2FF
330
301
100
AcDbDictionary
280
     1
281
     1
  3
TC_OPTIONAL_DATA
360
300
  0
DICTIONARY
  5
302
330
304
100
AcDbDictionary
280
     1
281
     1
  3
TC_OPTIONAL_DATA
360
303
  0
DICTIONARY
  5
305
330
307
100
AcDbDictionary
280
     1
281
     1
  3
TC_OPTIONAL_DATA
360
306
  0
DICTIONARY
  5
308
330
30A
100
AcDbDictionary
280
     1
281
     1
  3
TC_OPTIONAL_DATA
360
309
  0
DICTIONARY
  5
30B
330
30D
100
AcDbDictionary
280
     1
281
     1
  3
TC_OPTIONAL_DATA
360
30C
  0
DICTIONARY
  5
30E
330
310
100
AcDbDictionary
280
     1
281
     1
  3
TC_OPTIONAL_DATA
360
30F
  0
DICTIONARY
  5
311
330
313
100
AcDbDictionary
280
     1
281
     1
  3
TC_OPTIONAL_DATA
360
312
  0
DICTIONARY
  5
314
330
316
100
AcDbDictionary
280
     1
281
     1
  3
TC_OPTIONAL_DATA
360
315
  0
DICTIONARY
  5
317
330
319
100
AcDbDictionary
280
     1
281
     1
  3
TC_OPTIONAL_DATA
360
318
  0
DICTIONARY
  5
31A
330
31C
100
AcDbDictionary
280
     1
281
     1
  3
TC_OPTIONAL_DATA
360
31B
  0
DICTIONARY
  5
31D
330
31F
100
AcDbDictionary
280
     1
281
     1
  3
TC_OPTIONAL_DATA
360
31E
  0
DICTIONARY
  5
320
330
322
100
AcDbDictionary
280
     1
281
     1
  3
TC_OPTIONAL_DATA
360
321
  0
DICTIONARY
  5
323
330
325
100
AcDbDictionary
280
     1
281
     1
  3
TC_OPTIONAL_DATA
360
324
  0
DICTIONARY
  5
326
330
328
100
AcDbDictionary
280
     1
281
     1
  3
TC_OPTIONAL_DATA
360
327
  0
DICTIONARY
  5
329
330
32B
100
AcDbDictionary
280
     1
281
     1
  3
TC_OPTIONAL_DATA
360
32A
  0
DICTIONARY
  5
32C
330
32E
100
AcDbDictionary
280
     1
281
     1
  3
TC_OPTIONAL_DATA
360
32D
  0
DICTIONARY
  5
32F
330
331
100
AcDbDictionary
280
     1
281
     1
  3
TC_OPTIONAL_DATA
360
330
  0
DICTIONARY
  5
332
330
334
100
AcDbDictionary
280
     1
281
     1
  3
TC_OPTIONAL_DATA
360
333
  0
DICTIONARY
  5
335
330
337
100
AcDbDictionary
280
     1
281
     1
  3
TC_OPTIONAL_DATA
360
336
  0
DICTIONARY
  5
338
330
33A
100
AcDbDictionary
280
     1
281
     1
  3
TC_OPTIONAL_DATA
360
339
  0
DICTIONARY
  5
33B
330
33D
100
AcDbDictionary
280
     1
281
     1
  3
TC_OPTIONAL_DATA
360
33C
  0
DICTIONARY
  5
33E
330
340
100
AcDbDictionary
280
     1
281
     1
  3
TC_OPTIONAL_DATA
360
33F
  0
DICTIONARY
  5
341
330
343
100
AcDbDictionary
280
     1
281
     1
  3
TC_OPTIONAL_DATA
360
342
  0
DICTIONARY
  5
344
330
346
100
AcDbDictionary
280
     1
281
     1
  3
TC_OPTIONAL_DATA
360
345
  0
DICTIONARY
  5
347
330
349
100
AcDbDictionary
280
     1
281
     1
  3
TC_OPTIONAL_DATA
360
348
  0
DICTIONARY
  5
34A
330
34C
100
AcDbDictionary
280
     1
281
     1
  3
TC_OPTIONAL_DATA
360
34B
  0
DICTIONARY
  5
34D
330
34F
100
AcDbDictionary
280
     1
281
     1
  3
TC_OPTIONAL_DATA
360
34E
  0
DICTIONARY
  5
350
330
352
100
AcDbDictionary
280
     1
281
     1
  3
TC_OPTIONAL_DATA
360
351
  0
DICTIONARY
  5
353
330
355
100
AcDbDictionary
280
     1
281
     1
  3
TC_OPTIONAL_DATA
360
354
  0
DICTIONARY
  5
356
330
358
100
AcDbDictionary
280
     1
281
     1
  3
TC_OPTIONAL_DATA
360
357
  0
DICTIONARY
  5
359
330
35B
100
AcDbDictionary
280
     1
281
     1
  3
TC_OPTIONAL_DATA
360
35A
  0
DICTIONARY
  5
35C
330
35E
100
AcDbDictionary
280
     1
281
     1
  3
TC_OPTIONAL_DATA
360
35D
  0
DICTIONARY
  5
35F
330
361
100
AcDbDictionary
280
     1
281
     1
  3
TC_OPTIONAL_DATA
360
360
  0
DICTIONARY
  5
362
330
364
100
AcDbDictionary
280
     1
281
     1
  3
TC_OPTIONAL_DATA
360
363
  0
DICTIONARY
  5
365
330
367
100
AcDbDictionary
280
     1
281
     1
  3
TC_OPTIONAL_DATA
360
366
  0
DICTIONARY
  5
368
330
36A
100
AcDbDictionary
280
     1
281
     1
  3
TC_OPTIONAL_DATA
360
369
  0
DICTIONARY
  5
36B
330
36D
100
AcDbDictionary
280
     1
281
     1
  3
TC_OPTIONAL_DATA
360
36C
  0
DICTIONARY
  5
36E
330
370
100
AcDbDictionary
280
     1
281
     1
  3
TC_OPTIONAL_DATA
360
36F
  0
DICTIONARY
  5
371
330
373
100
AcDbDictionary
280
     1
281
     1
  3
TC_OPTIONAL_DATA
360
372
  0
DICTIONARY
  5
374
330
376
100
AcDbDictionary
280
     1
281
     1
  3
TC_OPTIONAL_DATA
360
375
  0
DICTIONARY
  5
377
330
379
100
AcDbDictionary
280
     1
281
     1
  3
TC_OPTIONAL_DATA
360
378
  0
DICTIONARY
  5
37A
330
37C
100
AcDbDictionary
280
     1
281
     1
  3
TC_OPTIONAL_DATA
360
37B
  0
DICTIONARY
  5
37D
330
37F
100
AcDbDictionary
280
     1
281
     1
  3
TC_OPTIONAL_DATA
360
37E
  0
DICTIONARY
  5
380
330
382
100
AcDbDictionary
280
     1
281
     1
  3
TC_OPTIONAL_DATA
360
381
  0
DICTIONARY
  5
383
330
385
100
AcDbDictionary
280
     1
281
     1
  3
TC_OPTIONAL_DATA
360
384
  0
DICTIONARY
  5
386
330
388
100
AcDbDictionary
280
     1
281
     1
  3
TC_OPTIONAL_DATA
360
387
  0
DICTIONARY
  5
389
330
38B
100
AcDbDictionary
280
     1
281
     1
  3
TC_OPTIONAL_DATA
360
38A
  0
DICTIONARY
  5
38C
330
38E
100
AcDbDictionary
280
     1
281
     1
  3
TC_OPTIONAL_DATA
360
38D
  0
DICTIONARY
  5
38F
330
391
100
AcDbDictionary
280
     1
281
     1
  3
TC_OPTIONAL_DATA
360
390
  0
DICTIONARY
  5
392
330
394
100
AcDbDictionary
280
     1
281
     1
  3
TC_OPTIONAL_DATA
360
393
  0
DICTIONARY
  5
395
330
397
100
AcDbDictionary
280
     1
281
     1
  3
TC_OPTIONAL_DATA
360
396
  0
DICTIONARY
  5
398
330
39A
100
AcDbDictionary
280
     1
281
     1
  3
TC_OPTIONAL_DATA
360
399
  0
DICTIONARY
  5
39B
330
39D
100
AcDbDictionary
280
     1
281
     1
  3
TC_OPTIONAL_DATA
360
39C
  0
DICTIONARY
  5
39E
330
3A0
100
AcDbDictionary
280
     1
281
     1
  3
TC_OPTIONAL_DATA
360
39F
  0
DICTIONARY
  5
3A1
330
3A3
100
AcDbDictionary
280
     1
281
     1
  3
TC_OPTIONAL_DATA
360
3A2
  0
DICTIONARY
  5
3A4
330
3A6
100
AcDbDictionary
280
     1
281
     1
  3
TC_OPTIONAL_DATA
360
3A5
  0
DICTIONARY
  5
3A7
330
3A9
100
AcDbDictionary
280
     1
281
     1
  3
TC_OPTIONAL_DATA
360
3A8
  0
DICTIONARY
  5
3AA
330
3AC
100
AcDbDictionary
280
     1
281
     1
  3
TC_OPTIONAL_DATA
360
3AB
  0
DICTIONARY
  5
3AD
330
3AF
100
AcDbDictionary
280
     1
281
     1
  3
TC_OPTIONAL_DATA
360
3AE
  0
DICTIONARY
  5
3B0
330
3B2
100
AcDbDictionary
280
     1
281
     1
  3
TC_OPTIONAL_DATA
360
3B1
  0
DICTIONARY
  5
3B3
330
3B5
100
AcDbDictionary
280
     1
281
     1
  3
TC_OPTIONAL_DATA
360
3B4
  0
DICTIONARY
  5
3B6
330
3B8
100
AcDbDictionary
280
     1
281
     1
  3
TC_OPTIONAL_DATA
360
3B7
  0
DICTIONARY
  5
3B9
330
3BB
100
AcDbDictionary
280
     1
281
     1
  3
TC_OPTIONAL_DATA
360
3BA
  0
DICTIONARY
  5
3BC
330
3BE
100
AcDbDictionary
280
     1
281
     1
  3
TC_OPTIONAL_DATA
360
3BD
  0
DICTIONARY
  5
3BF
330
3C1
100
AcDbDictionary
280
     1
281
     1
  3
TC_OPTIONAL_DATA
360
3C0
  0
DICTIONARY
  5
3C2
330
3C4
100
AcDbDictionary
280
     1
281
     1
  3
TC_OPTIONAL_DATA
360
3C3
  0
DICTIONARY
  5
3C5
330
3C7
100
AcDbDictionary
280
     1
281
     1
  3
TC_OPTIONAL_DATA
360
3C6
  0
DICTIONARY
  5
3C8
330
3CA
100
AcDbDictionary
280
     1
281
     1
  3
TC_OPTIONAL_DATA
360
3C9
  0
DICTIONARY
  5
3CB
330
3CD
100
AcDbDictionary
280
     1
281
     1
  3
TC_OPTIONAL_DATA
360
3CC
  0
DICTIONARY
  5
3CE
330
3D0
100
AcDbDictionary
280
     1
281
     1
  3
TC_OPTIONAL_DATA
360
3CF
  0
DICTIONARY
  5
3D1
330
3D3
100
AcDbDictionary
280
     1
281
     1
  3
TC_OPTIONAL_DATA
360
3D2
  0
DICTIONARY
  5
3D4
330
3D6
100
AcDbDictionary
280
     1
281
     1
  3
TC_OPTIONAL_DATA
360
3D5
  0
DICTIONARY
  5
3D7
330
3D9
100
AcDbDictionary
280
     1
281
     1
  3
TC_OPTIONAL_DATA
360
3D8
  0
DICTIONARY
  5
3DA
330
3DC
100
AcDbDictionary
280
     1
281
     1
  3
TC_OPTIONAL_DATA
360
3DB
  0
DICTIONARY
  5
3DD
330
3DF
100
AcDbDictionary
280
     1
281
     1
  3
TC_OPTIONAL_DATA
360
3DE
  0
DICTIONARY
  5
3E0
330
3E2
100
AcDbDictionary
280
     1
281
     1
  3
TC_OPTIONAL_DATA
360
3E1
  0
DICTIONARY
  5
3E3
330
3E5
100
AcDbDictionary
280
     1
281
     1
  3
TC_OPTIONAL_DATA
360
3E4
  0
DICTIONARY
  5
3E6
330
3E8
100
AcDbDictionary
280
     1
281
     1
  3
TC_OPTIONAL_DATA
360
3E7
  0
DICTIONARY
  5
3E9
330
3EB
100
AcDbDictionary
280
     1
281
     1
  3
TC_OPTIONAL_DATA
360
3EA
  0
DICTIONARY
  5
3EC
330
3EE
100
AcDbDictionary
280
     1
281
     1
  3
TC_OPTIONAL_DATA
360
3ED
  0
DICTIONARY
  5
3EF
330
3F1
100
AcDbDictionary
280
     1
281
     1
  3
TC_OPTIONAL_DATA
360
3F0
  0
DICTIONARY
  5
3F2
330
3F4
100
AcDbDictionary
280
     1
281
     1
  3
TC_OPTIONAL_DATA
360
3F3
  0
DICTIONARY
  5
3F5
330
3F7
100
AcDbDictionary
280
     1
281
     1
  3
TC_OPTIONAL_DATA
360
3F6
  0
DICTIONARY
  5
3F8
330
3FA
100
AcDbDictionary
280
     1
281
     1
  3
TC_OPTIONAL_DATA
360
3F9
  0
DICTIONARY
  5
3FB
330
3FD
100
AcDbDictionary
280
     1
281
     1
  3
TC_OPTIONAL_DATA
360
3FC
  0
DICTIONARY
  5
3FE
330
400
100
AcDbDictionary
280
     1
281
     1
  3
TC_OPTIONAL_DATA
360
3FF
  0
DICTIONARY
  5
401
330
403
100
AcDbDictionary
280
     1
281
     1
  3
TC_OPTIONAL_DATA
360
402
  0
DICTIONARY
  5
404
330
406
100
AcDbDictionary
280
     1
281
     1
  3
TC_OPTIONAL_DATA
360
405
  0
DICTIONARY
  5
407
330
409
100
AcDbDictionary
280
     1
281
     1
  3
TC_OPTIONAL_DATA
360
408
  0
DICTIONARY
  5
40A
330
40C
100
AcDbDictionary
280
     1
281
     1
  3
TC_OPTIONAL_DATA
360
40B
  0
DICTIONARY
  5
40D
330
40F
100
AcDbDictionary
280
     1
281
     1
  3
TC_OPTIONAL_DATA
360
40E
  0
DICTIONARY
  5
410
330
412
100
AcDbDictionary
280
     1
281
     1
  3
TC_OPTIONAL_DATA
360
411
  0
DICTIONARY
  5
413
330
415
100
AcDbDictionary
280
     1
281
     1
  3
TC_OPTIONAL_DATA
360
414
  0
DICTIONARY
  5
416
330
418
100
AcDbDictionary
280
     1
281
     1
  3
TC_OPTIONAL_DATA
360
417
  0
DICTIONARY
  5
419
330
41B
100
AcDbDictionary
280
     1
281
     1
  3
TC_OPTIONAL_DATA
360
41A
  0
DICTIONARY
  5
41C
330
41E
100
AcDbDictionary
280
     1
281
     1
  3
TC_OPTIONAL_DATA
360
41D
  0
DICTIONARY
  5
41F
330
421
100
AcDbDictionary
280
     1
281
     1
  3
TC_OPTIONAL_DATA
360
420
  0
DICTIONARY
  5
422
330
424
100
AcDbDictionary
280
     1
281
     1
  3
TC_OPTIONAL_DATA
360
423
  0
DICTIONARY
  5
425
330
427
100
AcDbDictionary
280
     1
281
     1
  3
TC_OPTIONAL_DATA
360
426
  0
DICTIONARY
  5
428
330
42A
100
AcDbDictionary
280
     1
281
     1
  3
TC_OPTIONAL_DATA
360
429
  0
DICTIONARY
  5
42B
330
42D
100
AcDbDictionary
280
     1
281
     1
  3
TC_OPTIONAL_DATA
360
42C
  0
DICTIONARY
  5
42E
330
430
100
AcDbDictionary
280
     1
281
     1
  3
TC_OPTIONAL_DATA
360
42F
  0
DICTIONARY
  5
431
330
433
100
AcDbDictionary
280
     1
281
     1
  3
TC_OPTIONAL_DATA
360
432
  0
DICTIONARY
  5
434
330
436
100
AcDbDictionary
280
     1
281
     1
  3
TC_OPTIONAL_DATA
360
435
  0
DICTIONARY
  5
437
330
439
100
AcDbDictionary
280
     1
281
     1
  3
TC_OPTIONAL_DATA
360
438
  0
DICTIONARY
  5
43A
330
43C
100
AcDbDictionary
280
     1
281
     1
  3
TC_OPTIONAL_DATA
360
43B
  0
DICTIONARY
  5
43D
330
43F
100
AcDbDictionary
280
     1
281
     1
  3
TC_OPTIONAL_DATA
360
43E
  0
DICTIONARY
  5
440
330
442
100
AcDbDictionary
280
     1
281
     1
  3
TC_OPTIONAL_DATA
360
441
  0
DICTIONARY
  5
443
330
445
100
AcDbDictionary
280
     1
281
     1
  3
TC_OPTIONAL_DATA
360
444
  0
DICTIONARY
  5
446
330
448
100
AcDbDictionary
280
     1
281
     1
  3
TC_OPTIONAL_DATA
360
447
  0
DICTIONARY
  5
449
330
44B
100
AcDbDictionary
280
     1
281
     1
  3
TC_OPTIONAL_DATA
360
44A
  0
DICTIONARY
  5
44C
330
44E
100
AcDbDictionary
280
     1
281
     1
  3
TC_OPTIONAL_DATA
360
44D
  0
DICTIONARY
  5
44F
330
451
100
AcDbDictionary
280
     1
281
     1
  3
TC_OPTIONAL_DATA
360
450
  0
DICTIONARY
  5
452
330
454
100
AcDbDictionary
280
     1
281
     1
  3
TC_OPTIONAL_DATA
360
453
  0
DICTIONARY
  5
455
330
457
100
AcDbDictionary
280
     1
281
     1
  3
TC_OPTIONAL_DATA
360
456
  0
DICTIONARY
  5
458
330
45A
100
AcDbDictionary
280
     1
281
     1
  3
TC_OPTIONAL_DATA
360
459
  0
DICTIONARY
  5
45B
330
45D
100
AcDbDictionary
280
     1
281
     1
  3
TC_OPTIONAL_DATA
360
45C
  0
DICTIONARY
  5
45E
330
460
100
AcDbDictionary
280
     1
281
     1
  3
TC_OPTIONAL_DATA
360
45F
  0
DICTIONARY
  5
461
330
463
100
AcDbDictionary
280
     1
281
     1
  3
TC_OPTIONAL_DATA
360
462
  0
DICTIONARY
  5
464
330
466
100
AcDbDictionary
280
     1
281
     1
  3
TC_OPTIONAL_DATA
360
465
  0
DICTIONARY
  5
467
330
469
100
AcDbDictionary
280
     1
281
     1
  3
TC_OPTIONAL_DATA
360
468
  0
DICTIONARY
  5
46A
330
46C
100
AcDbDictionary
280
     1
281
     1
  3
TC_OPTIONAL_DATA
360
46B
  0
DICTIONARY
  5
46D
330
46F
100
AcDbDictionary
280
     1
281
     1
  3
TC_OPTIONAL_DATA
360
46E
  0
DICTIONARY
  5
470
330
472
100
AcDbDictionary
280
     1
281
     1
  3
TC_OPTIONAL_DATA
360
471
  0
DICTIONARY
  5
473
330
475
100
AcDbDictionary
280
     1
281
     1
  3
TC_OPTIONAL_DATA
360
474
  0
DICTIONARY
  5
476
330
478
100
AcDbDictionary
280
     1
281
     1
  3
TC_OPTIONAL_DATA
360
477
  0
DICTIONARY
  5
479
330
47B
100
AcDbDictionary
280
     1
281
     1
  3
TC_OPTIONAL_DATA
360
47A
  0
DICTIONARY
  5
47C
330
47E
100
AcDbDictionary
280
     1
281
     1
  3
TC_OPTIONAL_DATA
360
47D
  0
DICTIONARY
  5
47F
330
481
100
AcDbDictionary
280
     1
281
     1
  3
TC_OPTIONAL_DATA
360
480
  0
DICTIONARY
  5
482
330
484
100
AcDbDictionary
280
     1
281
     1
  3
TC_OPTIONAL_DATA
360
483
  0
DICTIONARY
  5
485
330
487
100
AcDbDictionary
280
     1
281
     1
  3
TC_OPTIONAL_DATA
360
486
  0
DICTIONARY
  5
488
330
48A
100
AcDbDictionary
280
     1
281
     1
  3
TC_OPTIONAL_DATA
360
489
  0
DICTIONARY
  5
48B
330
48D
100
AcDbDictionary
280
     1
281
     1
  3
TC_OPTIONAL_DATA
360
48C
  0
DICTIONARY
  5
48E
330
490
100
AcDbDictionary
280
     1
281
     1
  3
TC_OPTIONAL_DATA
360
48F
  0
DICTIONARY
  5
491
330
493
100
AcDbDictionary
280
     1
281
     1
  3
TC_OPTIONAL_DATA
360
492
  0
DICTIONARY
  5
494
330
496
100
AcDbDictionary
280
     1
281
     1
  3
TC_OPTIONAL_DATA
360
495
  0
DICTIONARY
  5
497
330
499
100
AcDbDictionary
280
     1
281
     1
  3
TC_OPTIONAL_DATA
360
498
  0
DICTIONARY
  5
49A
330
49C
100
AcDbDictionary
280
     1
281
     1
  3
TC_OPTIONAL_DATA
360
49B
  0
DICTIONARY
  5
49D
330
49F
100
AcDbDictionary
280
     1
281
     1
  3
TC_OPTIONAL_DATA
360
49E
  0
DICTIONARY
  5
4A0
330
4A2
100
AcDbDictionary
280
     1
281
     1
  3
TC_OPTIONAL_DATA
360
4A1
  0
DICTIONARY
  5
4A3
330
4A5
100
AcDbDictionary
280
     1
281
     1
  3
TC_OPTIONAL_DATA
360
4A4
  0
DICTIONARY
  5
4A6
330
4A8
100
AcDbDictionary
280
     1
281
     1
  3
TC_OPTIONAL_DATA
360
4A7
  0
DICTIONARY
  5
4A9
330
4AB
100
AcDbDictionary
280
     1
281
     1
  3
TC_OPTIONAL_DATA
360
4AA
  0
DICTIONARY
  5
4AC
330
4AE
100
AcDbDictionary
280
     1
281
     1
  3
TC_OPTIONAL_DATA
360
4AD
  0
DICTIONARY
  5
4AF
330
4B1
100
AcDbDictionary
280
     1
281
     1
  3
TC_OPTIONAL_DATA
360
4B0
  0
DICTIONARY
  5
4B2
330
4B4
100
AcDbDictionary
280
     1
281
     1
  3
TC_OPTIONAL_DATA
360
4B3
  0
DICTIONARY
  5
4B5
330
4B7
100
AcDbDictionary
280
     1
281
     1
  3
TC_OPTIONAL_DATA
360
4B6
  0
DICTIONARY
  5
4B8
330
4BA
100
AcDbDictionary
280
     1
281
     1
  3
TC_OPTIONAL_DATA
360
4B9
  0
DICTIONARY
  5
4BB
330
4BD
100
AcDbDictionary
280
     1
281
     1
  3
TC_OPTIONAL_DATA
360
4BC
  0
DICTIONARY
  5
4BE
330
4C0
100
AcDbDictionary
280
     1
281
     1
  3
TC_OPTIONAL_DATA
360
4BF
  0
DICTIONARY
  5
4C1
330
4C3
100
AcDbDictionary
280
     1
281
     1
  3
TC_OPTIONAL_DATA
360
4C2
  0
DICTIONARY
  5
4C4
330
4C6
100
AcDbDictionary
280
     1
281
     1
  3
TC_OPTIONAL_DATA
360
4C5
  0
DICTIONARY
  5
4C7
330
4C9
100
AcDbDictionary
280
     1
281
     1
  3
TC_OPTIONAL_DATA
360
4C8
  0
DICTIONARY
  5
4CA
330
4CC
100
AcDbDictionary
280
     1
281
     1
  3
TC_OPTIONAL_DATA
360
4CB
  0
DICTIONARY
  5
4CD
330
4CF
100
AcDbDictionary
280
     1
281
     1
  3
TC_OPTIONAL_DATA
360
4CE
  0
DICTIONARY
  5
4D0
330
4D2
100
AcDbDictionary
280
     1
281
     1
  3
TC_OPTIONAL_DATA
360
4D1
  0
DICTIONARY
  5
4D3
330
4D5
100
AcDbDictionary
280
     1
281
     1
  3
TC_OPTIONAL_DATA
360
4D4
  0
DICTIONARY
  5
4D6
330
4D8
100
AcDbDictionary
280
     1
281
     1
  3
TC_OPTIONAL_DATA
360
4D7
  0
DICTIONARY
  5
4D9
330
4DB
100
AcDbDictionary
280
     1
281
     1
  3
TC_OPTIONAL_DATA
360
4DA
  0
DICTIONARY
  5
4DC
330
4DE
100
AcDbDictionary
280
     1
281
     1
  3
TC_OPTIONAL_DATA
360
4DD
  0
DICTIONARY
  5
4DF
330
4E1
100
AcDbDictionary
280
     1
281
     1
  3
TC_OPTIONAL_DATA
360
4E0
  0
DICTIONARY
  5
4E2
330
4E4
100
AcDbDictionary
280
     1
281
     1
  3
TC_OPTIONAL_DATA
360
4E3
  0
DICTIONARY
  5
4E5
330
4E7
100
AcDbDictionary
280
     1
281
     1
  3
TC_OPTIONAL_DATA
360
4E6
  0
DICTIONARY
  5
4E8
330
4EA
100
AcDbDictionary
280
     1
281
     1
  3
TC_OPTIONAL_DATA
360
4E9
  0
DICTIONARY
  5
4EB
330
4ED
100
AcDbDictionary
280
     1
281
     1
  3
TC_OPTIONAL_DATA
360
4EC
  0
DICTIONARY
  5
4EE
330
4F0
100
AcDbDictionary
280
     1
281
     1
  3
TC_OPTIONAL_DATA
360
4EF
  0
DICTIONARY
  5
4F1
330
4F3
100
AcDbDictionary
280
     1
281
     1
  3
TC_OPTIONAL_DATA
360
4F2
  0
DICTIONARY
  5
4F4
330
4F6
100
AcDbDictionary
280
     1
281
     1
  3
TC_OPTIONAL_DATA
360
4F5
  0
DICTIONARY
  5
4F7
330
4F9
100
AcDbDictionary
280
     1
281
     1
  3
TC_OPTIONAL_DATA
360
4F8
  0
DICTIONARY
  5
4FA
330
4FC
100
AcDbDictionary
280
     1
281
     1
  3
TC_OPTIONAL_DATA
360
4FB
  0
DICTIONARY
  5
4FD
330
4FF
100
AcDbDictionary
280
     1
281
     1
  3
TC_OPTIONAL_DATA
360
4FE
  0
DICTIONARY
  5
500
330
502
100
AcDbDictionary
280
     1
281
     1
  3
TC_OPTIONAL_DATA
360
501
  0
DICTIONARY
  5
503
330
505
100
AcDbDictionary
280
     1
281
     1
  3
TC_OPTIONAL_DATA
360
504
  0
DICTIONARY
  5
506
330
508
100
AcDbDictionary
280
     1
281
     1
  3
TC_OPTIONAL_DATA
360
507
  0
DICTIONARY
  5
509
330
50B
100
AcDbDictionary
280
     1
281
     1
  3
TC_OPTIONAL_DATA
360
50A
  0
DICTIONARY
  5
50C
330
50E
100
AcDbDictionary
280
     1
281
     1
  3
TC_OPTIONAL_DATA
360
50D
  0
DICTIONARY
  5
50F
330
511
100
AcDbDictionary
280
     1
281
     1
  3
TC_OPTIONAL_DATA
360
510
  0
DICTIONARY
  5
512
330
514
100
AcDbDictionary
280
     1
281
     1
  3
TC_OPTIONAL_DATA
360
513
  0
DICTIONARY
  5
515
330
517
100
AcDbDictionary
280
     1
281
     1
  3
TC_OPTIONAL_DATA
360
516
  0
DICTIONARY
  5
518
330
51A
100
AcDbDictionary
280
     1
281
     1
  3
TC_OPTIONAL_DATA
360
519
  0
DICTIONARY
  5
51B
330
51D
100
AcDbDictionary
280
     1
281
     1
  3
TC_OPTIONAL_DATA
360
51C
  0
DICTIONARY
  5
51E
330
520
100
AcDbDictionary
280
     1
281
     1
  3
TC_OPTIONAL_DATA
360
51F
  0
DICTIONARY
  5
521
330
523
100
AcDbDictionary
280
     1
281
     1
  3
TC_OPTIONAL_DATA
360
522
  0
DICTIONARY
  5
524
330
526
100
AcDbDictionary
280
     1
281
     1
  3
TC_OPTIONAL_DATA
360
525
  0
DICTIONARY
  5
527
330
529
100
AcDbDictionary
280
     1
281
     1
  3
TC_OPTIONAL_DATA
360
528
  0
DICTIONARY
  5
52B
330
52D
100
AcDbDictionary
280
     1
281
     1
  3
TC_OPTIONAL_DATA
360
52C
  0
DICTIONARY
  5
52E
330
530
100
AcDbDictionary
280
     1
281
     1
  3
TC_OPTIONAL_DATA
360
52F
  0
DICTIONARY
  5
531
330
533
100
AcDbDictionary
280
     1
281
     1
  3
TC_OPTIONAL_DATA
360
532
  0
DICTIONARY
  5
534
330
536
100
AcDbDictionary
280
     1
281
     1
  3
TC_OPTIONAL_DATA
360
535
  0
DICTIONARY
  5
537
330
539
100
AcDbDictionary
280
     1
281
     1
  3
TC_OPTIONAL_DATA
360
538
  0
DICTIONARY
  5
53A
330
53C
100
AcDbDictionary
280
     1
281
     1
  3
TC_OPTIONAL_DATA
360
53B
  0
DICTIONARY
  5
53D
330
53F
100
AcDbDictionary
280
     1
281
     1
  3
TC_OPTIONAL_DATA
360
53E
  0
DICTIONARY
  5
540
330
542
100
AcDbDictionary
280
     1
281
     1
  3
TC_OPTIONAL_DATA
360
541
  0
DICTIONARY
  5
543
330
545
100
AcDbDictionary
280
     1
281
     1
  3
TC_OPTIONAL_DATA
360
544
  0
DICTIONARY
  5
546
330
548
100
AcDbDictionary
280
     1
281
     1
  3
TC_OPTIONAL_DATA
360
547
  0
DICTIONARY
  5
549
330
54B
100
AcDbDictionary
280
     1
281
     1
  3
TC_OPTIONAL_DATA
360
54A
  0
DICTIONARY
  5
54C
330
54E
100
AcDbDictionary
280
     1
281
     1
  3
TC_OPTIONAL_DATA
360
54D
  0
DICTIONARY
  5
54F
330
551
100
AcDbDictionary
280
     1
281
     1
  3
TC_OPTIONAL_DATA
360
550
  0
DICTIONARY
  5
552
330
554
100
AcDbDictionary
280
     1
281
     1
  3
TC_OPTIONAL_DATA
360
553
  0
DICTIONARY
  5
555
330
557
100
AcDbDictionary
280
     1
281
     1
  3
TC_OPTIONAL_DATA
360
556
  0
DICTIONARY
  5
558
330
55A
100
AcDbDictionary
280
     1
281
     1
  3
TC_OPTIONAL_DATA
360
559
  0
DICTIONARY
  5
55B
330
55D
100
AcDbDictionary
280
     1
281
     1
  3
TC_OPTIONAL_DATA
360
55C
  0
DICTIONARY
  5
55E
330
560
100
AcDbDictionary
280
     1
281
     1
  3
TC_OPTIONAL_DATA
360
55F
  0
DICTIONARY
  5
561
330
563
100
AcDbDictionary
280
     1
281
     1
  3
TC_OPTIONAL_DATA
360
562
  0
DICTIONARY
  5
564
330
566
100
AcDbDictionary
280
     1
281
     1
  3
TC_OPTIONAL_DATA
360
565
  0
DICTIONARY
  5
567
330
569
100
AcDbDictionary
280
     1
281
     1
  3
TC_OPTIONAL_DATA
360
568
  0
DICTIONARY
  5
56A
330
56C
100
AcDbDictionary
280
     1
281
     1
  3
TC_OPTIONAL_DATA
360
56B
  0
DICTIONARY
  5
56D
330
56F
100
AcDbDictionary
280
     1
281
     1
  3
TC_OPTIONAL_DATA
360
56E
  0
DICTIONARY
  5
570
330
572
100
AcDbDictionary
280
     1
281
     1
  3
TC_OPTIONAL_DATA
360
571
  0
DICTIONARY
  5
573
330
575
100
AcDbDictionary
280
     1
281
     1
  3
TC_OPTIONAL_DATA
360
574
  0
DICTIONARY
  5
576
330
578
100
AcDbDictionary
280
     1
281
     1
  3
TC_OPTIONAL_DATA
360
577
  0
DICTIONARY
  5
579
330
57B
100
AcDbDictionary
280
     1
281
     1
  3
TC_OPTIONAL_DATA
360
57A
  0
DICTIONARY
  5
57C
330
57E
100
AcDbDictionary
280
     1
281
     1
  3
TC_OPTIONAL_DATA
360
57D
  0
DICTIONARY
  5
57F
330
581
100
AcDbDictionary
280
     1
281
     1
  3
TC_OPTIONAL_DATA
360
580
  0
DICTIONARY
  5
582
330
584
100
AcDbDictionary
280
     1
281
     1
  3
TC_OPTIONAL_DATA
360
583
  0
DICTIONARY
  5
585
330
587
100
AcDbDictionary
280
     1
281
     1
  3
TC_OPTIONAL_DATA
360
586
  0
DICTIONARY
  5
588
330
58A
100
AcDbDictionary
280
     1
281
     1
  3
TC_OPTIONAL_DATA
360
589
  0
DICTIONARY
  5
58B
330
58D
100
AcDbDictionary
280
     1
281
     1
  3
TC_OPTIONAL_DATA
360
58C
  0
DICTIONARY
  5
58E
330
590
100
AcDbDictionary
280
     1
281
     1
  3
TC_OPTIONAL_DATA
360
58F
  0
DICTIONARY
  5
591
330
593
100
AcDbDictionary
280
     1
281
     1
  3
TC_OPTIONAL_DATA
360
592
  0
DICTIONARY
  5
594
330
596
100
AcDbDictionary
280
     1
281
     1
  3
TC_OPTIONAL_DATA
360
595
  0
DICTIONARY
  5
597
330
599
100
AcDbDictionary
280
     1
281
     1
  3
TC_OPTIONAL_DATA
360
598
  0
DICTIONARY
  5
59A
330
59C
100
AcDbDictionary
280
     1
281
     1
  3
TC_OPTIONAL_DATA
360
59B
  0
DICTIONARY
  5
59D
330
59F
100
AcDbDictionary
280
     1
281
     1
  3
TC_OPTIONAL_DATA
360
59E
  0
DICTIONARY
  5
5A0
330
5A2
100
AcDbDictionary
280
     1
281
     1
  3
TC_OPTIONAL_DATA
360
5A1
  0
DICTIONARY
  5
5A3
330
5A5
100
AcDbDictionary
280
     1
281
     1
  3
TC_OPTIONAL_DATA
360
5A4
  0
DICTIONARY
  5
5A6
330
5A8
100
AcDbDictionary
280
     1
281
     1
  3
TC_OPTIONAL_DATA
360
5A7
  0
DICTIONARY
  5
5A9
330
5AB
100
AcDbDictionary
280
     1
281
     1
  3
TC_OPTIONAL_DATA
360
5AA
  0
DICTIONARY
  5
5AC
330
5AE
100
AcDbDictionary
280
     1
281
     1
  3
TC_OPTIONAL_DATA
360
5AD
  0
DICTIONARY
  5
5AF
330
5B1
100
AcDbDictionary
280
     1
281
     1
  3
TC_OPTIONAL_DATA
360
5B0
  0
DICTIONARY
  5
5B2
330
5B4
100
AcDbDictionary
280
     1
281
     1
  3
TC_OPTIONAL_DATA
360
5B3
  0
DICTIONARY
  5
5B5
330
5B7
100
AcDbDictionary
280
     1
281
     1
  3
TC_OPTIONAL_DATA
360
5B6
  0
DICTIONARY
  5
5B8
330
5BA
100
AcDbDictionary
280
     1
281
     1
  3
TC_OPTIONAL_DATA
360
5B9
  0
DICTIONARY
  5
5BB
330
5BD
100
AcDbDictionary
280
     1
281
     1
  3
TC_OPTIONAL_DATA
360
5BC
  0
DICTIONARY
  5
5BE
330
5C0
100
AcDbDictionary
280
     1
281
     1
  3
TC_OPTIONAL_DATA
360
5BF
  0
DICTIONARY
  5
5C1
330
5C3
100
AcDbDictionary
280
     1
281
     1
  3
TC_OPTIONAL_DATA
360
5C2
  0
DICTIONARY
  5
5C4
330
5C6
100
AcDbDictionary
280
     1
281
     1
  3
TC_OPTIONAL_DATA
360
5C5
  0
DICTIONARY
  5
5C7
330
5C9
100
AcDbDictionary
280
     1
281
     1
  3
TC_OPTIONAL_DATA
360
5C8
  0
DICTIONARY
  5
5CA
330
5CC
100
AcDbDictionary
280
     1
281
     1
  3
TC_OPTIONAL_DATA
360
5CB
  0
DICTIONARY
  5
5CD
330
5CF
100
AcDbDictionary
280
     1
281
     1
  3
TC_OPTIONAL_DATA
360
5CE
  0
DICTIONARY
  5
5D0
330
5D2
100
AcDbDictionary
280
     1
281
     1
  3
TC_OPTIONAL_DATA
360
5D1
  0
DICTIONARY
  5
5D3
330
5D5
100
AcDbDictionary
280
     1
281
     1
  3
TC_OPTIONAL_DATA
360
5D4
  0
DICTIONARY
  5
5D6
330
5D8
100
AcDbDictionary
280
     1
281
     1
  3
TC_OPTIONAL_DATA
360
5D7
  0
DICTIONARY
  5
5D9
330
5DB
100
AcDbDictionary
280
     1
281
     1
  3
TC_OPTIONAL_DATA
360
5DA
  0
DICTIONARY
  5
5DC
330
5DE
100
AcDbDictionary
280
     1
281
     1
  3
TC_OPTIONAL_DATA
360
5DD
  0
DICTIONARY
  5
5DF
330
5E1
100
AcDbDictionary
280
     1
281
     1
  3
TC_OPTIONAL_DATA
360
5E0
  0
DICTIONARY
  5
5E2
330
5E4
100
AcDbDictionary
280
     1
281
     1
  3
TC_OPTIONAL_DATA
360
5E3
  0
DICTIONARY
  5
5E5
330
5E7
100
AcDbDictionary
280
     1
281
     1
  3
TC_OPTIONAL_DATA
360
5E6
  0
DICTIONARY
  5
5E8
330
5EA
100
AcDbDictionary
280
     1
281
     1
  3
TC_OPTIONAL_DATA
360
5E9
  0
DICTIONARY
  5
5EB
330
5ED
100
AcDbDictionary
280
     1
281
     1
  3
TC_OPTIONAL_DATA
360
5EC
  0
DICTIONARY
  5
5EE
330
5F0
100
AcDbDictionary
280
     1
281
     1
  3
TC_OPTIONAL_DATA
360
5EF
  0
DICTIONARY
  5
5F1
330
5F3
100
AcDbDictionary
280
     1
281
     1
  3
TC_OPTIONAL_DATA
360
5F2
  0
DICTIONARY
  5
5F4
330
5F6
100
AcDbDictionary
280
     1
281
     1
  3
TC_OPTIONAL_DATA
360
5F5
  0
DICTIONARY
  5
5F7
330
5F9
100
AcDbDictionary
280
     1
281
     1
  3
TC_OPTIONAL_DATA
360
5F8
  0
DICTIONARY
  5
5FA
330
5FC
100
AcDbDictionary
280
     1
281
     1
  3
TC_OPTIONAL_DATA
360
5FB
  0
DICTIONARY
  5
5FD
330
5FF
100
AcDbDictionary
280
     1
281
     1
  3
TC_OPTIONAL_DATA
360
5FE
  0
DICTIONARY
  5
600
330
602
100
AcDbDictionary
280
     1
281
     1
  3
TC_OPTIONAL_DATA
360
601
  0
DICTIONARY
  5
603
330
605
100
AcDbDictionary
280
     1
281
     1
  3
TC_OPTIONAL_DATA
360
604
  0
DICTIONARY
  5
606
330
608
100
AcDbDictionary
280
     1
281
     1
  3
TC_OPTIONAL_DATA
360
607
  0
DICTIONARY
  5
609
330
60B
100
AcDbDictionary
280
     1
281
     1
  3
TC_OPTIONAL_DATA
360
60A
  0
DICTIONARY
  5
60C
330
60E
100
AcDbDictionary
280
     1
281
     1
  3
TC_OPTIONAL_DATA
360
60D
  0
DICTIONARY
  5
60F
330
611
100
AcDbDictionary
280
     1
281
     1
  3
TC_OPTIONAL_DATA
360
610
  0
DICTIONARY
  5
612
330
614
100
AcDbDictionary
280
     1
281
     1
  3
TC_OPTIONAL_DATA
360
613
  0
DICTIONARY
  5
615
330
617
100
AcDbDictionary
280
     1
281
     1
  3
TC_OPTIONAL_DATA
360
616
  0
DICTIONARY
  5
D
102
{ACAD_REACTORS
330
C
102
}
330
C
100
AcDbDictionary
281
     1
  0
DICTIONARY
  5
1A
102
{ACAD_REACTORS
330
C
102
}
330
C
100
AcDbDictionary
281
     1
  3
Layout1
350
1E
  3
Layout2
350
3C
  3
Model
350
22
  0
DICTIONARY
  5
17
102
{ACAD_REACTORS
330
C
102
}
330
C
100
AcDbDictionary
281
     1
  3
Standard
350
18
  0
DICTIONARY
  5
19
102
{ACAD_REACTORS
330
C
102
}
330
C
100
AcDbDictionary
281
     1
  0
ACDBDICTIONARYWDFLT
  5
E
102
{ACAD_REACTORS
330
C
102
}
330
C
100
AcDbDictionary
281
     1
  3
Normal
350
F
100
AcDbDictionaryWithDefault
340
F
  0
DICTIONARY
  5
61B
102
{ACAD_REACTORS
330
C
102
}
330
C
100
AcDbDictionary
281
     1
  0
DICTIONARY
  5
2A
102
{ACAD_REACTORS
330
C
102
}
330
C
100
AcDbDictionary
281
     1
  3
2dWireframe
350
2F
  3
3D Hidden
350
31
  3
3dWireframe
350
30
  3
Basic
350
32
  3
Brighten
350
36
  3
ColorChange
350
3A
  3
Conceptual
350
34
  3
Dim
350
35
  3
Facepattern
350
39
  3
Flat
350
2B
  3
FlatWithEdges
350
2C
  3
Gouraud
350
2D
  3
GouraudWithEdges
350
2E
  3
Linepattern
350
38
  3
Realistic
350
33
  3
Thicken
350
37
  0
TCOPTIONALDATA
  5
5D
102
{ACAD_REACTORS
330
5C
102
}
330
5C
100
TcOptionalData
 70
     1
 70
    32
 40
-3.0
  0
TCOPTIONALDATA
  5
60
102
{ACAD_REACTORS
330
5F
102
}
330
5F
100
TcOptionalData
 70
     1
 70
    32
 40
-3.0
  0
TCOPTIONALDATA
  5
63
102
{ACAD_REACTORS
330
62
102
}
330
62
100
TcOptionalData
 70
     1
 70
    32
 40
-3.0
  0
TCOPTIONALDATA
  5
66
102
{ACAD_REACTORS
330
65
102
}
330
65
100
TcOptionalData
 70
     1
 70
    32
 40
-3.0
  0
TCOPTIONALDATA
  5
69
102
{ACAD_REACTORS
330
68
102
}
330
68
100
TcOptionalData
 70
     1
 70
    32
 40
-3.0
  0
TCOPTIONALDATA
  5
6C
102
{ACAD_REACTORS
330
6B
102
}
330
6B
100
TcOptionalData
 70
     1
 70
    32
 40
-3.0
  0
TCOPTIONALDATA
  5
6F
102
{ACAD_REACTORS
330
6E
102
}
330
6E
100
TcOptionalData
 70
     1
 70
    32
 40
-3.0
  0
TCOPTIONALDATA
  5
72
102
{ACAD_REACTORS
330
71
102
}
330
71
100
TcOptionalData
 70
     1
 70
    32
 40
-3.0
  0
TCOPTIONALDATA
  5
75
102
{ACAD_REACTORS
330
74
102
}
330
74
100
TcOptionalData
 70
     1
 70
    32
 40
-3.0
  0
TCOPTIONALDATA
  5
78
102
{ACAD_REACTORS
330
77
102
}
330
77
100
TcOptionalData
 70
     1
 70
    32
 40
-3.0
  0
TCOPTIONALDATA
  5
7B
102
{ACAD_REACTORS
330
7A
102
}
330
7A
100
TcOptionalData
 70
     1
 70
    32
 40
-3.0
  0
TCOPTIONALDATA
  5
7E
102
{ACAD_REACTORS
330
7D
102
}
330
7D
100
TcOptionalData
 70
     1
 70
    32
 40
-3.0
  0
TCOPTIONALDATA
  5
81
102
{ACAD_REACTORS
330
80
102
}
330
80
100
TcOptionalData
 70
     1
 70
    32
 40
-3.0
  0
TCOPTIONALDATA
  5
84
102
{ACAD_REACTORS
330
83
102
}
330
83
100
TcOptionalData
 70
     1
 70
    32
 40
-3.0
  0
TCOPTIONALDATA
  5
87
102
{ACAD_REACTORS
330
86
102
}
330
86
100
TcOptionalData
 70
     1
 70
    32
 40
-3.0
  0
TCOPTIONALDATA
  5
8A
102
{ACAD_REACTORS
330
89
102
}
330
89
100
TcOptionalData
 70
     1
 70
    32
 40
-3.0
  0
TCOPTIONALDATA
  5
8D
102
{ACAD_REACTORS
330
8C
102
}
330
8C
100
TcOptionalData
 70
     1
 70
    32
 40
-3.0
  0
TCOPTIONALDATA
  5
90
102
{ACAD_REACTORS
330
8F
102
}
330
8F
100
TcOptionalData
 70
     1
 70
    32
 40
-3.0
  0
TCOPTIONALDATA
  5
93
102
{ACAD_REACTORS
330
92
102
}
330
92
100
TcOptionalData
 70
     1
 70
    32
 40
-3.0
  0
TCOPTIONALDATA
  5
96
102
{ACAD_REACTORS
330
95
102
}
330
95
100
TcOptionalData
 70
     1
 70
    32
 40
-3.0
  0
TCOPTIONALDATA
  5
99
102
{ACAD_REACTORS
330
98
102
}
330
98
100
TcOptionalData
 70
     1
 70
    32
 40
-3.0
  0
TCOPTIONALDATA
  5
9C
102
{ACAD_REACTORS
330
9B
102
}
330
9B
100
TcOptionalData
 70
     1
 70
    32
 40
-3.0
  0
TCOPTIONALDATA
  5
9F
102
{ACAD_REACTORS
330
9E
102
}
330
9E
100
TcOptionalData
 70
     1
 70
    32
 40
-3.0
  0
TCOPTIONALDATA
  5
A2
102
{ACAD_REACTORS
330
A1
102
}
330
A1
100
TcOptionalData
 70
     1
 70
    32
 40
-3.0
  0
TCOPTIONALDATA
  5
A5
102
{ACAD_REACTORS
330
A4
102
}
330
A4
100
TcOptionalData
 70
     1
 70
    32
 40
-3.0
  0
TCOPTIONALDATA
  5
A8
102
{ACAD_REACTORS
330
A7
102
}
330
A7
100
TcOptionalData
 70
     1
 70
    32
 40
-3.0
  0
TCOPTIONALDATA
  5
AB
102
{ACAD_REACTORS
330
AA
102
}
330
AA
100
TcOptionalData
 70
     1
 70
    32
 40
-3.0
  0
TCOPTIONALDATA
  5
AE
102
{ACAD_REACTORS
330
AD
102
}
330
AD
100
TcOptionalData
 70
     1
 70
    32
 40
-3.0
  0
TCOPTIONALDATA
  5
B1
102
{ACAD_REACTORS
330
B0
102
}
330
B0
100
TcOptionalData
 70
     1
 70
    32
 40
-3.0
  0
TCOPTIONALDATA
  5
B4
102
{ACAD_REACTORS
330
B3
102
}
330
B3
100
TcOptionalData
 70
     1
 70
    32
 40
-3.0
  0
TCOPTIONALDATA
  5
B7
102
{ACAD_REACTORS
330
B6
102
}
330
B6
100
TcOptionalData
 70
     1
 70
    32
 40
-3.0
  0
TCOPTIONALDATA
  5
BA
102
{ACAD_REACTORS
330
B9
102
}
330
B9
100
TcOptionalData
 70
     1
 70
    32
 40
-3.0
  0
TCOPTIONALDATA
  5
BD
102
{ACAD_REACTORS
330
BC
102
}
330
BC
100
TcOptionalData
 70
     1
 70
    32
 40
-3.0
  0
TCOPTIONALDATA
  5
C0
102
{ACAD_REACTORS
330
BF
102
}
330
BF
100
TcOptionalData
 70
     1
 70
    32
 40
-3.0
  0
TCOPTIONALDATA
  5
C3
102
{ACAD_REACTORS
330
C2
102
}
330
C2
100
TcOptionalData
 70
     1
 70
    32
 40
-3.0
  0
TCOPTIONALDATA
  5
C6
102
{ACAD_REACTORS
330
C5
102
}
330
C5
100
TcOptionalData
 70
     1
 70
    32
 40
-3.0
  0
TCOPTIONALDATA
  5
C9
102
{ACAD_REACTORS
330
C8
102
}
330
C8
100
TcOptionalData
 70
     1
 70
    32
 40
-3.0
  0
TCOPTIONALDATA
  5
CC
102
{ACAD_REACTORS
330
CB
102
}
330
CB
100
TcOptionalData
 70
     1
 70
    32
 40
-3.0
  0
TCOPTIONALDATA
  5
CF
102
{ACAD_REACTORS
330
CE
102
}
330
CE
100
TcOptionalData
 70
     1
 70
    32
 40
-3.0
  0
TCOPTIONALDATA
  5
D2
102
{ACAD_REACTORS
330
D1
102
}
330
D1
100
TcOptionalData
 70
     1
 70
    32
 40
-3.0
  0
TCOPTIONALDATA
  5
D5
102
{ACAD_REACTORS
330
D4
102
}
330
D4
100
TcOptionalData
 70
     1
 70
    32
 40
-3.0
  0
TCOPTIONALDATA
  5
D8
102
{ACAD_REACTORS
330
D7
102
}
330
D7
100
TcOptionalData
 70
     1
 70
    32
 40
-3.0
  0
TCOPTIONALDATA
  5
DB
102
{ACAD_REACTORS
330
DA
102
}
330
DA
100
TcOptionalData
 70
     1
 70
    32
 40
-3.0
  0
TCOPTIONALDATA
  5
DE
102
{ACAD_REACTORS
330
DD
102
}
330
DD
100
TcOptionalData
 70
     1
 70
    32
 40
-3.0
  0
TCOPTIONALDATA
  5
E1
102
{ACAD_REACTORS
330
E0
102
}
330
E0
100
TcOptionalData
 70
     1
 70
    32
 40
-3.0
  0
TCOPTIONALDATA
  5
E4
102
{ACAD_REACTORS
330
E3
102
}
330
E3
100
TcOptionalData
 70
     1
 70
    32
 40
-3.0
  0
TCOPTIONALDATA
  5
E7
102
{ACAD_REACTORS
330
E6
102
}
330
E6
100
TcOptionalData
 70
     1
 70
    32
 40
-3.0
  0
TCOPTIONALDATA
  5
EA
102
{ACAD_REACTORS
330
E9
102
}
330
E9
100
TcOptionalData
 70
     1
 70
    32
 40
-3.0
  0
TCOPTIONALDATA
  5
ED
102
{ACAD_REACTORS
330
EC
102
}
330
EC
100
TcOptionalData
 70
     1
 70
    32
 40
-3.0
  0
TCOPTIONALDATA
  5
F0
102
{ACAD_REACTORS
330
EF
102
}
330
EF
100
TcOptionalData
 70
     1
 70
    32
 40
-3.0
  0
TCOPTIONALDATA
  5
F3
102
{ACAD_REACTORS
330
F2
102
}
330
F2
100
TcOptionalData
 70
     1
 70
    32
 40
-3.0
  0
TCOPTIONALDATA
  5
F6
102
{ACAD_REACTORS
330
F5
102
}
330
F5
100
TcOptionalData
 70
     1
 70
    32
 40
-3.0
  0
TCOPTIONALDATA
  5
F9
102
{ACAD_REACTORS
330
F8
102
}
330
F8
100
TcOptionalData
 70
     1
 70
    32
 40
-3.0
  0
TCOPTIONALDATA
  5
FC
102
{ACAD_REACTORS
330
FB
102
}
330
FB
100
TcOptionalData
 70
     1
 70
    32
 40
-3.0
  0
TCOPTIONALDATA
  5
FF
102
{ACAD_REACTORS
330
FE
102
}
330
FE
100
TcOptionalData
 70
     1
 70
    32
 40
-3.0
  0
TCOPTIONALDATA
  5
102
102
{ACAD_REACTORS
330
101
102
}
330
101
100
TcOptionalData
 70
     1
 70
    32
 40
-3.0
  0
TCOPTIONALDATA
  5
105
102
{ACAD_REACTORS
330
104
102
}
330
104
100
TcOptionalData
 70
     1
 70
    32
 40
-3.0
  0
TCOPTIONALDATA
  5
108
102
{ACAD_REACTORS
330
107
102
}
330
107
100
TcOptionalData
 70
     1
 70
    32
 40
-3.0
  0
TCOPTIONALDATA
  5
10B
102
{ACAD_REACTORS
330
10A
102
}
330
10A
100
TcOptionalData
 70
     1
 70
    32
 40
-3.0
  0
TCOPTIONALDATA
  5
10E
102
{ACAD_REACTORS
330
10D
102
}
330
10D
100
TcOptionalData
 70
     1
 70
    32
 40
-3.0
  0
TCOPTIONALDATA
  5
111
102
{ACAD_REACTORS
330
110
102
}
330
110
100
TcOptionalData
 70
     1
 70
    32
 40
-3.0
  0
TCOPTIONALDATA
  5
114
102
{ACAD_REACTORS
330
113
102
}
330
113
100
TcOptionalData
 70
     1
 70
    32
 40
-3.0
  0
TCOPTIONALDATA
  5
117
102
{ACAD_REACTORS
330
116
102
}
330
116
100
TcOptionalData
 70
     1
 70
    32
 40
-3.0
  0
TCOPTIONALDATA
  5
11A
102
{ACAD_REACTORS
330
119
102
}
330
119
100
TcOptionalData
 70
     1
 70
    32
 40
-3.0
  0
TCOPTIONALDATA
  5
11D
102
{ACAD_REACTORS
330
11C
102
}
330
11C
100
TcOptionalData
 70
     1
 70
    32
 40
-3.0
  0
TCOPTIONALDATA
  5
120
102
{ACAD_REACTORS
330
11F
102
}
330
11F
100
TcOptionalData
 70
     1
 70
    32
 40
-3.0
  0
TCOPTIONALDATA
  5
123
102
{ACAD_REACTORS
330
122
102
}
330
122
100
TcOptionalData
 70
     1
 70
    32
 40
-3.0
  0
TCOPTIONALDATA
  5
126
102
{ACAD_REACTORS
330
125
102
}
330
125
100
TcOptionalData
 70
     1
 70
    32
 40
-3.0
  0
TCOPTIONALDATA
  5
129
102
{ACAD_REACTORS
330
128
102
}
330
128
100
TcOptionalData
 70
     1
 70
    32
 40
-3.0
  0
TCOPTIONALDATA
  5
12C
102
{ACAD_REACTORS
330
12B
102
}
330
12B
100
TcOptionalData
 70
     1
 70
    32
 40
-3.0
  0
TCOPTIONALDATA
  5
12F
102
{ACAD_REACTORS
330
12E
102
}
330
12E
100
TcOptionalData
 70
     1
 70
    32
 40
-3.0
  0
TCOPTIONALDATA
  5
132
102
{ACAD_REACTORS
330
131
102
}
330
131
100
TcOptionalData
 70
     1
 70
    32
 40
-3.0
  0
TCOPTIONALDATA
  5
135
102
{ACAD_REACTORS
330
134
102
}
330
134
100
TcOptionalData
 70
     1
 70
    32
 40
-3.0
  0
TCOPTIONALDATA
  5
138
102
{ACAD_REACTORS
330
137
102
}
330
137
100
TcOptionalData
 70
     1
 70
    32
 40
-3.0
  0
TCOPTIONALDATA
  5
13B
102
{ACAD_REACTORS
330
13A
102
}
330
13A
100
TcOptionalData
 70
     1
 70
    32
 40
-3.0
  0
TCOPTIONALDATA
  5
13E
102
{ACAD_REACTORS
330
13D
102
}
330
13D
100
TcOptionalData
 70
     1
 70
    32
 40
-3.0
  0
TCOPTIONALDATA
  5
141
102
{ACAD_REACTORS
330
140
102
}
330
140
100
TcOptionalData
 70
     1
 70
    32
 40
-3.0
  0
TCOPTIONALDATA
  5
144
102
{ACAD_REACTORS
330
143
102
}
330
143
100
TcOptionalData
 70
     1
 70
    32
 40
-3.0
  0
TCOPTIONALDATA
  5
147
102
{ACAD_REACTORS
330
146
102
}
330
146
100
TcOptionalData
 70
     1
 70
    32
 40
-3.0
  0
TCOPTIONALDATA
  5
14A
102
{ACAD_REACTORS
330
149
102
}
330
149
100
TcOptionalData
 70
     1
 70
    32
 40
-3.0
  0
TCOPTIONALDATA
  5
14D
102
{ACAD_REACTORS
330
14C
102
}
330
14C
100
TcOptionalData
 70
     1
 70
    32
 40
-3.0
  0
TCOPTIONALDATA
  5
150
102
{ACAD_REACTORS
330
14F
102
}
330
14F
100
TcOptionalData
 70
     1
 70
    32
 40
-3.0
  0
TCOPTIONALDATA
  5
153
102
{ACAD_REACTORS
330
152
102
}
330
152
100
TcOptionalData
 70
     1
 70
    32
 40
-3.0
  0
TCOPTIONALDATA
  5
156
102
{ACAD_REACTORS
330
155
102
}
330
155
100
TcOptionalData
 70
     1
 70
    32
 40
-3.0
  0
TCOPTIONALDATA
  5
159
102
{ACAD_REACTORS
330
158
102
}
330
158
100
TcOptionalData
 70
     1
 70
    32
 40
-3.0
  0
TCOPTIONALDATA
  5
15C
102
{ACAD_REACTORS
330
15B
102
}
330
15B
100
TcOptionalData
 70
     1
 70
    32
 40
-3.0
  0
TCOPTIONALDATA
  5
15F
102
{ACAD_REACTORS
330
15E
102
}
330
15E
100
TcOptionalData
 70
     1
 70
    32
 40
-3.0
  0
TCOPTIONALDATA
  5
162
102
{ACAD_REACTORS
330
161
102
}
330
161
100
TcOptionalData
 70
     1
 70
    32
 40
-3.0
  0
TCOPTIONALDATA
  5
165
102
{ACAD_REACTORS
330
164
102
}
330
164
100
TcOptionalData
 70
     1
 70
    32
 40
-3.0
  0
TCOPTIONALDATA
  5
168
102
{ACAD_REACTORS
330
167
102
}
330
167
100
TcOptionalData
 70
     1
 70
    32
 40
-3.0
  0
TCOPTIONALDATA
  5
16B
102
{ACAD_REACTORS
330
16A
102
}
330
16A
100
TcOptionalData
 70
     1
 70
    32
 40
-3.0
  0
TCOPTIONALDATA
  5
16E
102
{ACAD_REACTORS
330
16D
102
}
330
16D
100
TcOptionalData
 70
     1
 70
    32
 40
-3.0
  0
TCOPTIONALDATA
  5
171
102
{ACAD_REACTORS
330
170
102
}
330
170
100
TcOptionalData
 70
     1
 70
    32
 40
-3.0
  0
TCOPTIONALDATA
  5
174
102
{ACAD_REACTORS
330
173
102
}
330
173
100
TcOptionalData
 70
     1
 70
    32
 40
-3.0
  0
TCOPTIONALDATA
  5
177
102
{ACAD_REACTORS
330
176
102
}
330
176
100
TcOptionalData
 70
     1
 70
    32
 40
-3.0
  0
TCOPTIONALDATA
  5
17A
102
{ACAD_REACTORS
330
179
102
}
330
179
100
TcOptionalData
 70
     1
 70
    32
 40
-3.0
  0
TCOPTIONALDATA
  5
17D
102
{ACAD_REACTORS
330
17C
102
}
330
17C
100
TcOptionalData
 70
     1
 70
    32
 40
-3.0
  0
TCOPTIONALDATA
  5
180
102
{ACAD_REACTORS
330
17F
102
}
330
17F
100
TcOptionalData
 70
     1
 70
    32
 40
-3.0
  0
TCOPTIONALDATA
  5
183
102
{ACAD_REACTORS
330
182
102
}
330
182
100
TcOptionalData
 70
     1
 70
    32
 40
-3.0
  0
TCOPTIONALDATA
  5
186
102
{ACAD_REACTORS
330
185
102
}
330
185
100
TcOptionalData
 70
     1
 70
    32
 40
-3.0
  0
TCOPTIONALDATA
  5
189
102
{ACAD_REACTORS
330
188
102
}
330
188
100
TcOptionalData
 70
     1
 70
    32
 40
-3.0
  0
TCOPTIONALDATA
  5
18C
102
{ACAD_REACTORS
330
18B
102
}
330
18B
100
TcOptionalData
 70
     1
 70
    32
 40
-3.0
  0
TCOPTIONALDATA
  5
18F
102
{ACAD_REACTORS
330
18E
102
}
330
18E
100
TcOptionalData
 70
     1
 70
    32
 40
-3.0
  0
TCOPTIONALDATA
  5
192
102
{ACAD_REACTORS
330
191
102
}
330
191
100
TcOptionalData
 70
     1
 70
    32
 40
-3.0
  0
TCOPTIONALDATA
  5
195
102
{ACAD_REACTORS
330
194
102
}
330
194
100
TcOptionalData
 70
     1
 70
    32
 40
-3.0
  0
TCOPTIONALDATA
  5
198
102
{ACAD_REACTORS
330
197
102
}
330
197
100
TcOptionalData
 70
     1
 70
    32
 40
-3.0
  0
TCOPTIONALDATA
  5
19B
102
{ACAD_REACTORS
330
19A
102
}
330
19A
100
TcOptionalData
 70
     1
 70
    32
 40
-3.0
  0
TCOPTIONALDATA
  5
19E
102
{ACAD_REACTORS
330
19D
102
}
330
19D
100
TcOptionalData
 70
     1
 70
    32
 40
-3.0
  0
TCOPTIONALDATA
  5
1A1
102
{ACAD_REACTORS
330
1A0
102
}
330
1A0
100
TcOptionalData
 70
     1
 70
    32
 40
-3.0
  0
TCOPTIONALDATA
  5
1A4
102
{ACAD_REACTORS
330
1A3
102
}
330
1A3
100
TcOptionalData
 70
     1
 70
    32
 40
-3.0
  0
TCOPTIONALDATA
  5
1A7
102
{ACAD_REACTORS
330
1A6
102
}
330
1A6
100
TcOptionalData
 70
     1
 70
    32
 40
-3.0
  0
TCOPTIONALDATA
  5
1AA
102
{ACAD_REACTORS
330
1A9
102
}
330
1A9
100
TcOptionalData
 70
     1
 70
    32
 40
-3.0
  0
TCOPTIONALDATA
  5
1AD
102
{ACAD_REACTORS
330
1AC
102
}
330
1AC
100
TcOptionalData
 70
     1
 70
    32
 40
-3.0
  0
TCOPTIONALDATA
  5
1B0
102
{ACAD_REACTORS
330
1AF
102
}
330
1AF
100
TcOptionalData
 70
     1
 70
    32
 40
-3.0
  0
TCOPTIONALDATA
  5
1B3
102
{ACAD_REACTORS
330
1B2
102
}
330
1B2
100
TcOptionalData
 70
     1
 70
    32
 40
-3.0
  0
TCOPTIONALDATA
  5
1B6
102
{ACAD_REACTORS
330
1B5
102
}
330
1B5
100
TcOptionalData
 70
     1
 70
    32
 40
-3.0
  0
TCOPTIONALDATA
  5
1B9
102
{ACAD_REACTORS
330
1B8
102
}
330
1B8
100
TcOptionalData
 70
     1
 70
    32
 40
-3.0
  0
TCOPTIONALDATA
  5
1BC
102
{ACAD_REACTORS
330
1BB
102
}
330
1BB
100
TcOptionalData
 70
     1
 70
    32
 40
-3.0
  0
TCOPTIONALDATA
  5
1BF
102
{ACAD_REACTORS
330
1BE
102
}
330
1BE
100
TcOptionalData
 70
     1
 70
    32
 40
-3.0
  0
TCOPTIONALDATA
  5
1C2
102
{ACAD_REACTORS
330
1C1
102
}
330
1C1
100
TcOptionalData
 70
     1
 70
    32
 40
-3.0
  0
TCOPTIONALDATA
  5
1C5
102
{ACAD_REACTORS
330
1C4
102
}
330
1C4
100
TcOptionalData
 70
     1
 70
    32
 40
-3.0
  0
TCOPTIONALDATA
  5
1C8
102
{ACAD_REACTORS
330
1C7
102
}
330
1C7
100
TcOptionalData
 70
     1
 70
    32
 40
-3.0
  0
TCOPTIONALDATA
  5
1CB
102
{ACAD_REACTORS
330
1CA
102
}
330
1CA
100
TcOptionalData
 70
     1
 70
    32
 40
-3.0
  0
TCOPTIONALDATA
  5
1CE
102
{ACAD_REACTORS
330
1CD
102
}
330
1CD
100
TcOptionalData
 70
     1
 70
    32
 40
-3.0
  0
TCOPTIONALDATA
  5
1D1
102
{ACAD_REACTORS
330
1D0
102
}
330
1D0
100
TcOptionalData
 70
     1
 70
    32
 40
-3.0
  0
TCOPTIONALDATA
  5
1D4
102
{ACAD_REACTORS
330
1D3
102
}
330
1D3
100
TcOptionalData
 70
     1
 70
    32
 40
-3.0
  0
TCOPTIONALDATA
  5
1D7
102
{ACAD_REACTORS
330
1D6
102
}
330
1D6
100
TcOptionalData
 70
     1
 70
    32
 40
-3.0
  0
TCOPTIONALDATA
  5
1DA
102
{ACAD_REACTORS
330
1D9
102
}
330
1D9
100
TcOptionalData
 70
     1
 70
    32
 40
-3.0
  0
TCOPTIONALDATA
  5
1DD
102
{ACAD_REACTORS
330
1DC
102
}
330
1DC
100
TcOptionalData
 70
     1
 70
    32
 40
-3.0
  0
TCOPTIONALDATA
  5
1E0
102
{ACAD_REACTORS
330
1DF
102
}
330
1DF
100
TcOptionalData
 70
     1
 70
    32
 40
-3.0
  0
TCOPTIONALDATA
  5
1E3
102
{ACAD_REACTORS
330
1E2
102
}
330
1E2
100
TcOptionalData
 70
     1
 70
    32
 40
-3.0
  0
TCOPTIONALDATA
  5
1E6
102
{ACAD_REACTORS
330
1E5
102
}
330
1E5
100
TcOptionalData
 70
     1
 70
    32
 40
-3.0
  0
TCOPTIONALDATA
  5
1E9
102
{ACAD_REACTORS
330
1E8
102
}
330
1E8
100
TcOptionalData
 70
     1
 70
    32
 40
-3.0
  0
TCOPTIONALDATA
  5
1EC
102
{ACAD_REACTORS
330
1EB
102
}
330
1EB
100
TcOptionalData
 70
     1
 70
    32
 40
-3.0
  0
TCOPTIONALDATA
  5
1EF
102
{ACAD_REACTORS
330
1EE
102
}
330
1EE
100
TcOptionalData
 70
     1
 70
    32
 40
-3.0
  0
TCOPTIONALDATA
  5
1F2
102
{ACAD_REACTORS
330
1F1
102
}
330
1F1
100
TcOptionalData
 70
     1
 70
    32
 40
-3.0
  0
TCOPTIONALDATA
  5
1F5
102
{ACAD_REACTORS
330
1F4
102
}
330
1F4
100
TcOptionalData
 70
     1
 70
    32
 40
-3.0
  0
TCOPTIONALDATA
  5
1F8
102
{ACAD_REACTORS
330
1F7
102
}
330
1F7
100
TcOptionalData
 70
     1
 70
    32
 40
-3.0
  0
TCOPTIONALDATA
  5
1FB
102
{ACAD_REACTORS
330
1FA
102
}
330
1FA
100
TcOptionalData
 70
     1
 70
    32
 40
-3.0
  0
TCOPTIONALDATA
  5
1FE
102
{ACAD_REACTORS
330
1FD
102
}
330
1FD
100
TcOptionalData
 70
     1
 70
    32
 40
-3.0
  0
TCOPTIONALDATA
  5
201
102
{ACAD_REACTORS
330
200
102
}
330
200
100
TcOptionalData
 70
     1
 70
    32
 40
-3.0
  0
TCOPTIONALDATA
  5
204
102
{ACAD_REACTORS
330
203
102
}
330
203
100
TcOptionalData
 70
     1
 70
    32
 40
-3.0
  0
TCOPTIONALDATA
  5
207
102
{ACAD_REACTORS
330
206
102
}
330
206
100
TcOptionalData
 70
     1
 70
    32
 40
-3.0
  0
TCOPTIONALDATA
  5
20A
102
{ACAD_REACTORS
330
209
102
}
330
209
100
TcOptionalData
 70
     1
 70
    32
 40
-3.0
  0
TCOPTIONALDATA
  5
20D
102
{ACAD_REACTORS
330
20C
102
}
330
20C
100
TcOptionalData
 70
     1
 70
    32
 40
-3.0
  0
TCOPTIONALDATA
  5
210
102
{ACAD_REACTORS
330
20F
102
}
330
20F
100
TcOptionalData
 70
     1
 70
    32
 40
-3.0
  0
TCOPTIONALDATA
  5
213
102
{ACAD_REACTORS
330
212
102
}
330
212
100
TcOptionalData
 70
     1
 70
    32
 40
-3.0
  0
TCOPTIONALDATA
  5
216
102
{ACAD_REACTORS
330
215
102
}
330
215
100
TcOptionalData
 70
     1
 70
    32
 40
-3.0
  0
TCOPTIONALDATA
  5
219
102
{ACAD_REACTORS
330
218
102
}
330
218
100
TcOptionalData
 70
     1
 70
    32
 40
-3.0
  0
TCOPTIONALDATA
  5
21C
102
{ACAD_REACTORS
330
21B
102
}
330
21B
100
TcOptionalData
 70
     1
 70
    32
 40
-3.0
  0
TCOPTIONALDATA
  5
21F
102
{ACAD_REACTORS
330
21E
102
}
330
21E
100
TcOptionalData
 70
     1
 70
    32
 40
-3.0
  0
TCOPTIONALDATA
  5
222
102
{ACAD_REACTORS
330
221
102
}
330
221
100
TcOptionalData
 70
     1
 70
    32
 40
-3.0
  0
TCOPTIONALDATA
  5
225
102
{ACAD_REACTORS
330
224
102
}
330
224
100
TcOptionalData
 70
     1
 70
    32
 40
-3.0
  0
TCOPTIONALDATA
  5
228
102
{ACAD_REACTORS
330
227
102
}
330
227
100
TcOptionalData
 70
     1
 70
    32
 40
-3.0
  0
TCOPTIONALDATA
  5
22B
102
{ACAD_REACTORS
330
22A
102
}
330
22A
100
TcOptionalData
 70
     1
 70
    32
 40
-3.0
  0
TCOPTIONALDATA
  5
22E
102
{ACAD_REACTORS
330
22D
102
}
330
22D
100
TcOptionalData
 70
     1
 70
    32
 40
-3.0
  0
TCOPTIONALDATA
  5
231
102
{ACAD_REACTORS
330
230
102
}
330
230
100
TcOptionalData
 70
     1
 70
    32
 40
-3.0
  0
TCOPTIONALDATA
  5
234
102
{ACAD_REACTORS
330
233
102
}
330
233
100
TcOptionalData
 70
     1
 70
    32
 40
-3.0
  0
TCOPTIONALDATA
  5
237
102
{ACAD_REACTORS
330
236
102
}
330
236
100
TcOptionalData
 70
     1
 70
    32
 40
-3.0
  0
TCOPTIONALDATA
  5
23A
102
{ACAD_REACTORS
330
239
102
}
330
239
100
TcOptionalData
 70
     1
 70
    32
 40
-3.0
  0
TCOPTIONALDATA
  5
23D
102
{ACAD_REACTORS
330
23C
102
}
330
23C
100
TcOptionalData
 70
     1
 70
    32
 40
-3.0
  0
TCOPTIONALDATA
  5
240
102
{ACAD_REACTORS
330
23F
102
}
330
23F
100
TcOptionalData
 70
     1
 70
    32
 40
-3.0
  0
TCOPTIONALDATA
  5
243
102
{ACAD_REACTORS
330
242
102
}
330
242
100
TcOptionalData
 70
     1
 70
    32
 40
-3.0
  0
TCOPTIONALDATA
  5
246
102
{ACAD_REACTORS
330
245
102
}
330
245
100
TcOptionalData
 70
     1
 70
    32
 40
-3.0
  0
TCOPTIONALDATA
  5
249
102
{ACAD_REACTORS
330
248
102
}
330
248
100
TcOptionalData
 70
     1
 70
    32
 40
-3.0
  0
TCOPTIONALDATA
  5
24C
102
{ACAD_REACTORS
330
24B
102
}
330
24B
100
TcOptionalData
 70
     1
 70
    32
 40
-3.0
  0
TCOPTIONALDATA
  5
24F
102
{ACAD_REACTORS
330
24E
102
}
330
24E
100
TcOptionalData
 70
     1
 70
    32
 40
-3.0
  0
TCOPTIONALDATA
  5
252
102
{ACAD_REACTORS
330
251
102
}
330
251
100
TcOptionalData
 70
     1
 70
    32
 40
-3.0
  0
TCOPTIONALDATA
  5
255
102
{ACAD_REACTORS
330
254
102
}
330
254
100
TcOptionalData
 70
     1
 70
    32
 40
-3.0
  0
TCOPTIONALDATA
  5
258
102
{ACAD_REACTORS
330
257
102
}
330
257
100
TcOptionalData
 70
     1
 70
    32
 40
-3.0
  0
TCOPTIONALDATA
  5
25B
102
{ACAD_REACTORS
330
25A
102
}
330
25A
100
TcOptionalData
 70
     1
 70
    32
 40
-3.0
  0
TCOPTIONALDATA
  5
25E
102
{ACAD_REACTORS
330
25D
102
}
330
25D
100
TcOptionalData
 70
     1
 70
    32
 40
-3.0
  0
TCOPTIONALDATA
  5
261
102
{ACAD_REACTORS
330
260
102
}
330
260
100
TcOptionalData
 70
     1
 70
    32
 40
-3.0
  0
TCOPTIONALDATA
  5
264
102
{ACAD_REACTORS
330
263
102
}
330
263
100
TcOptionalData
 70
     1
 70
    32
 40
-3.0
  0
TCOPTIONALDATA
  5
267
102
{ACAD_REACTORS
330
266
102
}
330
266
100
TcOptionalData
 70
     1
 70
    32
 40
-3.0
  0
TCOPTIONALDATA
  5
26A
102
{ACAD_REACTORS
330
269
102
}
330
269
100
TcOptionalData
 70
     1
 70
    32
 40
-3.0
  0
TCOPTIONALDATA
  5
26D
102
{ACAD_REACTORS
330
26C
102
}
330
26C
100
TcOptionalData
 70
     1
 70
    32
 40
-3.0
  0
TCOPTIONALDATA
  5
270
102
{ACAD_REACTORS
330
26F
102
}
330
26F
100
TcOptionalData
 70
     1
 70
    32
 40
-3.0
  0
TCOPTIONALDATA
  5
273
102
{ACAD_REACTORS
330
272
102
}
330
272
100
TcOptionalData
 70
     1
 70
    32
 40
-3.0
  0
TCOPTIONALDATA
  5
276
102
{ACAD_REACTORS
330
275
102
}
330
275
100
TcOptionalData
 70
     1
 70
    32
 40
-3.0
  0
TCOPTIONALDATA
  5
279
102
{ACAD_REACTORS
330
278
102
}
330
278
100
TcOptionalData
 70
     1
 70
    32
 40
-3.0
  0
TCOPTIONALDATA
  5
27C
102
{ACAD_REACTORS
330
27B
102
}
330
27B
100
TcOptionalData
 70
     1
 70
    32
 40
-3.0
  0
TCOPTIONALDATA
  5
27F
102
{ACAD_REACTORS
330
27E
102
}
330
27E
100
TcOptionalData
 70
     1
 70
    32
 40
-3.0
  0
TCOPTIONALDATA
  5
282
102
{ACAD_REACTORS
330
281
102
}
330
281
100
TcOptionalData
 70
     1
 70
    32
 40
-3.0
  0
TCOPTIONALDATA
  5
285
102
{ACAD_REACTORS
330
284
102
}
330
284
100
TcOptionalData
 70
     1
 70
    32
 40
-3.0
  0
TCOPTIONALDATA
  5
288
102
{ACAD_REACTORS
330
287
102
}
330
287
100
TcOptionalData
 70
     1
 70
    32
 40
-3.0
  0
TCOPTIONALDATA
  5
28B
102
{ACAD_REACTORS
330
28A
102
}
330
28A
100
TcOptionalData
 70
     1
 70
    32
 40
-3.0
  0
TCOPTIONALDATA
  5
28E
102
{ACAD_REACTORS
330
28D
102
}
330
28D
100
TcOptionalData
 70
     1
 70
    32
 40
-3.0
  0
TCOPTIONALDATA
  5
291
102
{ACAD_REACTORS
330
290
102
}
330
290
100
TcOptionalData
 70
     1
 70
    32
 40
-3.0
  0
TCOPTIONALDATA
  5
294
102
{ACAD_REACTORS
330
293
102
}
330
293
100
TcOptionalData
 70
     1
 70
    32
 40
-3.0
  0
TCOPTIONALDATA
  5
297
102
{ACAD_REACTORS
330
296
102
}
330
296
100
TcOptionalData
 70
     1
 70
    32
 40
-3.0
  0
TCOPTIONALDATA
  5
29A
102
{ACAD_REACTORS
330
299
102
}
330
299
100
TcOptionalData
 70
     1
 70
    32
 40
-3.0
  0
TCOPTIONALDATA
  5
29D
102
{ACAD_REACTORS
330
29C
102
}
330
29C
100
TcOptionalData
 70
     1
 70
    32
 40
-3.0
  0
TCOPTIONALDATA
  5
2A0
102
{ACAD_REACTORS
330
29F
102
}
330
29F
100
TcOptionalData
 70
     1
 70
    32
 40
-3.0
  0
TCOPTIONALDATA
  5
2A3
102
{ACAD_REACTORS
330
2A2
102
}
330
2A2
100
TcOptionalData
 70
     1
 70
    32
 40
-3.0
  0
TCOPTIONALDATA
  5
2A6
102
{ACAD_REACTORS
330
2A5
102
}
330
2A5
100
TcOptionalData
 70
     1
 70
    32
 40
-3.0
  0
TCOPTIONALDATA
  5
2A9
102
{ACAD_REACTORS
330
2A8
102
}
330
2A8
100
TcOptionalData
 70
     1
 70
    32
 40
-3.0
  0
TCOPTIONALDATA
  5
2AC
102
{ACAD_REACTORS
330
2AB
102
}
330
2AB
100
TcOptionalData
 70
     1
 70
    32
 40
-3.0
  0
TCOPTIONALDATA
  5
2AF
102
{ACAD_REACTORS
330
2AE
102
}
330
2AE
100
TcOptionalData
 70
     1
 70
    32
 40
-3.0
  0
TCOPTIONALDATA
  5
2B2
102
{ACAD_REACTORS
330
2B1
102
}
330
2B1
100
TcOptionalData
 70
     1
 70
    32
 40
-3.0
  0
TCOPTIONALDATA
  5
2B5
102
{ACAD_REACTORS
330
2B4
102
}
330
2B4
100
TcOptionalData
 70
     1
 70
    32
 40
-3.0
  0
TCOPTIONALDATA
  5
2B8
102
{ACAD_REACTORS
330
2B7
102
}
330
2B7
100
TcOptionalData
 70
     1
 70
    32
 40
-3.0
  0
TCOPTIONALDATA
  5
2BB
102
{ACAD_REACTORS
330
2BA
102
}
330
2BA
100
TcOptionalData
 70
     1
 70
    32
 40
-3.0
  0
TCOPTIONALDATA
  5
2BE
102
{ACAD_REACTORS
330
2BD
102
}
330
2BD
100
TcOptionalData
 70
     1
 70
    32
 40
-3.0
  0
TCOPTIONALDATA
  5
2C1
102
{ACAD_REACTORS
330
2C0
102
}
330
2C0
100
TcOptionalData
 70
     1
 70
    32
 40
-3.0
  0
TCOPTIONALDATA
  5
2C4
102
{ACAD_REACTORS
330
2C3
102
}
330
2C3
100
TcOptionalData
 70
     1
 70
    32
 40
-3.0
  0
TCOPTIONALDATA
  5
2C7
102
{ACAD_REACTORS
330
2C6
102
}
330
2C6
100
TcOptionalData
 70
     1
 70
    32
 40
-3.0
  0
TCOPTIONALDATA
  5
2CA
102
{ACAD_REACTORS
330
2C9
102
}
330
2C9
100
TcOptionalData
 70
     1
 70
    32
 40
-3.0
  0
TCOPTIONALDATA
  5
2CD
102
{ACAD_REACTORS
330
2CC
102
}
330
2CC
100
TcOptionalData
 70
     1
 70
    32
 40
-3.0
  0
TCOPTIONALDATA
  5
2D0
102
{ACAD_REACTORS
330
2CF
102
}
330
2CF
100
TcOptionalData
 70
     1
 70
    32
 40
-3.0
  0
TCOPTIONALDATA
  5
2D3
102
{ACAD_REACTORS
330
2D2
102
}
330
2D2
100
TcOptionalData
 70
     1
 70
    32
 40
-3.0
  0
TCOPTIONALDATA
  5
2D6
102
{ACAD_REACTORS
330
2D5
102
}
330
2D5
100
TcOptionalData
 70
     1
 70
    32
 40
-3.0
  0
TCOPTIONALDATA
  5
2D9
102
{ACAD_REACTORS
330
2D8
102
}
330
2D8
100
TcOptionalData
 70
     1
 70
    32
 40
-3.0
  0
TCOPTIONALDATA
  5
2DC
102
{ACAD_REACTORS
330
2DB
102
}
330
2DB
100
TcOptionalData
 70
     1
 70
    32
 40
-3.0
  0
TCOPTIONALDATA
  5
2DF
102
{ACAD_REACTORS
330
2DE
102
}
330
2DE
100
TcOptionalData
 70
     1
 70
    32
 40
-3.0
  0
TCOPTIONALDATA
  5
2E2
102
{ACAD_REACTORS
330
2E1
102
}
330
2E1
100
TcOptionalData
 70
     1
 70
    32
 40
-3.0
  0
TCOPTIONALDATA
  5
2E5
102
{ACAD_REACTORS
330
2E4
102
}
330
2E4
100
TcOptionalData
 70
     1
 70
    32
 40
-3.0
  0
TCOPTIONALDATA
  5
2E8
102
{ACAD_REACTORS
330
2E7
102
}
330
2E7
100
TcOptionalData
 70
     1
 70
    32
 40
-3.0
  0
TCOPTIONALDATA
  5
2EB
102
{ACAD_REACTORS
330
2EA
102
}
330
2EA
100
TcOptionalData
 70
     1
 70
    32
 40
-3.0
  0
TCOPTIONALDATA
  5
2EE
102
{ACAD_REACTORS
330
2ED
102
}
330
2ED
100
TcOptionalData
 70
     1
 70
    32
 40
-3.0
  0
TCOPTIONALDATA
  5
2F1
102
{ACAD_REACTORS
330
2F0
102
}
330
2F0
100
TcOptionalData
 70
     1
 70
    32
 40
-3.0
  0
TCOPTIONALDATA
  5
2F4
102
{ACAD_REACTORS
330
2F3
102
}
330
2F3
100
TcOptionalData
 70
     1
 70
    32
 40
-3.0
  0
TCOPTIONALDATA
  5
2F7
102
{ACAD_REACTORS
330
2F6
102
}
330
2F6
100
TcOptionalData
 70
     1
 70
    32
 40
-3.0
  0
TCOPTIONALDATA
  5
2FA
102
{ACAD_REACTORS
330
2F9
102
}
330
2F9
100
TcOptionalData
 70
     1
 70
    32
 40
-3.0
  0
TCOPTIONALDATA
  5
2FD
102
{ACAD_REACTORS
330
2FC
102
}
330
2FC
100
TcOptionalData
 70
     1
 70
    32
 40
-3.0
  0
TCOPTIONALDATA
  5
300
102
{ACAD_REACTORS
330
2FF
102
}
330
2FF
100
TcOptionalData
 70
     1
 70
    32
 40
-3.0
  0
TCOPTIONALDATA
  5
303
102
{ACAD_REACTORS
330
302
102
}
330
302
100
TcOptionalData
 70
     1
 70
    32
 40
-3.0
  0
TCOPTIONALDATA
  5
306
102
{ACAD_REACTORS
330
305
102
}
330
305
100
TcOptionalData
 70
     1
 70
    32
 40
-3.0
  0
TCOPTIONALDATA
  5
309
102
{ACAD_REACTORS
330
308
102
}
330
308
100
TcOptionalData
 70
     1
 70
    32
 40
-3.0
  0
TCOPTIONALDATA
  5
30C
102
{ACAD_REACTORS
330
30B
102
}
330
30B
100
TcOptionalData
 70
     1
 70
    32
 40
-3.0
  0
TCOPTIONALDATA
  5
30F
102
{ACAD_REACTORS
330
30E
102
}
330
30E
100
TcOptionalData
 70
     1
 70
    32
 40
-3.0
  0
TCOPTIONALDATA
  5
312
102
{ACAD_REACTORS
330
311
102
}
330
311
100
TcOptionalData
 70
     1
 70
    32
 40
-3.0
  0
TCOPTIONALDATA
  5
315
102
{ACAD_REACTORS
330
314
102
}
330
314
100
TcOptionalData
 70
     1
 70
    32
 40
-3.0
  0
TCOPTIONALDATA
  5
318
102
{ACAD_REACTORS
330
317
102
}
330
317
100
TcOptionalData
 70
     1
 70
    32
 40
-3.0
  0
TCOPTIONALDATA
  5
31B
102
{ACAD_REACTORS
330
31A
102
}
330
31A
100
TcOptionalData
 70
     1
 70
    32
 40
-3.0
  0
TCOPTIONALDATA
  5
31E
102
{ACAD_REACTORS
330
31D
102
}
330
31D
100
TcOptionalData
 70
     1
 70
    32
 40
-3.0
  0
TCOPTIONALDATA
  5
321
102
{ACAD_REACTORS
330
320
102
}
330
320
100
TcOptionalData
 70
     1
 70
    32
 40
-3.0
  0
TCOPTIONALDATA
  5
324
102
{ACAD_REACTORS
330
323
102
}
330
323
100
TcOptionalData
 70
     1
 70
    32
 40
-3.0
  0
TCOPTIONALDATA
  5
327
102
{ACAD_REACTORS
330
326
102
}
330
326
100
TcOptionalData
 70
     1
 70
    32
 40
-3.0
  0
TCOPTIONALDATA
  5
32A
102
{ACAD_REACTORS
330
329
102
}
330
329
100
TcOptionalData
 70
     1
 70
    32
 40
-3.0
  0
TCOPTIONALDATA
  5
32D
102
{ACAD_REACTORS
330
32C
102
}
330
32C
100
TcOptionalData
 70
     1
 70
    32
 40
-3.0
  0
TCOPTIONALDATA
  5
330
102
{ACAD_REACTORS
330
32F
102
}
330
32F
100
TcOptionalData
 70
     1
 70
    32
 40
-3.0
  0
TCOPTIONALDATA
  5
333
102
{ACAD_REACTORS
330
332
102
}
330
332
100
TcOptionalData
 70
     1
 70
    32
 40
-3.0
  0
TCOPTIONALDATA
  5
336
102
{ACAD_REACTORS
330
335
102
}
330
335
100
TcOptionalData
 70
     1
 70
    32
 40
-3.0
  0
TCOPTIONALDATA
  5
339
102
{ACAD_REACTORS
330
338
102
}
330
338
100
TcOptionalData
 70
     1
 70
    32
 40
-3.0
  0
TCOPTIONALDATA
  5
33C
102
{ACAD_REACTORS
330
33B
102
}
330
33B
100
TcOptionalData
 70
     1
 70
    32
 40
-3.0
  0
TCOPTIONALDATA
  5
33F
102
{ACAD_REACTORS
330
33E
102
}
330
33E
100
TcOptionalData
 70
     1
 70
    32
 40
-3.0
  0
TCOPTIONALDATA
  5
342
102
{ACAD_REACTORS
330
341
102
}
330
341
100
TcOptionalData
 70
     1
 70
    32
 40
-3.0
  0
TCOPTIONALDATA
  5
345
102
{ACAD_REACTORS
330
344
102
}
330
344
100
TcOptionalData
 70
     1
 70
    32
 40
-3.0
  0
TCOPTIONALDATA
  5
348
102
{ACAD_REACTORS
330
347
102
}
330
347
100
TcOptionalData
 70
     1
 70
    32
 40
-3.0
  0
TCOPTIONALDATA
  5
34B
102
{ACAD_REACTORS
330
34A
102
}
330
34A
100
TcOptionalData
 70
     1
 70
    32
 40
-3.0
  0
TCOPTIONALDATA
  5
34E
102
{ACAD_REACTORS
330
34D
102
}
330
34D
100
TcOptionalData
 70
     1
 70
    32
 40
-3.0
  0
TCOPTIONALDATA
  5
351
102
{ACAD_REACTORS
330
350
102
}
330
350
100
TcOptionalData
 70
     1
 70
    32
 40
-3.0
  0
TCOPTIONALDATA
  5
354
102
{ACAD_REACTORS
330
353
102
}
330
353
100
TcOptionalData
 70
     1
 70
    32
 40
-3.0
  0
TCOPTIONALDATA
  5
357
102
{ACAD_REACTORS
330
356
102
}
330
356
100
TcOptionalData
 70
     1
 70
    32
 40
-3.0
  0
TCOPTIONALDATA
  5
35A
102
{ACAD_REACTORS
330
359
102
}
330
359
100
TcOptionalData
 70
     1
 70
    32
 40
-3.0
  0
TCOPTIONALDATA
  5
35D
102
{ACAD_REACTORS
330
35C
102
}
330
35C
100
TcOptionalData
 70
     1
 70
    32
 40
-3.0
  0
TCOPTIONALDATA
  5
360
102
{ACAD_REACTORS
330
35F
102
}
330
35F
100
TcOptionalData
 70
     1
 70
    32
 40
-3.0
  0
TCOPTIONALDATA
  5
363
102
{ACAD_REACTORS
330
362
102
}
330
362
100
TcOptionalData
 70
     1
 70
    32
 40
-3.0
  0
TCOPTIONALDATA
  5
366
102
{ACAD_REACTORS
330
365
102
}
330
365
100
TcOptionalData
 70
     1
 70
    32
 40
-3.0
  0
TCOPTIONALDATA
  5
369
102
{ACAD_REACTORS
330
368
102
}
330
368
100
TcOptionalData
 70
     1
 70
    32
 40
-3.0
  0
TCOPTIONALDATA
  5
36C
102
{ACAD_REACTORS
330
36B
102
}
330
36B
100
TcOptionalData
 70
     1
 70
    32
 40
-3.0
  0
TCOPTIONALDATA
  5
36F
102
{ACAD_REACTORS
330
36E
102
}
330
36E
100
TcOptionalData
 70
     1
 70
    32
 40
-3.0
  0
TCOPTIONALDATA
  5
372
102
{ACAD_REACTORS
330
371
102
}
330
371
100
TcOptionalData
 70
     1
 70
    32
 40
-3.0
  0
TCOPTIONALDATA
  5
375
102
{ACAD_REACTORS
330
374
102
}
330
374
100
TcOptionalData
 70
     1
 70
    32
 40
-3.0
  0
TCOPTIONALDATA
  5
378
102
{ACAD_REACTORS
330
377
102
}
330
377
100
TcOptionalData
 70
     1
 70
    32
 40
-3.0
  0
TCOPTIONALDATA
  5
37B
102
{ACAD_REACTORS
330
37A
102
}
330
37A
100
TcOptionalData
 70
     1
 70
    32
 40
-3.0
  0
TCOPTIONALDATA
  5
37E
102
{ACAD_REACTORS
330
37D
102
}
330
37D
100
TcOptionalData
 70
     1
 70
    32
 40
-3.0
  0
TCOPTIONALDATA
  5
381
102
{ACAD_REACTORS
330
380
102
}
330
380
100
TcOptionalData
 70
     1
 70
    32
 40
-3.0
  0
TCOPTIONALDATA
  5
384
102
{ACAD_REACTORS
330
383
102
}
330
383
100
TcOptionalData
 70
     1
 70
    32
 40
-3.0
  0
TCOPTIONALDATA
  5
387
102
{ACAD_REACTORS
330
386
102
}
330
386
100
TcOptionalData
 70
     1
 70
    32
 40
-3.0
  0
TCOPTIONALDATA
  5
38A
102
{ACAD_REACTORS
330
389
102
}
330
389
100
TcOptionalData
 70
     1
 70
    32
 40
-3.0
  0
TCOPTIONALDATA
  5
38D
102
{ACAD_REACTORS
330
38C
102
}
330
38C
100
TcOptionalData
 70
     1
 70
    32
 40
-3.0
  0
TCOPTIONALDATA
  5
390
102
{ACAD_REACTORS
330
38F
102
}
330
38F
100
TcOptionalData
 70
     1
 70
    32
 40
-3.0
  0
TCOPTIONALDATA
  5
393
102
{ACAD_REACTORS
330
392
102
}
330
392
100
TcOptionalData
 70
     1
 70
    32
 40
-3.0
  0
TCOPTIONALDATA
  5
396
102
{ACAD_REACTORS
330
395
102
}
330
395
100
TcOptionalData
 70
     1
 70
    32
 40
-3.0
  0
TCOPTIONALDATA
  5
399
102
{ACAD_REACTORS
330
398
102
}
330
398
100
TcOptionalData
 70
     1
 70
    32
 40
-3.0
  0
TCOPTIONALDATA
  5
39C
102
{ACAD_REACTORS
330
39B
102
}
330
39B
100
TcOptionalData
 70
     1
 70
    32
 40
-3.0
  0
TCOPTIONALDATA
  5
39F
102
{ACAD_REACTORS
330
39E
102
}
330
39E
100
TcOptionalData
 70
     1
 70
    32
 40
-3.0
  0
TCOPTIONALDATA
  5
3A2
102
{ACAD_REACTORS
330
3A1
102
}
330
3A1
100
TcOptionalData
 70
     1
 70
    32
 40
-3.0
  0
TCOPTIONALDATA
  5
3A5
102
{ACAD_REACTORS
330
3A4
102
}
330
3A4
100
TcOptionalData
 70
     1
 70
    32
 40
-3.0
  0
TCOPTIONALDATA
  5
3A8
102
{ACAD_REACTORS
330
3A7
102
}
330
3A7
100
TcOptionalData
 70
     1
 70
    32
 40
-3.0
  0
TCOPTIONALDATA
  5
3AB
102
{ACAD_REACTORS
330
3AA
102
}
330
3AA
100
TcOptionalData
 70
     1
 70
    32
 40
-3.0
  0
TCOPTIONALDATA
  5
3AE
102
{ACAD_REACTORS
330
3AD
102
}
330
3AD
100
TcOptionalData
 70
     1
 70
    32
 40
-3.0
  0
TCOPTIONALDATA
  5
3B1
102
{ACAD_REACTORS
330
3B0
102
}
330
3B0
100
TcOptionalData
 70
     1
 70
    32
 40
-3.0
  0
TCOPTIONALDATA
  5
3B4
102
{ACAD_REACTORS
330
3B3
102
}
330
3B3
100
TcOptionalData
 70
     1
 70
    32
 40
-3.0
  0
TCOPTIONALDATA
  5
3B7
102
{ACAD_REACTORS
330
3B6
102
}
330
3B6
100
TcOptionalData
 70
     1
 70
    32
 40
-3.0
  0
TCOPTIONALDATA
  5
3BA
102
{ACAD_REACTORS
330
3B9
102
}
330
3B9
100
TcOptionalData
 70
     1
 70
    32
 40
-3.0
  0
TCOPTIONALDATA
  5
3BD
102
{ACAD_REACTORS
330
3BC
102
}
330
3BC
100
TcOptionalData
 70
     1
 70
    32
 40
-3.0
  0
TCOPTIONALDATA
  5
3C0
102
{ACAD_REACTORS
330
3BF
102
}
330
3BF
100
TcOptionalData
 70
     1
 70
    32
 40
-3.0
  0
TCOPTIONALDATA
  5
3C3
102
{ACAD_REACTORS
330
3C2
102
}
330
3C2
100
TcOptionalData
 70
     1
 70
    32
 40
-3.0
  0
TCOPTIONALDATA
  5
3C6
102
{ACAD_REACTORS
330
3C5
102
}
330
3C5
100
TcOptionalData
 70
     1
 70
    32
 40
-3.0
  0
TCOPTIONALDATA
  5
3C9
102
{ACAD_REACTORS
330
3C8
102
}
330
3C8
100
TcOptionalData
 70
     1
 70
    32
 40
-3.0
  0
TCOPTIONALDATA
  5
3CC
102
{ACAD_REACTORS
330
3CB
102
}
330
3CB
100
TcOptionalData
 70
     1
 70
    32
 40
-3.0
  0
TCOPTIONALDATA
  5
3CF
102
{ACAD_REACTORS
330
3CE
102
}
330
3CE
100
TcOptionalData
 70
     1
 70
    32
 40
-3.0
  0
TCOPTIONALDATA
  5
3D2
102
{ACAD_REACTORS
330
3D1
102
}
330
3D1
100
TcOptionalData
 70
     1
 70
    32
 40
-3.0
  0
TCOPTIONALDATA
  5
3D5
102
{ACAD_REACTORS
330
3D4
102
}
330
3D4
100
TcOptionalData
 70
     1
 70
    32
 40
-3.0
  0
TCOPTIONALDATA
  5
3D8
102
{ACAD_REACTORS
330
3D7
102
}
330
3D7
100
TcOptionalData
 70
     1
 70
    32
 40
-3.0
  0
TCOPTIONALDATA
  5
3DB
102
{ACAD_REACTORS
330
3DA
102
}
330
3DA
100
TcOptionalData
 70
     1
 70
    32
 40
-3.0
  0
TCOPTIONALDATA
  5
3DE
102
{ACAD_REACTORS
330
3DD
102
}
330
3DD
100
TcOptionalData
 70
     1
 70
    32
 40
-3.0
  0
TCOPTIONALDATA
  5
3E1
102
{ACAD_REACTORS
330
3E0
102
}
330
3E0
100
TcOptionalData
 70
     1
 70
    32
 40
-3.0
  0
TCOPTIONALDATA
  5
3E4
102
{ACAD_REACTORS
330
3E3
102
}
330
3E3
100
TcOptionalData
 70
     1
 70
    32
 40
-3.0
  0
TCOPTIONALDATA
  5
3E7
102
{ACAD_REACTORS
330
3E6
102
}
330
3E6
100
TcOptionalData
 70
     1
 70
    32
 40
-3.0
  0
TCOPTIONALDATA
  5
3EA
102
{ACAD_REACTORS
330
3E9
102
}
330
3E9
100
TcOptionalData
 70
     1
 70
    32
 40
-3.0
  0
TCOPTIONALDATA
  5
3ED
102
{ACAD_REACTORS
330
3EC
102
}
330
3EC
100
TcOptionalData
 70
     1
 70
    32
 40
-3.0
  0
TCOPTIONALDATA
  5
3F0
102
{ACAD_REACTORS
330
3EF
102
}
330
3EF
100
TcOptionalData
 70
     1
 70
    32
 40
-3.0
  0
TCOPTIONALDATA
  5
3F3
102
{ACAD_REACTORS
330
3F2
102
}
330
3F2
100
TcOptionalData
 70
     1
 70
    32
 40
-3.0
  0
TCOPTIONALDATA
  5
3F6
102
{ACAD_REACTORS
330
3F5
102
}
330
3F5
100
TcOptionalData
 70
     1
 70
    32
 40
-3.0
  0
TCOPTIONALDATA
  5
3F9
102
{ACAD_REACTORS
330
3F8
102
}
330
3F8
100
TcOptionalData
 70
     1
 70
    32
 40
-3.0
  0
TCOPTIONALDATA
  5
3FC
102
{ACAD_REACTORS
330
3FB
102
}
330
3FB
100
TcOptionalData
 70
     1
 70
    32
 40
-3.0
  0
TCOPTIONALDATA
  5
3FF
102
{ACAD_REACTORS
330
3FE
102
}
330
3FE
100
TcOptionalData
 70
     1
 70
    32
 40
-3.0
  0
TCOPTIONALDATA
  5
402
102
{ACAD_REACTORS
330
401
102
}
330
401
100
TcOptionalData
 70
     1
 70
    32
 40
-3.0
  0
TCOPTIONALDATA
  5
405
102
{ACAD_REACTORS
330
404
102
}
330
404
100
TcOptionalData
 70
     1
 70
    32
 40
-3.0
  0
TCOPTIONALDATA
  5
408
102
{ACAD_REACTORS
330
407
102
}
330
407
100
TcOptionalData
 70
     1
 70
    32
 40
-3.0
  0
TCOPTIONALDATA
  5
40B
102
{ACAD_REACTORS
330
40A
102
}
330
40A
100
TcOptionalData
 70
     1
 70
    32
 40
-3.0
  0
TCOPTIONALDATA
  5
40E
102
{ACAD_REACTORS
330
40D
102
}
330
40D
100
TcOptionalData
 70
     1
 70
    32
 40
-3.0
  0
TCOPTIONALDATA
  5
411
102
{ACAD_REACTORS
330
410
102
}
330
410
100
TcOptionalData
 70
     1
 70
    32
 40
-3.0
  0
TCOPTIONALDATA
  5
414
102
{ACAD_REACTORS
330
413
102
}
330
413
100
TcOptionalData
 70
     1
 70
    32
 40
-3.0
  0
TCOPTIONALDATA
  5
417
102
{ACAD_REACTORS
330
416
102
}
330
416
100
TcOptionalData
 70
     1
 70
    32
 40
-3.0
  0
TCOPTIONALDATA
  5
41A
102
{ACAD_REACTORS
330
419
102
}
330
419
100
TcOptionalData
 70
     1
 70
    32
 40
-3.0
  0
TCOPTIONALDATA
  5
41D
102
{ACAD_REACTORS
330
41C
102
}
330
41C
100
TcOptionalData
 70
     1
 70
    32
 40
-3.0
  0
TCOPTIONALDATA
  5
420
102
{ACAD_REACTORS
330
41F
102
}
330
41F
100
TcOptionalData
 70
     1
 70
    32
 40
-3.0
  0
TCOPTIONALDATA
  5
423
102
{ACAD_REACTORS
330
422
102
}
330
422
100
TcOptionalData
 70
     1
 70
    32
 40
-3.0
  0
TCOPTIONALDATA
  5
426
102
{ACAD_REACTORS
330
425
102
}
330
425
100
TcOptionalData
 70
     1
 70
    32
 40
-3.0
  0
TCOPTIONALDATA
  5
429
102
{ACAD_REACTORS
330
428
102
}
330
428
100
TcOptionalData
 70
     1
 70
    32
 40
-3.0
  0
TCOPTIONALDATA
  5
42C
102
{ACAD_REACTORS
330
42B
102
}
330
42B
100
TcOptionalData
 70
     1
 70
    32
 40
-3.0
  0
TCOPTIONALDATA
  5
42F
102
{ACAD_REACTORS
330
42E
102
}
330
42E
100
TcOptionalData
 70
     1
 70
    32
 40
-3.0
  0
TCOPTIONALDATA
  5
432
102
{ACAD_REACTORS
330
431
102
}
330
431
100
TcOptionalData
 70
     1
 70
    32
 40
-3.0
  0
TCOPTIONALDATA
  5
435
102
{ACAD_REACTORS
330
434
102
}
330
434
100
TcOptionalData
 70
     1
 70
    32
 40
-3.0
  0
TCOPTIONALDATA
  5
438
102
{ACAD_REACTORS
330
437
102
}
330
437
100
TcOptionalData
 70
     1
 70
    32
 40
-3.0
  0
TCOPTIONALDATA
  5
43B
102
{ACAD_REACTORS
330
43A
102
}
330
43A
100
TcOptionalData
 70
     1
 70
    32
 40
-3.0
  0
TCOPTIONALDATA
  5
43E
102
{ACAD_REACTORS
330
43D
102
}
330
43D
100
TcOptionalData
 70
     1
 70
    32
 40
-3.0
  0
TCOPTIONALDATA
  5
441
102
{ACAD_REACTORS
330
440
102
}
330
440
100
TcOptionalData
 70
     1
 70
    32
 40
-3.0
  0
TCOPTIONALDATA
  5
444
102
{ACAD_REACTORS
330
443
102
}
330
443
100
TcOptionalData
 70
     1
 70
    32
 40
-3.0
  0
TCOPTIONALDATA
  5
447
102
{ACAD_REACTORS
330
446
102
}
330
446
100
TcOptionalData
 70
     1
 70
    32
 40
-3.0
  0
TCOPTIONALDATA
  5
44A
102
{ACAD_REACTORS
330
449
102
}
330
449
100
TcOptionalData
 70
     1
 70
    32
 40
-3.0
  0
TCOPTIONALDATA
  5
44D
102
{ACAD_REACTORS
330
44C
102
}
330
44C
100
TcOptionalData
 70
     1
 70
    32
 40
-3.0
  0
TCOPTIONALDATA
  5
450
102
{ACAD_REACTORS
330
44F
102
}
330
44F
100
TcOptionalData
 70
     1
 70
    32
 40
-3.0
  0
TCOPTIONALDATA
  5
453
102
{ACAD_REACTORS
330
452
102
}
330
452
100
TcOptionalData
 70
     1
 70
    32
 40
-3.0
  0
TCOPTIONALDATA
  5
456
102
{ACAD_REACTORS
330
455
102
}
330
455
100
TcOptionalData
 70
     1
 70
    32
 40
-3.0
  0
TCOPTIONALDATA
  5
459
102
{ACAD_REACTORS
330
458
102
}
330
458
100
TcOptionalData
 70
     1
 70
    32
 40
-3.0
  0
TCOPTIONALDATA
  5
45C
102
{ACAD_REACTORS
330
45B
102
}
330
45B
100
TcOptionalData
 70
     1
 70
    32
 40
-3.0
  0
TCOPTIONALDATA
  5
45F
102
{ACAD_REACTORS
330
45E
102
}
330
45E
100
TcOptionalData
 70
     1
 70
    32
 40
-3.0
  0
TCOPTIONALDATA
  5
462
102
{ACAD_REACTORS
330
461
102
}
330
461
100
TcOptionalData
 70
     1
 70
    32
 40
-3.0
  0
TCOPTIONALDATA
  5
465
102
{ACAD_REACTORS
330
464
102
}
330
464
100
TcOptionalData
 70
     1
 70
    32
 40
-3.0
  0
TCOPTIONALDATA
  5
468
102
{ACAD_REACTORS
330
467
102
}
330
467
100
TcOptionalData
 70
     1
 70
    32
 40
-3.0
  0
TCOPTIONALDATA
  5
46B
102
{ACAD_REACTORS
330
46A
102
}
330
46A
100
TcOptionalData
 70
     1
 70
    32
 40
-3.0
  0
TCOPTIONALDATA
  5
46E
102
{ACAD_REACTORS
330
46D
102
}
330
46D
100
TcOptionalData
 70
     1
 70
    32
 40
-3.0
  0
TCOPTIONALDATA
  5
471
102
{ACAD_REACTORS
330
470
102
}
330
470
100
TcOptionalData
 70
     1
 70
    32
 40
-3.0
  0
TCOPTIONALDATA
  5
474
102
{ACAD_REACTORS
330
473
102
}
330
473
100
TcOptionalData
 70
     1
 70
    32
 40
-3.0
  0
TCOPTIONALDATA
  5
477
102
{ACAD_REACTORS
330
476
102
}
330
476
100
TcOptionalData
 70
     1
 70
    32
 40
-3.0
  0
TCOPTIONALDATA
  5
47A
102
{ACAD_REACTORS
330
479
102
}
330
479
100
TcOptionalData
 70
     1
 70
    32
 40
-3.0
  0
TCOPTIONALDATA
  5
47D
102
{ACAD_REACTORS
330
47C
102
}
330
47C
100
TcOptionalData
 70
     1
 70
    32
 40
-3.0
  0
TCOPTIONALDATA
  5
480
102
{ACAD_REACTORS
330
47F
102
}
330
47F
100
TcOptionalData
 70
     1
 70
    32
 40
-3.0
  0
TCOPTIONALDATA
  5
483
102
{ACAD_REACTORS
330
482
102
}
330
482
100
TcOptionalData
 70
     1
 70
    32
 40
-3.0
  0
TCOPTIONALDATA
  5
486
102
{ACAD_REACTORS
330
485
102
}
330
485
100
TcOptionalData
 70
     1
 70
    32
 40
-3.0
  0
TCOPTIONALDATA
  5
489
102
{ACAD_REACTORS
330
488
102
}
330
488
100
TcOptionalData
 70
     1
 70
    32
 40
-3.0
  0
TCOPTIONALDATA
  5
48C
102
{ACAD_REACTORS
330
48B
102
}
330
48B
100
TcOptionalData
 70
     1
 70
    32
 40
-3.0
  0
TCOPTIONALDATA
  5
48F
102
{ACAD_REACTORS
330
48E
102
}
330
48E
100
TcOptionalData
 70
     1
 70
    32
 40
-3.0
  0
TCOPTIONALDATA
  5
492
102
{ACAD_REACTORS
330
491
102
}
330
491
100
TcOptionalData
 70
     1
 70
    32
 40
-3.0
  0
TCOPTIONALDATA
  5
495
102
{ACAD_REACTORS
330
494
102
}
330
494
100
TcOptionalData
 70
     1
 70
    32
 40
-3.0
  0
TCOPTIONALDATA
  5
498
102
{ACAD_REACTORS
330
497
102
}
330
497
100
TcOptionalData
 70
     1
 70
    32
 40
-3.0
  0
TCOPTIONALDATA
  5
49B
102
{ACAD_REACTORS
330
49A
102
}
330
49A
100
TcOptionalData
 70
     1
 70
    32
 40
-3.0
  0
TCOPTIONALDATA
  5
49E
102
{ACAD_REACTORS
330
49D
102
}
330
49D
100
TcOptionalData
 70
     1
 70
    32
 40
-3.0
  0
TCOPTIONALDATA
  5
4A1
102
{ACAD_REACTORS
330
4A0
102
}
330
4A0
100
TcOptionalData
 70
     1
 70
    32
 40
-3.0
  0
TCOPTIONALDATA
  5
4A4
102
{ACAD_REACTORS
330
4A3
102
}
330
4A3
100
TcOptionalData
 70
     1
 70
    32
 40
-3.0
  0
TCOPTIONALDATA
  5
4A7
102
{ACAD_REACTORS
330
4A6
102
}
330
4A6
100
TcOptionalData
 70
     1
 70
    32
 40
-3.0
  0
TCOPTIONALDATA
  5
4AA
102
{ACAD_REACTORS
330
4A9
102
}
330
4A9
100
TcOptionalData
 70
     1
 70
    32
 40
-3.0
  0
TCOPTIONALDATA
  5
4AD
102
{ACAD_REACTORS
330
4AC
102
}
330
4AC
100
TcOptionalData
 70
     1
 70
    32
 40
-3.0
  0
TCOPTIONALDATA
  5
4B0
102
{ACAD_REACTORS
330
4AF
102
}
330
4AF
100
TcOptionalData
 70
     1
 70
    32
 40
-3.0
  0
TCOPTIONALDATA
  5
4B3
102
{ACAD_REACTORS
330
4B2
102
}
330
4B2
100
TcOptionalData
 70
     1
 70
    32
 40
-3.0
  0
TCOPTIONALDATA
  5
4B6
102
{ACAD_REACTORS
330
4B5
102
}
330
4B5
100
TcOptionalData
 70
     1
 70
    32
 40
-3.0
  0
TCOPTIONALDATA
  5
4B9
102
{ACAD_REACTORS
330
4B8
102
}
330
4B8
100
TcOptionalData
 70
     1
 70
    32
 40
-3.0
  0
TCOPTIONALDATA
  5
4BC
102
{ACAD_REACTORS
330
4BB
102
}
330
4BB
100
TcOptionalData
 70
     1
 70
    32
 40
-3.0
  0
TCOPTIONALDATA
  5
4BF
102
{ACAD_REACTORS
330
4BE
102
}
330
4BE
100
TcOptionalData
 70
     1
 70
    32
 40
-3.0
  0
TCOPTIONALDATA
  5
4C2
102
{ACAD_REACTORS
330
4C1
102
}
330
4C1
100
TcOptionalData
 70
     1
 70
    32
 40
-3.0
  0
TCOPTIONALDATA
  5
4C5
102
{ACAD_REACTORS
330
4C4
102
}
330
4C4
100
TcOptionalData
 70
     1
 70
    32
 40
-3.0
  0
TCOPTIONALDATA
  5
4C8
102
{ACAD_REACTORS
330
4C7
102
}
330
4C7
100
TcOptionalData
 70
     1
 70
    32
 40
-3.0
  0
TCOPTIONALDATA
  5
4CB
102
{ACAD_REACTORS
330
4CA
102
}
330
4CA
100
TcOptionalData
 70
     1
 70
    32
 40
-3.0
  0
TCOPTIONALDATA
  5
4CE
102
{ACAD_REACTORS
330
4CD
102
}
330
4CD
100
TcOptionalData
 70
     1
 70
    32
 40
-3.0
  0
TCOPTIONALDATA
  5
4D1
102
{ACAD_REACTORS
330
4D0
102
}
330
4D0
100
TcOptionalData
 70
     1
 70
    32
 40
-3.0
  0
TCOPTIONALDATA
  5
4D4
102
{ACAD_REACTORS
330
4D3
102
}
330
4D3
100
TcOptionalData
 70
     1
 70
    32
 40
-3.0
  0
TCOPTIONALDATA
  5
4D7
102
{ACAD_REACTORS
330
4D6
102
}
330
4D6
100
TcOptionalData
 70
     1
 70
    32
 40
-3.0
  0
TCOPTIONALDATA
  5
4DA
102
{ACAD_REACTORS
330
4D9
102
}
330
4D9
100
TcOptionalData
 70
     1
 70
    32
 40
-3.0
  0
TCOPTIONALDATA
  5
4DD
102
{ACAD_REACTORS
330
4DC
102
}
330
4DC
100
TcOptionalData
 70
     1
 70
    32
 40
-3.0
  0
TCOPTIONALDATA
  5
4E0
102
{ACAD_REACTORS
330
4DF
102
}
330
4DF
100
TcOptionalData
 70
     1
 70
    32
 40
-3.0
  0
TCOPTIONALDATA
  5
4E3
102
{ACAD_REACTORS
330
4E2
102
}
330
4E2
100
TcOptionalData
 70
     1
 70
    32
 40
-3.0
  0
TCOPTIONALDATA
  5
4E6
102
{ACAD_REACTORS
330
4E5
102
}
330
4E5
100
TcOptionalData
 70
     1
 70
    32
 40
-3.0
  0
TCOPTIONALDATA
  5
4E9
102
{ACAD_REACTORS
330
4E8
102
}
330
4E8
100
TcOptionalData
 70
     1
 70
    32
 40
-3.0
  0
TCOPTIONALDATA
  5
4EC
102
{ACAD_REACTORS
330
4EB
102
}
330
4EB
100
TcOptionalData
 70
     1
 70
    32
 40
-3.0
  0
TCOPTIONALDATA
  5
4EF
102
{ACAD_REACTORS
330
4EE
102
}
330
4EE
100
TcOptionalData
 70
     1
 70
    32
 40
-3.0
  0
TCOPTIONALDATA
  5
4F2
102
{ACAD_REACTORS
330
4F1
102
}
330
4F1
100
TcOptionalData
 70
     1
 70
    32
 40
-3.0
  0
TCOPTIONALDATA
  5
4F5
102
{ACAD_REACTORS
330
4F4
102
}
330
4F4
100
TcOptionalData
 70
     1
 70
    32
 40
-3.0
  0
TCOPTIONALDATA
  5
4F8
102
{ACAD_REACTORS
330
4F7
102
}
330
4F7
100
TcOptionalData
 70
     1
 70
    32
 40
-3.0
  0
TCOPTIONALDATA
  5
4FB
102
{ACAD_REACTORS
330
4FA
102
}
330
4FA
100
TcOptionalData
 70
     1
 70
    32
 40
-3.0
  0
TCOPTIONALDATA
  5
4FE
102
{ACAD_REACTORS
330
4FD
102
}
330
4FD
100
TcOptionalData
 70
     1
 70
    32
 40
-3.0
  0
TCOPTIONALDATA
  5
501
102
{ACAD_REACTORS
330
500
102
}
330
500
100
TcOptionalData
 70
     1
 70
    32
 40
-3.0
  0
TCOPTIONALDATA
  5
504
102
{ACAD_REACTORS
330
503
102
}
330
503
100
TcOptionalData
 70
     1
 70
    32
 40
-3.0
  0
TCOPTIONALDATA
  5
507
102
{ACAD_REACTORS
330
506
102
}
330
506
100
TcOptionalData
 70
     1
 70
    32
 40
-3.0
  0
TCOPTIONALDATA
  5
50A
102
{ACAD_REACTORS
330
509
102
}
330
509
100
TcOptionalData
 70
     1
 70
    32
 40
-3.0
  0
TCOPTIONALDATA
  5
50D
102
{ACAD_REACTORS
330
50C
102
}
330
50C
100
TcOptionalData
 70
     1
 70
    32
 40
-3.0
  0
TCOPTIONALDATA
  5
510
102
{ACAD_REACTORS
330
50F
102
}
330
50F
100
TcOptionalData
 70
     1
 70
    32
 40
-3.0
  0
TCOPTIONALDATA
  5
513
102
{ACAD_REACTORS
330
512
102
}
330
512
100
TcOptionalData
 70
     1
 70
    32
 40
-3.0
  0
TCOPTIONALDATA
  5
516
102
{ACAD_REACTORS
330
515
102
}
330
515
100
TcOptionalData
 70
     1
 70
    32
 40
-3.0
  0
TCOPTIONALDATA
  5
519
102
{ACAD_REACTORS
330
518
102
}
330
518
100
TcOptionalData
 70
     1
 70
    32
 40
-3.0
  0
TCOPTIONALDATA
  5
51C
102
{ACAD_REACTORS
330
51B
102
}
330
51B
100
TcOptionalData
 70
     1
 70
    32
 40
-3.0
  0
TCOPTIONALDATA
  5
51F
102
{ACAD_REACTORS
330
51E
102
}
330
51E
100
TcOptionalData
 70
     1
 70
    32
 40
-3.0
  0
TCOPTIONALDATA
  5
522
102
{ACAD_REACTORS
330
521
102
}
330
521
100
TcOptionalData
 70
     1
 70
    32
 40
-3.0
  0
TCOPTIONALDATA
  5
525
102
{ACAD_REACTORS
330
524
102
}
330
524
100
TcOptionalData
 70
     1
 70
    32
 40
-3.0
  0
TCOPTIONALDATA
  5
528
102
{ACAD_REACTORS
330
527
102
}
330
527
100
TcOptionalData
 70
     1
 70
    32
 40
-3.0
  0
TCOPTIONALDATA
  5
52C
102
{ACAD_REACTORS
330
52B
102
}
330
52B
100
TcOptionalData
 70
     1
 70
    32
 40
-3.0
  0
TCOPTIONALDATA
  5
52F
102
{ACAD_REACTORS
330
52E
102
}
330
52E
100
TcOptionalData
 70
     1
 70
    32
 40
-3.0
  0
TCOPTIONALDATA
  5
532
102
{ACAD_REACTORS
330
531
102
}
330
531
100
TcOptionalData
 70
     1
 70
    32
 40
-3.0
  0
TCOPTIONALDATA
  5
535
102
{ACAD_REACTORS
330
534
102
}
330
534
100
TcOptionalData
 70
     1
 70
    32
 40
-3.0
  0
TCOPTIONALDATA
  5
538
102
{ACAD_REACTORS
330
537
102
}
330
537
100
TcOptionalData
 70
     1
 70
    32
 40
-3.0
  0
TCOPTIONALDATA
  5
53B
102
{ACAD_REACTORS
330
53A
102
}
330
53A
100
TcOptionalData
 70
     1
 70
    32
 40
-3.0
  0
TCOPTIONALDATA
  5
53E
102
{ACAD_REACTORS
330
53D
102
}
330
53D
100
TcOptionalData
 70
     1
 70
    32
 40
-3.0
  0
TCOPTIONALDATA
  5
541
102
{ACAD_REACTORS
330
540
102
}
330
540
100
TcOptionalData
 70
     1
 70
    32
 40
-3.0
  0
TCOPTIONALDATA
  5
544
102
{ACAD_REACTORS
330
543
102
}
330
543
100
TcOptionalData
 70
     1
 70
    32
 40
-3.0
  0
TCOPTIONALDATA
  5
547
102
{ACAD_REACTORS
330
546
102
}
330
546
100
TcOptionalData
 70
     1
 70
    32
 40
-3.0
  0
TCOPTIONALDATA
  5
54A
102
{ACAD_REACTORS
330
549
102
}
330
549
100
TcOptionalData
 70
     1
 70
    32
 40
-3.0
  0
TCOPTIONALDATA
  5
54D
102
{ACAD_REACTORS
330
54C
102
}
330
54C
100
TcOptionalData
 70
     1
 70
    32
 40
-3.0
  0
TCOPTIONALDATA
  5
550
102
{ACAD_REACTORS
330
54F
102
}
330
54F
100
TcOptionalData
 70
     1
 70
    32
 40
-3.0
  0
TCOPTIONALDATA
  5
553
102
{ACAD_REACTORS
330
552
102
}
330
552
100
TcOptionalData
 70
     1
 70
    32
 40
-3.0
  0
TCOPTIONALDATA
  5
556
102
{ACAD_REACTORS
330
555
102
}
330
555
100
TcOptionalData
 70
     1
 70
    32
 40
-3.0
  0
TCOPTIONALDATA
  5
559
102
{ACAD_REACTORS
330
558
102
}
330
558
100
TcOptionalData
 70
     1
 70
    32
 40
-3.0
  0
TCOPTIONALDATA
  5
55C
102
{ACAD_REACTORS
330
55B
102
}
330
55B
100
TcOptionalData
 70
     1
 70
    32
 40
-3.0
  0
TCOPTIONALDATA
  5
55F
102
{ACAD_REACTORS
330
55E
102
}
330
55E
100
TcOptionalData
 70
     1
 70
    32
 40
-3.0
  0
TCOPTIONALDATA
  5
562
102
{ACAD_REACTORS
330
561
102
}
330
561
100
TcOptionalData
 70
     1
 70
    32
 40
-3.0
  0
TCOPTIONALDATA
  5
565
102
{ACAD_REACTORS
330
564
102
}
330
564
100
TcOptionalData
 70
     1
 70
    32
 40
-3.0
  0
TCOPTIONALDATA
  5
568
102
{ACAD_REACTORS
330
567
102
}
330
567
100
TcOptionalData
 70
     1
 70
    32
 40
-3.0
  0
TCOPTIONALDATA
  5
56B
102
{ACAD_REACTORS
330
56A
102
}
330
56A
100
TcOptionalData
 70
     1
 70
    32
 40
-3.0
  0
TCOPTIONALDATA
  5
56E
102
{ACAD_REACTORS
330
56D
102
}
330
56D
100
TcOptionalData
 70
     1
 70
    32
 40
-3.0
  0
TCOPTIONALDATA
  5
571
102
{ACAD_REACTORS
330
570
102
}
330
570
100
TcOptionalData
 70
     1
 70
    32
 40
-3.0
  0
TCOPTIONALDATA
  5
574
102
{ACAD_REACTORS
330
573
102
}
330
573
100
TcOptionalData
 70
     1
 70
    32
 40
-3.0
  0
TCOPTIONALDATA
  5
577
102
{ACAD_REACTORS
330
576
102
}
330
576
100
TcOptionalData
 70
     1
 70
    32
 40
-3.0
  0
TCOPTIONALDATA
  5
57A
102
{ACAD_REACTORS
330
579
102
}
330
579
100
TcOptionalData
 70
     1
 70
    32
 40
-3.0
  0
TCOPTIONALDATA
  5
57D
102
{ACAD_REACTORS
330
57C
102
}
330
57C
100
TcOptionalData
 70
     1
 70
    32
 40
-3.0
  0
TCOPTIONALDATA
  5
580
102
{ACAD_REACTORS
330
57F
102
}
330
57F
100
TcOptionalData
 70
     1
 70
    32
 40
-3.0
  0
TCOPTIONALDATA
  5
583
102
{ACAD_REACTORS
330
582
102
}
330
582
100
TcOptionalData
 70
     1
 70
    32
 40
-3.0
  0
TCOPTIONALDATA
  5
586
102
{ACAD_REACTORS
330
585
102
}
330
585
100
TcOptionalData
 70
     1
 70
    32
 40
-3.0
  0
TCOPTIONALDATA
  5
589
102
{ACAD_REACTORS
330
588
102
}
330
588
100
TcOptionalData
 70
     1
 70
    32
 40
-3.0
  0
TCOPTIONALDATA
  5
58C
102
{ACAD_REACTORS
330
58B
102
}
330
58B
100
TcOptionalData
 70
     1
 70
    32
 40
-3.0
  0
TCOPTIONALDATA
  5
58F
102
{ACAD_REACTORS
330
58E
102
}
330
58E
100
TcOptionalData
 70
     1
 70
    32
 40
-3.0
  0
TCOPTIONALDATA
  5
592
102
{ACAD_REACTORS
330
591
102
}
330
591
100
TcOptionalData
 70
     1
 70
    32
 40
-3.0
  0
TCOPTIONALDATA
  5
595
102
{ACAD_REACTORS
330
594
102
}
330
594
100
TcOptionalData
 70
     1
 70
    32
 40
-3.0
  0
TCOPTIONALDATA
  5
598
102
{ACAD_REACTORS
330
597
102
}
330
597
100
TcOptionalData
 70
     1
 70
    32
 40
-3.0
  0
TCOPTIONALDATA
  5
59B
102
{ACAD_REACTORS
330
59A
102
}
330
59A
100
TcOptionalData
 70
     1
 70
    32
 40
-3.0
  0
TCOPTIONALDATA
  5
59E
102
{ACAD_REACTORS
330
59D
102
}
330
59D
100
TcOptionalData
 70
     1
 70
    32
 40
-3.0
  0
TCOPTIONALDATA
  5
5A1
102
{ACAD_REACTORS
330
5A0
102
}
330
5A0
100
TcOptionalData
 70
     1
 70
    32
 40
-3.0
  0
TCOPTIONALDATA
  5
5A4
102
{ACAD_REACTORS
330
5A3
102
}
330
5A3
100
TcOptionalData
 70
     1
 70
    32
 40
-3.0
  0
TCOPTIONALDATA
  5
5A7
102
{ACAD_REACTORS
330
5A6
102
}
330
5A6
100
TcOptionalData
 70
     1
 70
    32
 40
-3.0
  0
TCOPTIONALDATA
  5
5AA
102
{ACAD_REACTORS
330
5A9
102
}
330
5A9
100
TcOptionalData
 70
     1
 70
    32
 40
-3.0
  0
TCOPTIONALDATA
  5
5AD
102
{ACAD_REACTORS
330
5AC
102
}
330
5AC
100
TcOptionalData
 70
     1
 70
    32
 40
-3.0
  0
TCOPTIONALDATA
  5
5B0
102
{ACAD_REACTORS
330
5AF
102
}
330
5AF
100
TcOptionalData
 70
     1
 70
    32
 40
-3.0
  0
TCOPTIONALDATA
  5
5B3
102
{ACAD_REACTORS
330
5B2
102
}
330
5B2
100
TcOptionalData
 70
     1
 70
    32
 40
-3.0
  0
TCOPTIONALDATA
  5
5B6
102
{ACAD_REACTORS
330
5B5
102
}
330
5B5
100
TcOptionalData
 70
     1
 70
    32
 40
-3.0
  0
TCOPTIONALDATA
  5
5B9
102
{ACAD_REACTORS
330
5B8
102
}
330
5B8
100
TcOptionalData
 70
     1
 70
    32
 40
-3.0
  0
TCOPTIONALDATA
  5
5BC
102
{ACAD_REACTORS
330
5BB
102
}
330
5BB
100
TcOptionalData
 70
     1
 70
    32
 40
-3.0
  0
TCOPTIONALDATA
  5
5BF
102
{ACAD_REACTORS
330
5BE
102
}
330
5BE
100
TcOptionalData
 70
     1
 70
    32
 40
-3.0
  0
TCOPTIONALDATA
  5
5C2
102
{ACAD_REACTORS
330
5C1
102
}
330
5C1
100
TcOptionalData
 70
     1
 70
    32
 40
-3.0
  0
TCOPTIONALDATA
  5
5C5
102
{ACAD_REACTORS
330
5C4
102
}
330
5C4
100
TcOptionalData
 70
     1
 70
    32
 40
-3.0
  0
TCOPTIONALDATA
  5
5C8
102
{ACAD_REACTORS
330
5C7
102
}
330
5C7
100
TcOptionalData
 70
     1
 70
    32
 40
-3.0
  0
TCOPTIONALDATA
  5
5CB
102
{ACAD_REACTORS
330
5CA
102
}
330
5CA
100
TcOptionalData
 70
     1
 70
    32
 40
-3.0
  0
TCOPTIONALDATA
  5
5CE
102
{ACAD_REACTORS
330
5CD
102
}
330
5CD
100
TcOptionalData
 70
     1
 70
    32
 40
-3.0
  0
TCOPTIONALDATA
  5
5D1
102
{ACAD_REACTORS
330
5D0
102
}
330
5D0
100
TcOptionalData
 70
     1
 70
    32
 40
-3.0
  0
TCOPTIONALDATA
  5
5D4
102
{ACAD_REACTORS
330
5D3
102
}
330
5D3
100
TcOptionalData
 70
     1
 70
    32
 40
-3.0
  0
TCOPTIONALDATA
  5
5D7
102
{ACAD_REACTORS
330
5D6
102
}
330
5D6
100
TcOptionalData
 70
     1
 70
    32
 40
-3.0
  0
TCOPTIONALDATA
  5
5DA
102
{ACAD_REACTORS
330
5D9
102
}
330
5D9
100
TcOptionalData
 70
     1
 70
    32
 40
-3.0
  0
TCOPTIONALDATA
  5
5DD
102
{ACAD_REACTORS
330
5DC
102
}
330
5DC
100
TcOptionalData
 70
     1
 70
    32
 40
-3.0
  0
TCOPTIONALDATA
  5
5E0
102
{ACAD_REACTORS
330
5DF
102
}
330
5DF
100
TcOptionalData
 70
     1
 70
    32
 40
-3.0
  0
TCOPTIONALDATA
  5
5E3
102
{ACAD_REACTORS
330
5E2
102
}
330
5E2
100
TcOptionalData
 70
     1
 70
    32
 40
-3.0
  0
TCOPTIONALDATA
  5
5E6
102
{ACAD_REACTORS
330
5E5
102
}
330
5E5
100
TcOptionalData
 70
     1
 70
    32
 40
-3.0
  0
TCOPTIONALDATA
  5
5E9
102
{ACAD_REACTORS
330
5E8
102
}
330
5E8
100
TcOptionalData
 70
     1
 70
    32
 40
-3.0
  0
TCOPTIONALDATA
  5
5EC
102
{ACAD_REACTORS
330
5EB
102
}
330
5EB
100
TcOptionalData
 70
     1
 70
    32
 40
-3.0
  0
TCOPTIONALDATA
  5
5EF
102
{ACAD_REACTORS
330
5EE
102
}
330
5EE
100
TcOptionalData
 70
     1
 70
    32
 40
-3.0
  0
TCOPTIONALDATA
  5
5F2
102
{ACAD_REACTORS
330
5F1
102
}
330
5F1
100
TcOptionalData
 70
     1
 70
    32
 40
-3.0
  0
TCOPTIONALDATA
  5
5F5
102
{ACAD_REACTORS
330
5F4
102
}
330
5F4
100
TcOptionalData
 70
     1
 70
    32
 40
-3.0
  0
TCOPTIONALDATA
  5
5F8
102
{ACAD_REACTORS
330
5F7
102
}
330
5F7
100
TcOptionalData
 70
     1
 70
    32
 40
-3.0
  0
TCOPTIONALDATA
  5
5FB
102
{ACAD_REACTORS
330
5FA
102
}
330
5FA
100
TcOptionalData
 70
     1
 70
    32
 40
-3.0
  0
TCOPTIONALDATA
  5
5FE
102
{ACAD_REACTORS
330
5FD
102
}
330
5FD
100
TcOptionalData
 70
     1
 70
    32
 40
-3.0
  0
TCOPTIONALDATA
  5
601
102
{ACAD_REACTORS
330
600
102
}
330
600
100
TcOptionalData
 70
     1
 70
    32
 40
-3.0
  0
TCOPTIONALDATA
  5
604
102
{ACAD_REACTORS
330
603
102
}
330
603
100
TcOptionalData
 70
     1
 70
    32
 40
-3.0
  0
TCOPTIONALDATA
  5
607
102
{ACAD_REACTORS
330
606
102
}
330
606
100
TcOptionalData
 70
     1
 70
    32
 40
-3.0
  0
TCOPTIONALDATA
  5
60A
102
{ACAD_REACTORS
330
609
102
}
330
609
100
TcOptionalData
 70
     1
 70
    32
 40
-3.0
  0
TCOPTIONALDATA
  5
60D
102
{ACAD_REACTORS
330
60C
102
}
330
60C
100
TcOptionalData
 70
     1
 70
    32
 40
-3.0
  0
TCOPTIONALDATA
  5
610
102
{ACAD_REACTORS
330
60F
102
}
330
60F
100
TcOptionalData
 70
     1
 70
    32
 40
-3.0
  0
TCOPTIONALDATA
  5
613
102
{ACAD_REACTORS
330
612
102
}
330
612
100
TcOptionalData
 70
     1
 70
    32
 40
-3.0
  0
TCOPTIONALDATA
  5
616
102
{ACAD_REACTORS
330
615
102
}
330
615
100
TcOptionalData
 70
     1
 70
    32
 40
-3.0
  0
LAYOUT
  5
1E
102
{ACAD_REACTORS
330
1A
102
}
330
1A
100
AcDbPlotSettings
  1

  2
none_device
  4
ISO_A4_(210.00_x_297.00_MM)
  6

 40
4.18041658401489
 41
13.23975372314453
 42
4.18040466308594
 43
3.17498779296875
 44
210.0
 45
297.0
 46
-1.20634217591106
 47
0.0923129968142611
 48
0.0
 49
0.0
140
0.0
141
0.0
142
1.0
143
1.0
 70
   672
 72
     1
 73
     1
 74
     5
  7

 75
    16
 76
     0
 77
     2
 78
   300
147
1.0
148
0.0
149
0.0
100
AcDbLayout
  1
Layout1
 70
     1
 71
     1
 10
-2.97407440810383
 20
-13.33206671995879
 11
294.0259255918962
 21
196.6679332800412
 12
0.0
 22
0.0
 32
0.0
 14
-2.97407440810383
 24
-13.33206671995879
 34
0.0
 15
294.0259255918962
 25
196.6679332800412
 35
0.0
146
0.0
 13
0.0
 23
0.0
 33
0.0
 16
1.0
 26
0.0
 36
0.0
 17
0.0
 27
1.0
 37
0.0
 76
     0
330
1B
331
618
  0
LAYOUT
  5
3C
102
{ACAD_REACTORS
330
1A
102
}
330
1A
100
AcDbPlotSettings
  1

  2
none_device
  4
ISO_C5_(229.00_x_162.00_MM)
  6

 40
0.0
 41
0.0
 42
0.0
 43
0.0
 44
229.0
 45
162.0
 46
0.0
 47
0.0
 48
0.0
 49
0.0
140
0.0
141
0.0
142
1.0
143
1.0
 70
   672
 72
     1
 73
     0
 74
     5
  7

 75
    16
 76
     0
 77
     2
 78
   300
147
1.0
148
0.0
149
0.0
100
AcDbLayout
  1
Layout2
 70
     1
 71
     2
 10
0.0
 20
0.0
 11
162.0
 21
229.0
 12
0.0
 22
0.0
 32
0.0
 14
0.0
 24
0.0
 34
0.0
 15
162.0
 25
229.0
 35
0.0
146
0.0
 13
0.0
 23
0.0
 33
0.0
 16
1.0
 26
0.0
 36
0.0
 17
0.0
 27
1.0
 37
0.0
 76
     0
330
3B
331
61A
  0
LAYOUT
  5
22
102
{ACAD_REACTORS
330
1A
102
}
330
1A
100
AcDbPlotSettings
  1

  2
none_device
  4
ISO_A4_(210.00_x_297.00_MM)
  6

 40
4.18041658401489
 41
13.23975372314453
 42
4.18040466308594
 43
3.17498779296875
 44
210.0
 45
297.0
 46
3.42041747231807
 47
-83.08387226732638
 48
0.0
 49
0.0
140
0.0
141
0.0
142
1.0
143
1.264641
 70
  1696
 72
     1
 73
     1
 74
     0
  7

 75
     0
 76
     0
 77
     2
 78
   300
147
1.0
148
0.0
149
0.0
100
AcDbLayout
  1
Model
 70
     1
 71
     0
 10
-9.61232638183497
 20
88.32773591983268
 11
365.9860863454973
 21
353.9023711815827
 12
0.0
 22
0.0
 32
0.0
 14
-9.61232638183497
 24
88.32773591983268
 34
0.0
 15
365.9860863454973
 25
353.9023711815827
 35
0.0
146
0.0
 13
0.0
 23
0.0
 33
0.0
 16
1.0
 26
0.0
 36
0.0
 17
0.0
 27
1.0
 37
0.0
 76
     0
330
1F
331
29
  0
MLINESTYLE
  5
18
102
{ACAD_REACTORS
330
17
102
}
330
17
100
AcDbMlineStyle
  2
Standard
 70
     0
  3

 62
   256
 51
90.0
 52
90.0
 71
     6
 49
0.5
 62
   256
  6
BYLAYER
 49
-0.5
 62
   256
  6
BYLAYER
 49
0.5
 62
   256
  6
BYLAYER
 49
-0.5
 62
   256
  6
BYLAYER
 49
0.5
 62
   256
  6
BYLAYER
 49
-0.5
 62
   256
  6
BYLAYER
  0
ACDBPLACEHOLDER
  5
F
102
{ACAD_REACTORS
330
E
102
}
330
E
  0
VISUALSTYLE
  5
2F
102
{ACAD_REACTORS
330
2A
102
}
330
2A
100
AcDbVisualStyle
  2
2dWireframe
 70
     4
 71
     0
 72
     2
 73
     0
 90
        0
 40
-0.6
 41
-30.0
 62
     5
 63
     7
421
 16777215
 74
     1
 91
        4
 64
     7
 65
   257
 75
     1
175
     1
 42
1.0
 92
        0
 66
   257
 43
1.0
 76
     1
 77
     6
 78
     2
 67
     7
 79
     5
170
     0
171
     0
290
     0
174
     0
 93
        1
 44
0.0
173
     0
291
     0
 45
0.0
1001
ACAD
1000
AcDbSavedByObjectVersion
1070
     0
  0
VISUALSTYLE
  5
31
102
{ACAD_REACTORS
330
2A
102
}
330
2A
100
AcDbVisualStyle
  2
3D Hidden
 70
     6
 71
     1
 72
     2
 73
     2
 90
        0
 40
-0.6
 41
-30.0
 62
     5
 63
     7
421
 16777215
 74
     2
 91
        2
 64
     7
 65
   257
 75
     2
175
     1
 42
40.0
 92
        0
 66
   257
 43
1.0
 76
     1
 77
     6
 78
     2
 67
     7
 79
     3
170
     0
171
     0
290
     0
174
     0
 93
        1
 44
0.0
173
     0
291
     0
 45
0.0
1001
ACAD
1000
AcDbSavedByObjectVersion
1070
     0
  0
VISUALSTYLE
  5
30
102
{ACAD_REACTORS
330
2A
102
}
330
2A
100
AcDbVisualStyle
  2
3dWireframe
 70
     5
 71
     0
 72
     2
 73
     0
 90
        0
 40
-0.6
 41
-30.0
 62
     5
 63
     7
421
 16777215
 74
     1
 91
        4
 64
     7
 65
   257
 75
     1
175
     1
 42
1.0
 92
        0
 66
   257
 43
1.0
 76
     1
 77
     6
 78
     2
 67
     7
 79
     5
170
     0
171
     0
290
     0
174
     0
 93
        1
 44
0.0
173
     0
291
     0
 45
0.0
1001
ACAD
1000
AcDbSavedByObjectVersion
1070
     0
  0
VISUALSTYLE
  5
32
102
{ACAD_REACTORS
330
2A
102
}
330
2A
100
AcDbVisualStyle
  2
Basic
 70
     7
 71
     1
 72
     0
 73
     1
 90
        0
 40
-0.6
 41
-30.0
 62
     5
 63
     7
421
 16777215
 74
     0
 91
        4
 64
     7
 65
   257
 75
     1
175
     1
 42
1.0
 92
        8
 66
     7
 43
1.0
 76
     1
 77
     6
 78
     2
 67
     7
 79
     5
170
     0
171
     0
290
     0
174
     0
 93
        1
 44
0.0
173
     0
291
     1
 45
0.0
1001
ACAD
1000
AcDbSavedByObjectVersion
1070
     0
  0
VISUALSTYLE
  5
36
102
{ACAD_REACTORS
330
2A
102
}
330
2A
100
AcDbVisualStyle
  2
Brighten
 70
    12
 71
     2
 72
     2
 73
     0
 90
        0
 40
-0.6
 41
-30.0
 62
     5
 63
     7
421
 16777215
 74
     1
 91
        4
 64
     7
 65
   257
 75
     1
175
     1
 42
1.0
 92
        8
 66
     7
 43
1.0
 76
     1
 77
     6
 78
     2
 67
     7
 79
     5
170
     0
171
     0
290
     0
174
     0
 93
        1
 44
50.0
173
     0
291
     1
 45
0.0
1001
ACAD
1000
AcDbSavedByObjectVersion
1070
     0
  0
VISUALSTYLE
  5
3A
102
{ACAD_REACTORS
330
2A
102
}
330
2A
100
AcDbVisualStyle
  2
ColorChange
 70
    16
 71
     2
 72
     2
 73
     3
 90
        0
 40
-0.6
 41
-30.0
 62
     5
 63
     8
421
  8421504
 74
     1
 91
        4
 64
     7
 65
   257
 75
     1
175
     1
 42
1.0
 92
        8
 66
     8
424
  8421504
 43
1.0
 76
     1
 77
     6
 78
     2
 67
     7
 79
     5
170
     0
171
     0
290
     0
174
     0
 93
        1
 44
0.0
173
     0
291
     1
 45
0.0
1001
ACAD
1000
AcDbSavedByObjectVersion
1070
     0
  0
VISUALSTYLE
  5
34
102
{ACAD_REACTORS
330
2A
102
}
330
2A
100
AcDbVisualStyle
  2
Conceptual
 70
     9
 71
     3
 72
     2
 73
     0
 90
        0
 40
-0.6
 41
-30.0
 62
     5
 63
     7
421
 16777215
 74
     2
 91
        2
 64
     7
 65
   257
 75
     1
175
     1
 42
40.0
 92
        8
 66
     7
 43
1.0
 76
     1
 77
     6
 78
     2
 67
     7
 79
     3
170
     0
171
     0
290
     0
174
     0
 93
        1
 44
0.0
173
     0
291
     0
 45
0.0
1001
ACAD
1000
AcDbSavedByObjectVersion
1070
     0
  0
VISUALSTYLE
  5
35
102
{ACAD_REACTORS
330
2A
102
}
330
2A
100
AcDbVisualStyle
  2
Dim
 70
    11
 71
     2
 72
     2
 73
     0
 90
        0
 40
-0.6
 41
-30.0
 62
     5
 63
     7
421
 16777215
 74
     1
 91
        4
 64
     7
 65
   257
 75
     1
175
     1
 42
1.0
 92
        8
 66
     7
 43
1.0
 76
     1
 77
     6
 78
     2
 67
     7
 79
     5
170
     0
171
     0
290
     0
174
     0
 93
        1
 44
-50.0
173
     0
291
     1
 45
0.0
1001
ACAD
1000
AcDbSavedByObjectVersion
1070
     0
  0
VISUALSTYLE
  5
39
102
{ACAD_REACTORS
330
2A
102
}
330
2A
100
AcDbVisualStyle
  2
Facepattern
 70
    15
 71
     2
 72
     2
 73
     0
 90
        0
 40
-0.6
 41
-30.0
 62
     5
 63
     7
421
 16777215
 74
     1
 91
        4
 64
     7
 65
   257
 75
     1
175
     1
 42
1.0
 92
        8
 66
     7
 43
1.0
 76
     1
 77
     6
 78
     2
 67
     7
 79
     5
170
     0
171
     0
290
     0
174
     0
 93
        1
 44
0.0
173
     0
291
     1
 45
0.0
1001
ACAD
1000
AcDbSavedByObjectVersion
1070
     0
  0
VISUALSTYLE
  5
2B
102
{ACAD_REACTORS
330
2A
102
}
330
2A
100
AcDbVisualStyle
  2
Flat
 70
     0
 71
     2
 72
     1
 73
     1
 90
        2
 40
-0.6
 41
30.0
 62
     5
 63
     7
421
 16777215
 74
     0
 91
        4
 64
     7
 65
   257
 75
     1
175
     1
 42
1.0
 92
        8
 66
     7
 43
1.0
 76
     1
 77
     6
 78
     2
 67
     7
 79
     5
170
     0
171
     0
290
     0
174
     0
 93
       13
 44
0.0
173
     0
291
     1
 45
0.0
1001
ACAD
1000
AcDbSavedByObjectVersion
1070
     0
  0
VISUALSTYLE
  5
2C
102
{ACAD_REACTORS
330
2A
102
}
330
2A
100
AcDbVisualStyle
  2
FlatWithEdges
 70
     1
 71
     2
 72
     1
 73
     1
 90
        2
 40
-0.6
 41
30.0
 62
     5
 63
     7
421
 16777215
 74
     1
 91
        4
 64
     7
 65
   257
 75
     1
175
     1
 42
1.0
 92
        0
 66
   257
 43
1.0
 76
     1
 77
     6
 78
     2
 67
     7
 79
     5
170
     0
171
     0
290
     0
174
     0
 93
       13
 44
0.0
173
     0
291
     1
 45
0.0
1001
ACAD
1000
AcDbSavedByObjectVersion
1070
     0
  0
VISUALSTYLE
  5
2D
102
{ACAD_REACTORS
330
2A
102
}
330
2A
100
AcDbVisualStyle
  2
Gouraud
 70
     2
 71
     2
 72
     2
 73
     1
 90
        2
 40
-0.6
 41
30.0
 62
     5
 63
     7
421
 16777215
 74
     0
 91
        4
 64
     7
 65
   257
 75
     1
175
     1
 42
1.0
 92
        0
 66
     7
 43
1.0
 76
     1
 77
     6
 78
     2
 67
     7
 79
     5
170
     0
171
     0
290
     0
174
     0
 93
       13
 44
0.0
173
     0
291
     1
 45
0.0
1001
ACAD
1000
AcDbSavedByObjectVersion
1070
     0
  0
VISUALSTYLE
  5
2E
102
{ACAD_REACTORS
330
2A
102
}
330
2A
100
AcDbVisualStyle
  2
GouraudWithEdges
 70
     3
 71
     2
 72
     2
 73
     1
 90
        2
 40
-0.6
 41
30.0
 62
     5
 63
     7
421
 16777215
 74
     1
 91
        4
 64
     7
 65
   257
 75
     1
175
     1
 42
1.0
 92
        0
 66
   257
 43
1.0
 76
     1
 77
     6
 78
     2
 67
     7
 79
     5
170
     0
171
     0
290
     0
174
     0
 93
       13
 44
0.0
173
     0
291
     1
 45
0.0
1001
ACAD
1000
AcDbSavedByObjectVersion
1070
     0
  0
VISUALSTYLE
  5
38
102
{ACAD_REACTORS
330
2A
102
}
330
2A
100
AcDbVisualStyle
  2
Linepattern
 70
    14
 71
     2
 72
     2
 73
     0
 90
        0
 40
-0.6
 41
-30.0
 62
     5
 63
     7
421
 16777215
 74
     1
 91
        4
 64
     7
 65
   257
 75
     7
175
     7
 42
1.0
 92
        8
 66
     7
 43
1.0
 76
     1
 77
     6
 78
     2
 67
     7
 79
     5
170
     0
171
     0
290
     0
174
     0
 93
        1
 44
0.0
173
     0
291
     1
 45
0.0
1001
ACAD
1000
AcDbSavedByObjectVersion
1070
     0
  0
VISUALSTYLE
  5
33
102
{ACAD_REACTORS
330
2A
102
}
330
2A
100
AcDbVisualStyle
  2
Realistic
 70
     8
 71
     2
 72
     2
 73
     0
 90
        0
 40
-0.6
 41
-30.0
 62
     5
 63
     7
421
 16777215
 74
     1
 91
        0
 64
     7
 65
   257
 75
     1
175
     1
 42
1.0
 92
        8
 66
     8
424
  7895160
 43
1.0
 76
     1
 77
     6
 78
     2
 67
     7
 79
     5
170
     0
171
     0
290
     0
174
     0
 93
       13
 44
0.0
173
     0
291
     0
 45
0.0
1001
ACAD
1000
AcDbSavedByObjectVersion
1070
     0
  0
VISUALSTYLE
  5
37
102
{ACAD_REACTORS
330
2A
102
}
330
2A
100
AcDbVisualStyle
  2
Thicken
 70
    13
 71
     2
 72
     2
 73
     0
 90
        0
 40
-0.6
 41
-30.0
 62
     5
 63
     7
421
 16777215
 74
     1
 91
        4
 64
     7
 65
   257
 75
     1
175
     1
 42
1.0
 92
       12
 66
     7
 43
1.0
 76
     1
 77
     6
 78
     2
 67
     7
 79
     5
170
     0
171
     0
290
     0
174
     0
 93
        1
 44
0.0
173
     0
291
     1
 45
0.0
1001
ACAD
1000
AcDbSavedByObjectVersion
1070
     0
  0
ENDSEC
  0
SECTION
  2
THUMBNAILIMAGE
 90
    16364
310
28000000B40000005500000001000800000000000000000000000000000000000000000000000000FFFFFF000000FF0000FFFF0000FF0000FFFF0000FF000000FF00FF000000000080808000C0C0C0000000FF007F7FFF000000A5005252A50000007F003F3F7F0000004C0026264C000000260013132600003FFF007F9FFF
310
000029A5005267A500001F7F003F4F7F0000134C00262F4C000009260013172600007FFF007FBFFF000052A500527CA500003F7F003F5F7F0000264C0026394C0000132600131C260000BFFF007FDFFF00007CA5005291A500005F7F003F6F7F0000394C0026424C00001C26001321260000FFFF007FFFFF0000A5A50052A5
310
A500007F7F003F7F7F00004C4C00264C4C00002626001326260000FFBF007FFFDF0000A57C0052A59100007F5F003F7F6F00004C3900264C420000261C001326210000FF7F007FFFBF0000A5520052A57C00007F3F003F7F5F00004C2600264C39000026130013261C0000FF3F007FFF9F0000A5290052A56700007F1F003F
310
7F4F00004C1300264C2F00002609001326170000FF00007FFF7F0000A5000052A55200007F00003F7F3F00004C0000264C260000260000132613003FFF00009FFF7F0029A5000067A552001F7F00004F7F3F00134C00002F4C260009260000172613007FFF0000BFFF7F0052A500007CA552003F7F00005F7F3F00264C0000
310
394C2600132600001C261300BFFF0000DFFF7F007CA5000091A552005F7F00006F7F3F00394C0000424C26001C26000021261300FFFF0000FFFF7F00A5A50000A5A552007F7F00007F7F3F004C4C00004C4C26002626000026261300FFBF0000FFDF7F00A57C0000A59152007F5F00007F6F3F004C3900004C422600261C00
310
0026211300FF7F0000FFBF7F00A5520000A57C52007F3F00007F5F3F004C2600004C39260026130000261C1300FF3F0000FF9F7F00A5290000A56752007F1F00007F4F3F004C1300004C2F26002609000026171300FF000000FF7F7F00A5000000A55252007F0000007F3F3F004C0000004C2626002600000026131300FF00
310
3F00FF7F9F00A5002900A55267007F001F007F3F4F004C0013004C262F002600090026131700FF007F00FF7FBF00A5005200A5527C007F003F007F3F5F004C0026004C2639002600130026131C00FF00BF00FF7FDF00A5007C00A55291007F005F007F3F6F004C0039004C26420026001C0026132100FF00FF00FF7FFF00A5
310
00A500A552A5007F007F007F3F7F004C004C004C264C002600260026132600BF00FF00DF7FFF007C00A5009152A5005F007F006F3F7F0039004C0042264C001C002600211326007F00FF00BF7FFF005200A5007C52A5003F007F005F3F7F0026004C0039264C00130026001C1326003F00FF009F7FFF002900A5006752A500
310
1F007F004F3F7F0013004C002F264C000900260017132600000000002D2D2D005B5B5B0089898900B7B7B700B3B3B30000000000000000000000000000000000000000000000000000000000000000000000000000000000000000000000000000000000000000000000000000000000000001010101010000000000000000
310
00000000000000000000000000000000000000000000000000000000000000000000000000000000000000000000000000000000000000000000000000010101010101010101010000000000000000000000000000000000000000000000000000000000000000000000000000000000000000000000000000000000000000
310
00000000000000000000000000000000000000000000000000000000000000000000000000000101000000000001000000000000000000000000000000000000000000000000000000000000000000000000000000000000000000000000000000000000000000000000000000000000000001000000000000000001000000
310
00000000000000000000000000000000000000000000000000000000000000000000000000000000000000000000000000000000000000000000000000000000000000000000000000000000000000000000000000000001010101010000010101000101010101010000000000000000000000000000000000000000000000
310
00000000000000000000000000000000000000000000000000000000000000000000000000000000010101010101010101010000000000000000000000000000000000000000000000000000000000000000000000000000000000000000000000000000000000000000000000000000000000000000000000000000000000
310
00000000000000000000010101000001000100010100010000010100000001010100000000000000000000000000000000000000000000000000000000000000000000000000000000000000000000000000000000000000000000000001000000000000000001000000000000000000000000000000000000000000000000
310
00000000000000000000000000000000000000000000000000000000000000000000000000000000000000000000000000000000000000010000000101010100000000000001000001000001000000010000000000000101010100000001000000000000000000000000000000000000000000000000000000000000000000
310
00000000000000000000000000000000000000010101010101010101010000000000000000000000000000000000000000000000000000000000000000000000000000000000000000000000000000000000000000000000000000000000000000000000000000000000000100010101010000000001010101000000000100
310
00000100000000010101010000000001010101000100000000000000000000000000000000000000000000000000000000000000000000000000000000000000000000000000000001000000000000000001000000000000000000000000000000000000000000000000000000000000000000000000000000000000000000
310
00000000000000000000000000000000000000000000000000000000000000000100000000010100010101010000000101010100000000000101010100000001010100000101000000000100000000000000000000000000000000000000000000000000000000000000000000000000000000000000000000000000000100
310
00000000000000010000000000000000000000000000000000000000000000000000000000000000000000000000000000000000000000000000000000000000000000000000000000000000000000000000000101000101010000000001000000000000000000000000000000000000000000000000010000000000010101
310
00010100000000000000000000000000000000000000000000000000000000000000000000000000000000000000000000000001000000000000000001000000000000000000000000000000000000000000000000000000000000000000000000000000000000000000000000000000000000000000000000000000000000
310
00000000000000000001000101000001000000010000000000000000000000000000000000000000000000000001000000010000010100010000000000000000000000000000000000000000000000000000000000000000000000000000000000000000000000000101010101010101010100000000000000000000000000
310
00000000000000000000000000000000000000000000000000000000000000000000000000000000000000000000000000000000000000000000000000000100010000000001010100000000000000000000000000000000000000000000000000000001010100000000010001000000000000000000000000000000000000
310
00000000000000000000000000000000000000000000000000000000000001000000010100000001000000000000000000000000000000000000000000000000000000000000000000000000000000000000000000000000000000000000000000000000000000000000000000000000000001010001000000000000000000
310
00000000000000000000000000000000000000000000000000000000000000010000010100000000000000000000000000000000000000000000000000000000000000000000000000000000000000000000000100000001010000000100000000000000000000000000000000000000000000000000000000000000000000
310
00000000000000000000000000000000000000000000000000000000000000000000000000000101010100000100000000000000000000000000000000000000000000000000000000000000000000000000000001000001010100000000000000000000000000000000000000000000000000000000000000000000000000
310
00000000000000000001010101010101010101000000000000000000000000000000000000000000000000000000000000000000000000000000000000000000000000000000000000000000000000000000000000000000000001000000000001000000000000000000000000000000000000000000000000000000000000
310
00000000000000000000010000000000010100000000000000000000000000000000000000000000000000000000000000000000000000000000000000000100000000000000000100000000000000000000000000000000000000000000000000000000000000000000000000000000000000000000000000000000000000
310
00000000000000000000000000000001000000010101010000000000000000000000000000000000000000000000000000000000000000000000000000000000010101010000000100000000000000000000000000000000000000000000000000000000000000000000000000000000000000010000000000000000010000
310
00000000000000000000000000000000000000000000000000000000000000000000000000000000000000000000000000000000000000000000000000000000000000000100000100000000000000000000000000000000000000000000000000000000000000000000000000000000000000000000000000010000010000
310
00000000000000000000000000000000000000000000000000000000000000000000000000000000000100000000000000000100000000000000000000000000000000000000000000000000000000000000000000000000000000000000000000000000000000000000000000000000000000000000000101000101000000
310
00000000000000000000000000000000000000000000000000000000000000000000000000000000000000000000000001010001010000000000000000000000000000000000000000000000000000000000000000000000000000000000010000000000000000010000000000000000000000000000000000000000000000
310
00000000000000000000000000000000000000000000000000000000000000000000000000000000000000000100000100000000000000000000000000000000000000000000000000000000000000000000000000000000000000000000000000000000000001000000010000000000000000000000000000000000000000
310
00000000000000000000000000000000000000000101010101010101010100000000000000000000000000000000000000000000000000000000000000000000000000000000000000000000000000000000000000000000000000000000000001010001000000000000000000000000000000000000000000000000000000
310
00000000000000000000000000000000000000000000000000000000000100000101000000000000000000000000000000000000000000000000000000000000000000000000000000010000000101000000010000000000000000000000000000000000000000000000000000000000000000000000000000000000000000
310
00000000000000000000000000000000000000000001000100010000000000000000000000000000000000000000000000000000000000000000000000000000000000000000000000000000000000000000010001000001000000000000000000000000000000000000000000000000000000000000000000000000000001
310
01010101010101010100000000000000000000000000000000000000000000000000000000000000000000000000000000000000000000000000000000000000000000000000000001010001010000010000000000000000000000000000000000000000000000000000000000000000000000000000000000000000000000
310
00000000000000000100000101000101000000000000000000000000000000000000000000000000000000000000000000000000010000000000000000010000000000000000000000000000000000000000000000000000000000000000000000000000000000000000000000000000000000000000000000000000010000
310
00000000010000000000000000000000000000000000000000000000000000000000000000000000000000000000000000000000000000000000000000000100000000000100000000000000000000000000000000000000000000000000000000000000000000000001000000000000000001000000000000000000000000
310
00000000000000000000000000000000000000000000000000000000000000000000000000000000000000000000000000000100010101010100000000000000000000000000000000000000000000000000000000000000000000000000000000000000000000000000000000000000000000000101010100000100000000
310
00000000000000000000000000000000000000000000000000000000000000010000000000000000010000000000000000000000000000000000000000000000000000000000000000000000000000000000000000000000000000000000000000000000000001000001000000000000000000000000000000000000000000
310
00000000000000000000000000000000000000000000000000000000000000000000000000000000000000000000010001000000000000000000000000000000000000000000000000000000000000000000000001000000000000000001000000000000000000000000000000000000000000000000000000000000000000
310
00000000000000000000000000000000000000000000000000000000010001010000000000000000000000000000000000000000000000000000000000000000000000000000000000000000000000000000000000000000000000000000000000000001010001000000000000000000000000000000000000000000000000
310
00000000000000000000010101010101010101010000000000000000000000000000000000000000000000000000000000000000000000000000000000000000000000000000000000000000000000000001000001000000000000000000000000000000000000000000000000000000000000000000000000000000000000
310
00000000000000000000000000000000000000000000000001000000010000000000000000000000000000000000000000000000000000000000000000000001000000000000000001000000000000000000000000000000000000000000000000000000000000000000000000000000000000000000000000000000000000
310
00000000000000000100000100000000000000000000000000000000000000000000000000000000000000000000000000000000000000000000000000000000000000000000000000000000000100000100000000000000000000000000000000000000000000000000000000000000010101010100000001010000000101
310
01010101000000000000000000000000000000000000000000000000000000000000000000000000000000000000000000000000000000000000000001000100010000000000000000000000000000000000000000000000000000000000000000000000000000000000000000000000000000000000000000000000000000
310
00000001000101000000000000000000000000000000000000000000000000000000000000000100000001010101010101010101000000000100000000000000000000000000000000000000000000000000000000000000000000000000000000000000000000000000000000000000000101010001000000000000000000
310
00000000000000000000000000000000000000000000000000000000000000000000000000000000000000000000000000000000000000000100010101000000000000000000000000000000000000000000000000000000000000010000000101010101010101010100000000010000000000000000000000000000000000
310
00000000000000000000000000000000000000000000000000000000000000000000000000000001000001000000000000000000000000000000000000000000000000000000000000000000000000000000000000000000000000000000000000000000000000000000000000010000000100000000000000000000000000
310
00000000000000000000000000000000000100000001000000000000000001000000000100000000000000000000000000000000000000000000000000000000000000000000000000000000000000000000000000000000000000000100010100000000000000000000000000000000000000000000000000000000000000
310
00000000000000000000000000000000000000000000000000000000000000000000000001010001000000000000000000000000000000000000000000000000000000000000010000000100000000000000000100000000010000000000000000000000000000000000000000000000000000000000000000000000000000
310
00000000000000000000000000000000000100000100000000000000000000000000000000000000000000000000010101010101010101010101010101010101010000000000000000000000000000000000000000000000000001000001000000000000000000000000000000000000000000000000000000000001000000
310
01000000000000000001000000000100000000000000000000000000000000000000000000000000000000000000000000000000000000000000000000000000000000000000010001000000000000000000000000000000000000000000000000010100000000000000000000000000000000000000010000000000000000
310
00000000000000000000000000000000000100010000000000000000000000000000000000000000000000000000000000010000000100000000000000000100000000010000000000000000000000000000000000000000000000000000000000000000000000000000000000000000000000000000000000000001000100
310
00000000000000000000000000000000000000000000000100010101010101010101010101010101010101010100000000000000000000000000000000000000000000000000010001000000000000000000000000000000000000000000000000000000000001000000010000000000000000010000000001000000000000
310
00000000000000000000000000000000000000000000000000000000000000000000000000000000000000000000000001000001000000000000000000000000000000000000000000000000010001000000000000000000000000000000000001000100000000000000000000000000000000000000000000000001000100
310
00000000000000000000000000000000000000000000000000000000010000000100000000000000000100000000010000000000000000000000000000000000000000000000000000000000000000000000000000000000000000000000000000000000000100010000000000000000000000000000000000000000000000
310
00000100010000000000000000000000000000000000010001000000000000000000000000000000000000000000000000000100010000000000000000000000000000000000000000000000000000000001000000010000000000000000010000000001000000000000000000000000000000000000000000000000000000
310
00000000000000000000000000000000000000000000000000000001000100000000000000000000000000000000000000000000000000010001000000000000000000000000000000000001000100000000000000000000000000000000000000000000000000010001000000000000000000000000000000000000000000
310
00000000000000010000000101010101010101010100000000010000000000000000000000000000000000000000000000000000000000000000000000000000000000000000000000000000000000000100000100000000000000000000000000000000000000000000000001000100000000000000000000000000000000
310
00010001000000000000000000000000000000000000000000000000010000010000000000000000000000000000000000000000000000000000000001000000010000000101000000010000000001000000000000000000000000000000000000000000000000000000000000000000000000000000000000000000000000
310
00000000000101010001000000000000000000000000000000000000000000000000010001000000000000000000000000000000000001000100000000000000000000000000000000000000000000000100000100010000000000000000000000000000000000000000000000000000000100000001010101010101010101
310
00000000010000000000000000000000000000000000000000000000000000000000000000000000000000000000000000000000000000000001010000000100000000000000000000000000000000000000000000000001000100000000000000000000000000000000000100010000000000000000000000000000000000
310
00000000000001000000010100000000000000000000000000000000000000000000000000000001000000010101010101010101010000000001000000000000000000000000000000000000000000000000000000000000000000000000000000000000000000000000000000010000000001000000000000000000000000
310
00000000000000000000000000010001000000000000000000000000000000000001000100000000000000000000000000000000000000000000000001010000000100000000000000000000000000000000000000000000000000000100000001010101010101010101000000000100000000000000000000000000000000
310
00000000000000000000000000000000000000000000000000000000000000000000000100000101000000000000000000000000000000000000000000000000000001000100000000000000000000000000000000000100010000000000000000000000000000000000000000000000000000010100010000000000000000
310
00000000000000000000000000000000000001000000010000000000000000010000000001000000000000000000000000000000000000000000000000000000000000000000000000000000000000000000000000000000010000010000000000000000000000000000000000000000000000000000000100010000000000
310
00000000000000000000000001000100000000000000000000000000000000000000000000000000000001000100000000000000000000000000000000000000000000000000000100000001000000000000000001000000000100000000000000000000000000000000000000000000000000000000000000000000000000
310
00000000000000000000000000000100000100000000000000000000000000000000000000000000000000000001000100000000000000000000000000000000000100010000000000000000000000000000000000000000000000000000000100010000000000000000000000000000000000000000000000000000010000
310
00010000000000000000010000000001000000000000000000000000000000000000000000000000000000000000000000000000000000000000000000000000000000010000010000000000000000000000000000000000000000000000000000000100010000000000000000000000000000000000010001000000000000
310
00000000000000000000000000000000000000000001000100000000000000000000000000000000000000000000000000000100000000000000000000000000000000000100000000000000000000000000000000000000000000000000000000000000000000000000000000000000000000000000000001000000010100
310
00000000000000000000000000000000000000000000000001000100000000000000000000000000000000000100010000000000000000000000000000000000000000000000000001010000010000000000000000000000000000000000000000000000000000010000000000000000000000000000000000010000000000
310
00000000000000000000000000000000000000000000000000000000000000000000000000000000000000000000000101000000010000000000000000000000000000000000000000000000000100010000000000000000000000000000000000010001000000000000000000000000000000000000000000000001010000
310
00010000000000000000000000000000000000000000000000000000000100000000000000000000000000000000000100000000000000000000000000000000000000000000000000000000000000000000000000000000000000000000000000000000000101010001000000000000000000000000000000000000000000
310
00000001000100000000000000000000000000000000000100010000000000000000000000000000000000000000000000010000010101000000000000000000000000000000000000000000000000000000010000000000000000000000000000000000010000000000000000000000000000000000000000000000000000
310
00000000000000000000000000000000000000000000000000000000010000010000000000000000000000000000000000000000000000000100010000000000000000000000000000000000010001000000000000000000000000000000000000000000000000010000010000000000000000000000000000000000000000
310
00000000000000000100000000000000000000000000000000000100000000000000000000000000000000000000000000000000000000000000000000000000000000000000000000000000000000000001000100000000000000000000000000000000000000000000000000010001000000000000000000000000000000
310
00000100010000000000000000000000000000000000000000000000000001000100000000000000000000000000000000000000000000000000000000010101010101010101010101010101010101010000000000000000000000000000000000000000000000000000000000000000000000000000000000000000000000
310
00000000000000010001000000000000000000000000000000000000000000000000000100010000000000000000000000000000000000010001000000000000000000000000000000000000000000000000000100010000000000000000000000000000000000000000000000000000000001010101010101010101010101
310
01010101010100000000000000000000000000000000000000000000000000000000000000000000000000000000000000000000000000000000000001000001000000000000000000000000000000000000000000000000010001000000000000000000000000000000000001000100000000000000000000000000000000
310
00000000000000000100010000000000000000000000000000000000000000000000000000000000010000000000000000000000000000000000010000000000000000000000000000000000000000000000000000000000000000000000000000000000000000000000000000000000000001000100000000000000000000
310
00000000000000000000000000000100010101010101010101010101010101010101010100000000000000000000000000000000000000000000000000010001000000000000000000000000000000000000000000000000000000000001000000000000000000000000000000000001000000000000000000000000000000
310
00000000000000000000000000000000000000000000000000000000000000000000000000000000010001000000000000000000000000000000000000000000000000010000000000000000000000000000000000000000010000000000000000000000000000000000000000000000000001000100000000000000000000
310
00000000000000000000000000000000000000010000000000000000000000000000000000010000000000000000000000000000000000000000000000000000000000000000000000000000000000000000000000000000000000000001000001000000000000000000000000000000000000000000000000010101010101
310
01010101010101010101010101010000000000000000000000000000000000000000000000000001000001000000000000000000000000000000000000000000000000000000000001000000000000000000000000000000000001000000000000000000000000000000000000000000000000000000000000000000000000
310
00000000000000000000000000000000000000000100010100000000000000000000000000000000000000000000000000000000000000000000000000000000000000000000000000000000000000000000000000000000000000010100010000000000000000000000000000000000000000000000000000000000000100
310
00000000000000000000000000000000010000000000000000000000000000000000000000000000000000000000000000000000000000000000000000000000000000000000000000010000010000000000000000000000000000000000000000000000000000000000000000000000000000000000000000000000000000
310
00000000000000000000000000000000010000000100000000000000000000000000000000000000000000000000000000000001010101010101010101010101010101010101000000000000000000000000000000000000000000000000000000000000000000000000000000000000000000000000000000000000000001
310
01010001000000000000000000000000000000000000000000000000000000000000000000000000000000000000000000000000000000000000000000000000000000000001000101010000000000000000000000000000000000000000000000000000000000000100010100010100010100010001010001010100000000
310
00000000000000000000000000000000000000000000000000000000000000000000000000000000000000000000000000000000010001000100000000000000000000000000000000000000000000000000000000000000000000000000000000000000000000000000000000000000000000000000000000000100010100
310
00000000000000000000000000000000000000000000000000000000000001010100010001010100010001010001000101000000000000000000000000000000000000000000000000000000000000000000000000000000000000000000000000000000000000000000010000010000000000000000000000000000000000
310
00000000000000000000000000000000000000000000000000000000000000000000000000000000000000000000000001000001000000000000000000000000000000000000000000000000000000000000000101010101010101010101010101010101010100000000000000000000000000000000000000000000000000
310
00000000000000000000000000000000000000000000000000000000000000010000010000000000000000000000000000000000000000000000000000000000000000000000000000000000000000000000000000000000000000000000000000000000000100000001000000000000000000000000000000000000000000
310
00000000000000000000000000010000010101010000010000000000000000000000000000000000000000000000000000000000000000000000000000000000000000000000000000000000000000000000000001000101000000000000000000000000000000000000000000000000000000000000000000000000000000
310
00000000000000000000000000000000000000000000000000000000010100010000000000000000000000000000000000000000000000000000000000000000000001000001000101000001000000000000000000000000000000000000000000000000000000000000000000000000000000000000000000000000000000
310
00000000000000000000010000010000000000000000000000000000000000000000000000000000000000000000000000000000000000000000000000000000000000000000000000000000000000000001000100000000000000000000000000000000000000000000000000000000000000000000000100000101010100
310
00010000000000000000000000000000000000000000000000000000000000000000000000000000000000000000000000000000000000000000000000000000010001010101000000000000000000000000000000000000000000000000000000000000000000000000000000000000000000000000000000000000000000
310
00000001010101000001000000000000000000000000000000000000000000000000000000000000000000000001000001000101000001000000000000000000000000000000000000000000000000000000000000000000000000000000000000000000000000000000000000000000000000000001000000000001010000
310
00000000000000000000000000000000000000000000000000000000000000000000000000000000000000000000000000000000000000010000000000010000000000000000000000000000000000000000000000000000000000000000000000000100000101000100000100000000000000000000000000000000000000
310
00000000000000000000000000000000000000000000000000000000000000000000000000000000000000000100000001000001000000000000000000000000000000000000000000000000000000000000000000000000000000000000000000000000000000000000000100000100000001000000000000000000000000
310
00000000000000000000000000000000000000000000000001000001000101000001000000000000000000000000000000000000000000000000000000000000000000000000000000000000000000000000000000000000000000000000000000000101010100010000000000000000000000000000000000000000000000
310
00000000000000000000000000000000000000000000000000000000000000000001000100010101000000000000000000000000000000000000000000000000000000000000000000000000000100000101010100000100000000000000000000000000000000000000000000000000000000000000000000000000000000
310
00000000000000000000000000000000000000000000000000000101000100000000000000000000000000000000000000000000000000000000000000000000000000000000000000000000000000000000000000000100000101000000000000000000000000000000000000000000000000000000000000000000000000
310
00000001000001010001000001000000000000000000000000000000000000000000000000000000000000000000000000000000000000000000000000000000000000000000000000000000000000000100000100000000000000000000000000000000000000000000000000000000000000000000000000000000000000
310
00000000000000000000000100000001000000000000000000000000000000000000000000000000000000000000000000000000000000000100000100010100000100000000000000000000000000000000000000000000000000000000000000000000000000000000000000000000000000000000000000000000000000
310
00000000000000010100010100000000000000000000000000000000000000000000000000000000000000000000000000000000000000000000000000000001010001010000000000000000000000000000000000000000000000000000000000000000000000000000000000010000010101010000010000000000000000
310
00000000000000000000000000000000000000000000000000000000000000000000000000000000000000000000000000000000000000000000000000000100000100000000000000000000000000000000000000000000000000000000000000000000000000000000000000000000000000010000010000000000000000
310
00000000000000000000000000000000000000000000000000000000000000000000000100000101000100000100000000000000000000000000000000000000000000000000000000000000000000000000000000000000000000000000000000000000000000000000000000000000000000010000000101010100000000
310
00000000000000000000000000000000000000000000000000000000000000000000000000010101010000000100000000000000000000000000000000000000000000000000000000000000000000000000000000000000010000010001010000010000000000000000000000000000000000000000000000000000000000
310
00000000000000000000000000000000000000000000000000000000000000000000000000000000000001000000000001000000000000000000000000000000000000000000000000000000000000000000000000000000000100000000000101000000000000000000000000000000000000000000000000000000000000
310
00000000000000000000000000000100000101000100000100000000000000000000000000000000000000000000000000000000000000000000000000000000000000000000000000000000000000000000000000000000000000000000000001010101000001000000000000000000000000000000000000000000000000
310
00000000000000000000000000000001000001010100000000000000000000000000000000000000000000000000000000000000000000000000000000000000000000010000010101010000010000000000000000000000000000000000000000000000000000000000000000000000000000000000000000000000000000
310
00000000000000000000000000000000000000000000000001010001000000000000000000000000000000000000000000000000000000000000000000000000000000000100000101000000000000000000000000000000000000000000000000000000000000000000000000000000000000000000000001000001000101
310
00000100000000000000000000000000000000000000000000000000000000000000000000000000000000000000000000000000000000000000000000000000000000000000000000000000000001000100000000010101000000000000000000000000000000000000000000000000000000010101000000000100010000
310
00000000000000000000000000000000000000000000000000000000000000000000000000000000000000000000010000010100010000010000000000000000000000000000000000000000000000000000000000000000000000000000000000000000000000000000000000000000000000000000000000000000000000
310
00000000010001010000010000000100000000000000000000000000000000000000000000000000010000000100000101000100000000000000000000000000000000000000000000000000000000000000000000000000000000000000000000000001000001000101000001000000000000000000000000000000000000
310
00000000000000000000000000000000000000000000000000000000000000000000000000000000000000000000000000000000000000000001000001010100000000010000000000000000000000000000000000000000000000000100000000000101010000010000000000000000000000000000000000000000000000
310
00000000000000000000000000000000000000000000000000010000010101010000010000000000000000000000000000000000000000000000000000000000000000000000000000000000000000000000000000000000000000000000000000000000000000000000000000000001010000000000010001010101000000
310
01010100000000000000010101000000010101000001000000000001010000000000000000000000000000000000000000000000000000000000000000000000000000000000000000000000000001000001010001000001000000000000000000000000000000000000000000000000000000000000000000000000000000
310
00000000000000000000000000000000000000000000000000000000000000000000000000000001000001010100000000010101010000000101000000010100000001010101000000000101010000010000000000000000000000000000000000000000000000000000000000000000000000000000000000000000000000
310
00000000010000010001010000010000000000000000000000000000000000000000000000000000000000000000000000000000000000000000000000000000000000000000000000000000000000000000000000000000000000000001010000010101000000000000000100000100000100000001000000000000000101
310
01000001010000000000000000000000000000000000000000000000000000000000000000000000000000000000000000000000000000000001000001010101000001000000000000000000000000000000000000000000000000000000000000000000000000000000000000000000000000000000000000000000000000
310
00000000000000000000000000000000000000000000000000000101010100000100010001010001000001010000000101010100000000000000000000000000000000000000000000000000000000000000000000000000000000000000000000000000000000000000000000000100000101000100000100000000000000
310
00000000000000000000000000000000000000000000000000000000000000000000000000000000000000000000000000000000000000000000000000000000000000000000000000000000000000000000000101010101000001010100010101010101000000000000000000000000000000000000000000000000000000
310
00000000000000000000000000000000000000000000000000000000000000000000000001010101000101010101000000000000000000000000000000000000000000000000000000000000000000000000000000000000000000000000000000000000000000000000000000000000000000000000000000000000000000
310
00000000000000000000000000010000000000000100000000000000000000000000000000000000000000000000000000000000000000000000000000000000000000000000000000000000000000000000000000000000000101000101000100010100000000000000000000000000000000000000000000000000000000
310
00000000000000000000000000000000000000000000000000000000000000000000000000000000000000000000000000000000000000000000000000000000000000010101010101000000000000000000000000000000000000000000000000000000000000000000000000000000000000000000000000000000000000
310
00000000000000000000000000000001010101010101010101000000000000000000000000000000000000000000000000000000000000000000000000000000000000000000000000000000000000000000000000000000000000000000000000000000000000000000000000000000000000000000000000000000000000
310
000000000000000000000000000000000000000000000000000000000000000000000000000000000000000000000000000000000000000000000000000000000000000000000000000000000000000000000000000000000000000000000000000000000000000000000000
  0
ENDSEC
  0
EOF
