999
DXF file: Z16.dxf
999
Pro/ENGINEER 2008490 by Parametric Technology Corporation
  0
SECTION
  2
HEADER
  9
$ACADVER
  1
AC1021
  9
$DWGCODEPAGE
  3
ANSI_1252
  9
$EXTMAX
 10
297.0
 20
210.0
 30
0.0
  9
$EXTMIN
 10
0.0
 20
0.0
 30
0.0
  9
$LIMMIN
 10
0.0
 20
0.0
  9
$LIMMAX
 10
297.0
 20
210.0
  9
$VIEWCTR
 10
148.5
 20
105.0
  9
$VIEWSIZE
 40
210.0
  9
$CLAYER
  8
0
  9
$LTSCALE
 40
16.335
  9
$CELTYPE
  6
BYLAYER
  9
$DIMSCALE
 40
1.0
  9
$DIMASZ
 40
3.5
  9
$DIMEXO
 40
1.85625
  9
$DIMDLI
 40
11.286
  9
$DIMEXE
 40
5.346
  9
$DIMCEN
 40
2.673
  9
$DIMLFAC
 40
1.0
  9
$DIMBLK
  1
_FILLED
  9
$DIMTXT
 40
3.5
  9
$DIMTOL
 70
1
  9
$DIMLIM
 70
0
  9
$DIMTFAC
 40
1.0
  9
$DIMTP
 40
0.005
  9
$DIMTM
 40
0.005
  9
$PDMODE
 70
3
  9
$PDSIZE
 40
0.3125
  9
$HANDSEED
  5
3E7
  9
$TILEMODE
 70
1
  9
$MEASUREMENT
 70
1
  9
$INSUNITS
 70
4
  0
ENDSEC
  0
SECTION
  2
CLASSES
  0
CLASS
  1
ACDBDICTIONARYWDFLT
  2
AcDbDictionaryWithDefault
  3
AutoCAD 2000
 90
0
 91
1
280
0
281
0
  0
CLASS
  1
ACDBPLACEHOLDER
  2
AcDbPlaceHolder
  3
AutoCAD 2000
 90
0
 91
1
280
0
281
0
  0
CLASS
  1
LAYOUT
  2
AcDbLayout
  3
AutoCAD 2000
 90
0
 91
0
280
0
281
0
  0
ENDSEC
  0
SECTION
  2
TABLES
  0
TABLE
  2
VPORT
  5
8
100
AcDbSymbolTable
 70
2
  0
VPORT
  5
1F4
100
AcDbSymbolTableRecord
100
AcDbViewportTableRecord
  2
*ACTIVE
 70
0
 10
0.0
 20
0.0
 11
1.0
 21
1.0
 12
148.5
 22
105.0
 13
0.0
 23
0.0
 14
1.0
 24
1.0
 15
0.0
 25
0.0
 16
0.0
 26
0.0
 36
1.0
 17
0.0
 27
0.0
 37
0.0
 40
210.0
 41
1.4142857143
 42
50.0
 43
0.0
 44
0.0
 50
0.0
 51
0.0
 71
0
 72
100
 73
1
 74
1
 75
0
 76
0
 77
0
 78
0
  0
ENDTAB
  0
TABLE
  2
LTYPE
  5
5
100
AcDbSymbolTable
 70
6
  0
LTYPE
  5
14
100
AcDbSymbolTableRecord
100
AcDbLinetypeTableRecord
  2
BYBLOCK
 70
0
  3

 72
65
 73
0
 40
0.0
  0
LTYPE
  5
15
100
AcDbSymbolTableRecord
100
AcDbLinetypeTableRecord
  2
BYLAYER
 70
0
  3

 72
65
 73
0
 40
0.0
  0
LTYPE
  5
16
100
AcDbSymbolTableRecord
100
AcDbLinetypeTableRecord
  2
CONTINUOUS
 70
64
  3
Solid line
 72
65
 73
0
 40
0.0
  0
LTYPE
  5
1F5
100
AcDbSymbolTableRecord
100
AcDbLinetypeTableRecord
  2
CENTER
 70
64
  3
____ _ ____ _ ____ _ ____ _ ____ _ ____ _ ____
 72
65
 73
4
 40
0.6
 49
0.375
 74
0
 49
-0.075
 74
0
 49
0.075
 74
0
 49
-0.075
 74
0
  0
LTYPE
  5
1F6
100
AcDbSymbolTableRecord
100
AcDbLinetypeTableRecord
  2
HIDDEN
 70
64
  3
- - - - - - - - - - - - - - - - - - - -
 72
65
 73
2
 40
0.2
 49
0.1
 74
0
 49
-0.1
 74
0
  0
LTYPE
  5
1F7
100
AcDbSymbolTableRecord
100
AcDbLinetypeTableRecord
  2
PHANTOM
 70
64
  3
_____ _ _ _____ _ _ _____ _ _ _____
 72
65
 73
6
 40
0.8
 49
0.45
 74
0
 49
-0.05
 74
0
 49
0.1
 74
0
 49
-0.05
 74
0
 49
0.1
 74
0
 49
-0.05
 74
0
  0
LTYPE
  5
1F8
100
AcDbSymbolTableRecord
100
AcDbLinetypeTableRecord
  2
DOT
 70
64
  3
. . . . . . . . . . . . . . . . . . . .
 72
65
 73
2
 40
0.2
 49
0.1
 74
0
 49
-0.1
 74
0
  0
LTYPE
  5
1F9
100
AcDbSymbolTableRecord
100
AcDbLinetypeTableRecord
  2
DASHED
 70
64
  3
- - - - - - - - - - - - - - - - - - - -
 72
65
 73
2
 40
0.2
 49
0.1
 74
0
 49
-0.1
 74
0
  0
ENDTAB
  0
TABLE
  2
LAYER
  5
2
100
AcDbSymbolTable
 70
36
  0
LAYER
  5
10
100
AcDbSymbolTableRecord
100
AcDbLayerTableRecord
  2
0
 70
0
 62
7
  6
CONTINUOUS
370
-3
390
F
  0
LAYER
  5
1FA
100
AcDbSymbolTableRecord
100
AcDbLayerTableRecord
  2
DEFAULT_1
 70
0
 62
7
  6
CENTER
370
-3
390
F
  0
LAYER
  5
1FB
100
AcDbSymbolTableRecord
100
AcDbLayerTableRecord
  2
DEFAULT_2
 70
0
 62
8
  6
HIDDEN
370
-3
390
F
  0
LAYER
  5
1FC
100
AcDbSymbolTableRecord
100
AcDbLayerTableRecord
  2
DEFAULT_3
 70
0
 62
7
  6
PHANTOM
370
-3
390
F
  0
LAYER
  5
1FD
100
AcDbSymbolTableRecord
100
AcDbLayerTableRecord
  2
01___PRT_ALL_DTM_PLN
 70
0
 62
7
  6
CONTINUOUS
370
-3
390
F
  0
LAYER
  5
1FE
100
AcDbSymbolTableRecord
100
AcDbLayerTableRecord
  2
01___PRT_DEF_DTM_PLN
 70
0
 62
7
  6
CONTINUOUS
370
-3
390
F
  0
LAYER
  5
1FF
100
AcDbSymbolTableRecord
100
AcDbLayerTableRecord
  2
02___PRT_ALL_AXES
 70
0
 62
7
  6
CONTINUOUS
370
-3
390
F
  0
LAYER
  5
200
100
AcDbSymbolTableRecord
100
AcDbLayerTableRecord
  2
03___PRT_ALL_CURVES
 70
0
 62
7
  6
CONTINUOUS
370
-3
390
F
  0
LAYER
  5
201
100
AcDbSymbolTableRecord
100
AcDbLayerTableRecord
  2
04___PRT_ALL_DTM_PNT
 70
0
 62
7
  6
CONTINUOUS
370
-3
390
F
  0
LAYER
  5
202
100
AcDbSymbolTableRecord
100
AcDbLayerTableRecord
  2
05___PRT_ALL_DTM_CSYS
 70
0
 62
7
  6
CONTINUOUS
370
-3
390
F
  0
LAYER
  5
203
100
AcDbSymbolTableRecord
100
AcDbLayerTableRecord
  2
05___PRT_DEF_DTM_CSYS
 70
0
 62
7
  6
CONTINUOUS
370
-3
390
F
  0
LAYER
  5
204
100
AcDbSymbolTableRecord
100
AcDbLayerTableRecord
  2
06___PRT_ALL_SURFS
 70
0
 62
7
  6
CONTINUOUS
370
-3
390
F
  0
LAYER
  5
205
100
AcDbSymbolTableRecord
100
AcDbLayerTableRecord
  2
BEZUGSACHSEN
 70
0
 62
7
  6
CONTINUOUS
370
-3
390
F
  0
LAYER
  5
206
100
AcDbSymbolTableRecord
100
AcDbLayerTableRecord
  2
BEZUGSEBENE
 70
0
 62
7
  6
CONTINUOUS
370
-3
390
F
  0
LAYER
  5
207
100
AcDbSymbolTableRecord
100
AcDbLayerTableRecord
  2
BEZUGSEBENEN
 70
0
 62
7
  6
CONTINUOUS
370
-3
390
F
  0
LAYER
  5
208
100
AcDbSymbolTableRecord
100
AcDbLayerTableRecord
  2
BEZUGSEBENEN-KES
 70
0
 62
7
  6
CONTINUOUS
370
-3
390
F
  0
LAYER
  5
209
100
AcDbSymbolTableRecord
100
AcDbLayerTableRecord
  2
KURVEN
 70
0
 62
7
  6
CONTINUOUS
370
-3
390
F
  0
LAYER
  5
20A
100
AcDbSymbolTableRecord
100
AcDbLayerTableRecord
  2
RUNDUNGEN
 70
0
 62
7
  6
CONTINUOUS
370
-3
390
F
  0
LAYER
  5
20B
100
AcDbSymbolTableRecord
100
AcDbLayerTableRecord
  2
XSEC_DATUMS
 70
0
 62
7
  6
CONTINUOUS
370
-3
390
F
  0
LAYER
  5
20C
100
AcDbSymbolTableRecord
100
AcDbLayerTableRecord
  2
ZEICHNUNGSBEMASSUNGEN
 70
0
 62
7
  6
CONTINUOUS
370
-3
390
F
  0
LAYER
  5
20D
100
AcDbSymbolTableRecord
100
AcDbLayerTableRecord
  2
ZEICHNUNGSNOTIZEN
 70
0
 62
7
  6
CONTINUOUS
370
-3
390
F
  0
ENDTAB
  0
TABLE
  2
STYLE
  5
3
100
AcDbSymbolTable
 70
1
  0
STYLE
  5
11
100
AcDbSymbolTableRecord
100
AcDbTextStyleTableRecord
  2
STANDARD
 70
0
 40
0.0
 41
0.7
 50
0.0
 71
0
 42
0.2
  3
txt
  4

  0
STYLE
  5
20E
100
AcDbSymbolTableRecord
100
AcDbTextStyleTableRecord
  2
TEXTSTYLE_1
 70
0
 40
0.0
 41
0.8
 50
0.0
 71
0
 42
0.2
  3
gdt
  4

  0
ENDTAB
  0
TABLE
  2
VIEW
  5
6
100
AcDbSymbolTable
 70
0
  0
ENDTAB
  0
TABLE
  2
UCS
  5
7
100
AcDbSymbolTable
 70
0
  0
ENDTAB
  0
TABLE
  2
APPID
  5
9
100
AcDbSymbolTable
 70
1
  0
APPID
  5
20F
100
AcDbSymbolTableRecord
100
AcDbRegAppTableRecord
  2
ACAD
 70
0
  0
ENDTAB
  0
TABLE
  2
BLOCK_RECORD
  5
1
100
AcDbSymbolTable
 70
0
  0
BLOCK_RECORD
  5
210
100
AcDbSymbolTableRecord
100
AcDbBlockTableRecord
  2
*Model_Space
  0
BLOCK_RECORD
  5
211
100
AcDbSymbolTableRecord
100
AcDbBlockTableRecord
  2
*Paper_Space
  0
ENDTAB
  0
TABLE
  2
DIMSTYLE
  5
A
100
AcDbSymbolTable
 70
1
100
AcDbDimStyleTable
 71
0
  0
DIMSTYLE
105
212
100
AcDbSymbolTableRecord
100
AcDbDimStyleTableRecord
  2
STANDARD
 70
0
  3

  4

 40
1.0
 41
3.5
 42
0.0625
 43
0.38
 44
0.18
 45
0.0
 46
0.0
 47
0.005
 48
0.005
140
3.5
141
0.09
142
0.0
143
25.4
144
1.0
145
0.0
146
1.0
147
0.09
 71
1.0
 72
0.0
 73
0
 74
0
 75
0
 76
0
 77
1
 78
8
170
0
171
2
172
0
173
0
174
0
175
0
176
0
177
0
178
5
270
2
271
3
272
3
273
2
274
2
275
0
280
0
281
0
282
0
283
1
284
8
285
0
286
0
287
3
288
0
340
11
  0
ENDTAB
  0
ENDSEC
  0
SECTION
  2
BLOCKS
  0
BLOCK
  5
20
100
AcDbEntity
  8
0
100
AcDbBlockBegin
  2
*Model_Space
 70
0
 10
0.0
 20
0.0
 30
0.0
  3
*Model_Space
  1

  0
ENDBLK
  5
21
100
AcDbEntity
  8
0
100
AcDbBlockEnd
  0
BLOCK
  5
1C
100
AcDbEntity
  8
0
100
AcDbBlockBegin
  2
*Paper_Space
 70
0
 10
0.0
 20
0.0
 30
0.0
  3
*Paper_Space
  1

  0
ENDBLK
  5
1D
100
AcDbEntity
  8
0
100
AcDbBlockEnd
  0
ENDSEC
  0
SECTION
  2
ENTITIES
  0
LINE
  5
213
100
AcDbEntity
  8
0
100
AcDbLine
 62
7
  6
CONTINUOUS
 10
252.1274420943
 20
125.8277893352
 11
212.1274420943
 21
125.8277893352
  0
LINE
  5
214
100
AcDbEntity
  8
0
100
AcDbLine
 62
7
  6
CONTINUOUS
 10
212.1274420943
 20
125.8277893352
 11
212.1274420943
 21
130.3277893352
  0
LINE
  5
215
100
AcDbEntity
  8
0
100
AcDbLine
 62
7
  6
CONTINUOUS
 10
212.1274420943
 20
130.3277893352
 11
229.6274420943
 21
130.3277893352
  0
LINE
  5
216
100
AcDbEntity
  8
0
100
AcDbLine
 62
7
  6
CONTINUOUS
 10
229.6274420943
 20
130.3277893352
 11
229.6274420943
 21
194.0790595244
  0
LINE
  5
217
100
AcDbEntity
  8
0
100
AcDbLine
 62
7
  6
CONTINUOUS
 10
229.6274420943
 20
194.0790595244
 11
222.1274420943
 21
194.0790595244
  0
LINE
  5
218
100
AcDbEntity
  8
0
100
AcDbLine
 62
7
  6
CONTINUOUS
 10
222.1274420943
 20
194.0790595244
 11
222.1274420943
 21
199.0790595244
  0
LINE
  5
219
100
AcDbEntity
  8
0
100
AcDbLine
 62
7
  6
CONTINUOUS
 10
222.1274420943
 20
199.0790595244
 11
242.1274420943
 21
199.0790595244
  0
LINE
  5
21A
100
AcDbEntity
  8
0
100
AcDbLine
 62
7
  6
CONTINUOUS
 10
242.1274420943
 20
199.0790595244
 11
242.1274420943
 21
194.0790595244
  0
LINE
  5
21B
100
AcDbEntity
  8
0
100
AcDbLine
 62
7
  6
CONTINUOUS
 10
242.1274420943
 20
194.0790595244
 11
234.6274420943
 21
194.0790595244
  0
LINE
  5
21C
100
AcDbEntity
  8
0
100
AcDbLine
 62
7
  6
CONTINUOUS
 10
234.6274420943
 20
194.0790595244
 11
234.6274420943
 21
130.3277893352
  0
LINE
  5
21D
100
AcDbEntity
  8
0
100
AcDbLine
 62
7
  6
CONTINUOUS
 10
234.6274420943
 20
130.3277893352
 11
252.1274420943
 21
130.3277893352
  0
LINE
  5
21E
100
AcDbEntity
  8
0
100
AcDbLine
 62
7
  6
CONTINUOUS
 10
252.1274420943
 20
130.3277893352
 11
252.1274420943
 21
125.8277893352
  0
HATCH
  5
21F
100
AcDbEntity
  8
0
100
AcDbHatch
 62
2
  6
CONTINUOUS
 10
0.0
 20
0.0
 30
0.0
210
0.0
220
0.0
230
1.0
  2
A
 70
0
 71
1
 91
1
 92
1
 93
12
 72
1
 10
252.1274420943
 20
125.8277893352
 11
212.1274420943
 21
125.8277893352
 72
1
 10
212.1274420943
 20
125.8277893352
 11
212.1274420943
 21
130.3277893352
 72
1
 10
212.1274420943
 20
130.3277893352
 11
229.6274420943
 21
130.3277893352
 72
1
 10
229.6274420943
 20
130.3277893352
 11
229.6274420943
 21
194.0790595244
 72
1
 10
229.6274420943
 20
194.0790595244
 11
222.1274420943
 21
194.0790595244
 72
1
 10
222.1274420943
 20
194.0790595244
 11
222.1274420943
 21
199.0790595244
 72
1
 10
222.1274420943
 20
199.0790595244
 11
242.1274420943
 21
199.0790595244
 72
1
 10
242.1274420943
 20
199.0790595244
 11
242.1274420943
 21
194.0790595244
 72
1
 10
242.1274420943
 20
194.0790595244
 11
234.6274420943
 21
194.0790595244
 72
1
 10
234.6274420943
 20
194.0790595244
 11
234.6274420943
 21
130.3277893352
 72
1
 10
234.6274420943
 20
130.3277893352
 11
252.1274420943
 21
130.3277893352
 72
1
 10
252.1274420943
 20
130.3277893352
 11
252.1274420943
 21
125.8277893352
 97
12
330
213
330
214
330
215
330
216
330
217
330
218
330
219
330
21A
330
21B
330
21C
330
21D
330
21E
 75
0
 76
0
 52
45.0
 41
7.3638909179
 77
0
 78
1
 53
45.0
 43
-1.9526464515
 44
1.9526464515
 45
-5.207057204
 46
5.207057204
 79
0
 98
1
 10
0.0
 20
0.0
  0
LINE
  5
220
100
AcDbEntity
  8
0
100
AcDbLine
 62
7
  6
CONTINUOUS
 10
0.0
 20
0.0
 11
0.0
 21
210.0
  0
LINE
  5
221
100
AcDbEntity
  8
0
100
AcDbLine
 62
7
  6
CONTINUOUS
 10
0.0
 20
0.0
 11
297.0
 21
0.0
  0
LINE
  5
222
100
AcDbEntity
  8
0
100
AcDbLine
 62
7
  6
CONTINUOUS
 10
0.0
 20
210.0
 11
297.0
 21
210.0
  0
LINE
  5
223
100
AcDbEntity
  8
0
100
AcDbLine
 62
7
  6
CONTINUOUS
 10
297.0
 20
0.0
 11
297.0
 21
210.0
  0
LINE
  5
224
100
AcDbEntity
  8
RUNDUNGEN
100
AcDbLine
 62
7
  6
CONTINUOUS
 10
10.9725601186
 20
111.1213516216
 11
10.9725601186
 21
101.0342270488
  0
LINE
  5
225
100
AcDbEntity
  8
RUNDUNGEN
100
AcDbLine
 62
7
  6
CONTINUOUS
 10
25.954148883
 20
156.9462774954
 11
20.9105865965
 21
148.2105713642
  0
LINE
  5
226
100
AcDbEntity
  8
RUNDUNGEN
100
AcDbLine
 62
7
  6
CONTINUOUS
 10
61.8410482788
 20
189.1410330465
 11
53.1053421476
 21
184.0974707601
  0
LINE
  5
227
100
AcDbEntity
  8
RUNDUNGEN
100
AcDbLine
 62
7
  6
CONTINUOUS
 10
98.9302680214
 20
13.076519146
 11
109.0173925943
 21
13.076519146
  0
LINE
  5
228
100
AcDbEntity
  8
RUNDUNGEN
100
AcDbLine
 62
7
  6
CONTINUOUS
 10
53.1053421476
 20
28.0581079103
 11
61.8410482788
 21
23.0145456239
  0
LINE
  5
229
100
AcDbEntity
  8
RUNDUNGEN
100
AcDbLine
 62
7
  6
CONTINUOUS
 10
20.9105865965
 20
63.9450073062
 11
25.954148883
 21
55.209301175
  0
LINE
  5
22A
100
AcDbEntity
  8
0
100
AcDbLine
 62
7
  6
CONTINUOUS
 10
15.9725601186
 20
103.1931687819
 11
15.9725601186
 21
108.9624098884
  0
LINE
  5
22B
100
AcDbEntity
  8
0
100
AcDbLine
 62
7
  6
CONTINUOUS
 10
25.2857979438
 20
141.3903677864
 11
25.03382244
 21
139.3381919916
  0
LINE
  5
22C
100
AcDbEntity
  8
RUNDUNGEN
100
AcDbLine
 62
7
  6
CONTINUOUS
 10
20.1322329642
 20
137.1041762726
 11
18.4105714045
 21
129.0043954601
  0
LINE
  5
22D
100
AcDbEntity
  8
0
100
AcDbLine
 62
7
  6
CONTINUOUS
 10
23.2402005359
 20
127.7103002346
 11
24.5892246847
 21
134.0569598633
  0
LINE
  5
22E
100
AcDbEntity
  8
RUNDUNGEN
100
AcDbLine
 62
7
  6
CONTINUOUS
 10
18.4105714045
 20
129.0043954601
 11
15.8516836457
 21
121.1289487316
  0
LINE
  5
22F
100
AcDbEntity
  8
0
100
AcDbLine
 62
7
  6
CONTINUOUS
 10
21.2351599047
 20
121.5394196926
 11
23.2402005359
 21
127.7103002346
  0
LINE
  5
230
100
AcDbEntity
  8
0
100
AcDbLine
 62
7
  6
CONTINUOUS
 10
18.9795767911
 20
116.7434396286
 11
18.1717060812
 21
114.8402155053
  0
LINE
  5
231
100
AcDbEntity
  8
0
100
AcDbLine
 62
7
  6
CONTINUOUS
 10
26.320184482
 20
147.5802697504
 11
29.2048050353
 21
152.5765791092
  0
LINE
  5
232
100
AcDbEntity
  8
0
100
AcDbLine
 62
7
  6
CONTINUOUS
 10
53.4842845324
 20
176.0033955291
 11
52.2399794475
 21
174.3521469097
  0
LINE
  5
233
100
AcDbEntity
  8
RUNDUNGEN
100
AcDbLine
 62
7
  6
CONTINUOUS
 10
46.8780705831
 20
174.8682272824
 11
41.3371775294
 21
168.7144421136
  0
LINE
  5
234
100
AcDbEntity
  8
0
100
AcDbLine
 62
7
  6
CONTINUOUS
 10
44.8727114353
 20
165.1789082077
 11
49.2143304328
 21
170.0007646009
  0
LINE
  5
235
100
AcDbEntity
  8
RUNDUNGEN
100
AcDbLine
 62
7
  6
CONTINUOUS
 10
41.3371775294
 20
168.7144421136
 11
35.1833923606
 21
163.1735490599
  0
LINE
  5
236
100
AcDbEntity
  8
0
100
AcDbLine
 62
7
  6
CONTINUOUS
 10
40.0508550421
 20
160.8372892102
 11
44.8727114353
 21
165.1789082077
  0
LINE
  5
237
100
AcDbEntity
  8
0
100
AcDbLine
 62
7
  6
CONTINUOUS
 10
35.6994727333
 20
157.8116401955
 11
34.0482241139
 21
156.5673351106
  0
LINE
  5
238
100
AcDbEntity
  8
0
100
AcDbLine
 62
7
  6
CONTINUOUS
 10
57.4750405338
 20
180.8468146077
 11
62.4713498926
 21
183.731435161
  0
LINE
  5
239
100
AcDbEntity
  8
0
100
AcDbLine
 62
7
  6
CONTINUOUS
 10
95.2114041377
 20
191.8799135618
 11
93.3081800144
 21
191.0720428519
  0
LINE
  5
23A
100
AcDbEntity
  8
0
100
AcDbLine
 62
7
  6
CONTINUOUS
 10
88.9226709115
 20
194.1999359973
 11
81.0472241829
 21
191.6410482386
  0
LINE
  5
23B
100
AcDbEntity
  8
0
100
AcDbLine
 62
7
  6
CONTINUOUS
 10
82.3413194084
 20
186.8114191071
 11
88.5121999504
 21
188.8164597383
  0
LINE
  5
23C
100
AcDbEntity
  8
RUNDUNGEN
100
AcDbLine
 62
7
  6
CONTINUOUS
 10
126.9004364328
 20
20.5145304318
 11
135.0002172452
 21
22.2361919916
  0
LINE
  5
23D
100
AcDbEntity
  8
0
100
AcDbLine
 62
7
  6
CONTINUOUS
 10
131.953000836
 20
26.693183712
 11
125.6063412073
 21
25.3441595633
  0
LINE
  5
23E
100
AcDbEntity
  8
0
100
AcDbLine
 62
7
  6
CONTINUOUS
 10
137.2342329642
 20
27.1377814673
 11
139.286408759
 21
27.3897569712
  0
LINE
  5
23F
100
AcDbEntity
  8
0
100
AcDbLine
 62
7
  6
CONTINUOUS
 10
106.8584508611
 20
18.076519146
 11
101.0892097546
 21
18.076519146
  0
LINE
  5
240
100
AcDbEntity
  8
0
100
AcDbLine
 62
7
  6
CONTINUOUS
 10
68.6612518566
 20
27.3897569712
 11
70.7134276514
 21
27.1377814673
  0
LINE
  5
241
100
AcDbEntity
  8
RUNDUNGEN
100
AcDbLine
 62
7
  6
CONTINUOUS
 10
72.9474433704
 20
22.2361919916
 11
81.0472241829
 21
20.5145304318
  0
LINE
  5
242
100
AcDbEntity
  8
0
100
AcDbLine
 62
7
  6
CONTINUOUS
 10
82.3413194084
 20
25.3441595633
 11
75.9946597797
 21
26.693183712
  0
LINE
  5
243
100
AcDbEntity
  8
RUNDUNGEN
100
AcDbLine
 62
7
  6
CONTINUOUS
 10
81.0472241829
 20
20.5145304318
 11
88.9226709115
 21
17.9556426731
  0
LINE
  5
244
100
AcDbEntity
  8
0
100
AcDbLine
 62
7
  6
CONTINUOUS
 10
88.5121999504
 20
23.339118932
 11
82.3413194084
 21
25.3441595633
  0
LINE
  5
245
100
AcDbEntity
  8
0
100
AcDbLine
 62
7
  6
CONTINUOUS
 10
93.3081800144
 20
21.0835358184
 11
95.2114041377
 21
20.2756651085
  0
LINE
  5
246
100
AcDbEntity
  8
0
100
AcDbLine
 62
7
  6
CONTINUOUS
 10
62.4713498926
 20
28.4241435094
 11
57.4750405338
 21
31.3087640626
  0
LINE
  5
247
100
AcDbEntity
  8
0
100
AcDbLine
 62
7
  6
CONTINUOUS
 10
34.0482241139
 20
55.5882435597
 11
35.6994727333
 21
54.3439384749
  0
LINE
  5
248
100
AcDbEntity
  8
RUNDUNGEN
100
AcDbLine
 62
7
  6
CONTINUOUS
 10
35.1833923606
 20
48.9820296105
 11
41.3371775294
 21
43.4411365567
  0
LINE
  5
249
100
AcDbEntity
  8
0
100
AcDbLine
 62
7
  6
CONTINUOUS
 10
44.8727114353
 20
46.9766704627
 11
40.0508550421
 21
51.3182894602
  0
LINE
  5
24A
100
AcDbEntity
  8
RUNDUNGEN
100
AcDbLine
 62
7
  6
CONTINUOUS
 10
41.3371775294
 20
43.4411365567
 11
46.8780705831
 21
37.287351388
  0
LINE
  5
24B
100
AcDbEntity
  8
0
100
AcDbLine
 62
7
  6
CONTINUOUS
 10
49.2143304328
 20
42.1548140694
 11
44.8727114353
 21
46.9766704627
  0
LINE
  5
24C
100
AcDbEntity
  8
0
100
AcDbLine
 62
7
  6
CONTINUOUS
 10
52.2399794475
 20
37.8034317607
 11
53.4842845324
 21
36.1521831413
  0
LINE
  5
24D
100
AcDbEntity
  8
0
100
AcDbLine
 62
7
  6
CONTINUOUS
 10
29.2048050353
 20
59.5789995612
 11
26.320184482
 21
64.57530892
  0
LINE
  5
24E
100
AcDbEntity
  8
0
100
AcDbLine
 62
7
  6
CONTINUOUS
 10
18.1717060812
 20
97.3153631651
 11
18.9795767911
 21
95.4121390418
  0
LINE
  5
24F
100
AcDbEntity
  8
RUNDUNGEN
100
AcDbLine
 62
7
  6
CONTINUOUS
 10
15.8516836457
 20
91.0266299388
 11
18.4105714045
 21
83.1511832102
  0
LINE
  5
250
100
AcDbEntity
  8
0
100
AcDbLine
 62
7
  6
CONTINUOUS
 10
23.2402005359
 20
84.4452784358
 11
21.2351599047
 21
90.6161589778
  0
LINE
  5
251
100
AcDbEntity
  8
RUNDUNGEN
100
AcDbLine
 62
7
  6
CONTINUOUS
 10
18.4105714045
 20
83.1511832102
 11
20.1322329642
 21
75.0514023978
  0
LINE
  5
252
100
AcDbEntity
  8
0
100
AcDbLine
 62
7
  6
CONTINUOUS
 10
24.5892246847
 20
78.098618807
 11
23.2402005359
 21
84.4452784358
  0
LINE
  5
253
100
AcDbEntity
  8
0
100
AcDbLine
 62
7
  6
CONTINUOUS
 10
25.03382244
 20
72.8173866788
 11
25.2857979438
 21
70.765210884
  0
LINE
  5
254
100
AcDbEntity
  8
0
100
AcDbLine
 62
7
  6
CONTINUOUS
 10
79.7238303078
 20
125.3277893352
 11
79.7238303078
 21
86.8277893352
  0
LINE
  5
255
100
AcDbEntity
  8
0
100
AcDbLine
 62
7
  6
CONTINUOUS
 10
84.2238303078
 20
115.6027893352
 11
84.2238303078
 21
96.5527893352
  0
LINE
  5
256
100
AcDbEntity
  8
RUNDUNGEN
100
AcDbLine
 62
7
  6
CONTINUOUS
 10
84.7238303078
 20
124.8277893352
 11
84.7238303078
 21
116.1027893352
  0
LINE
  5
257
100
AcDbEntity
  8
RUNDUNGEN
100
AcDbLine
 62
7
  6
CONTINUOUS
 10
84.7238303078
 20
96.0527893352
 11
84.7238303078
 21
87.3277893352
  0
LINE
  5
258
100
AcDbEntity
  8
0
100
AcDbLine
 62
7
  6
CONTINUOUS
 10
94.4488303078
 20
125.8277893352
 11
93.9488303078
 21
125.3277893352
  0
LINE
  5
259
100
AcDbEntity
  8
0
100
AcDbLine
 62
7
  6
CONTINUOUS
 10
84.7238303078
 20
116.1027893352
 11
84.2238303078
 21
115.6027893352
  0
LINE
  5
25A
100
AcDbEntity
  8
0
100
AcDbLine
 62
7
  6
CONTINUOUS
 10
84.7238303078
 20
81.8277893352
 11
123.2238303078
 21
81.8277893352
  0
LINE
  5
25B
100
AcDbEntity
  8
0
100
AcDbLine
 62
7
  6
CONTINUOUS
 10
94.4488303078
 20
86.3277893352
 11
113.4988303078
 21
86.3277893352
  0
LINE
  5
25C
100
AcDbEntity
  8
RUNDUNGEN
100
AcDbLine
 62
7
  6
CONTINUOUS
 10
85.2238303078
 20
86.8277893352
 11
93.9488303078
 21
86.8277893352
  0
LINE
  5
25D
100
AcDbEntity
  8
RUNDUNGEN
100
AcDbLine
 62
7
  6
CONTINUOUS
 10
113.9988303078
 20
86.8277893352
 11
122.7238303078
 21
86.8277893352
  0
LINE
  5
25E
100
AcDbEntity
  8
0
100
AcDbLine
 62
7
  6
CONTINUOUS
 10
84.2238303078
 20
96.5527893352
 11
84.7238303078
 21
96.0527893352
  0
LINE
  5
25F
100
AcDbEntity
  8
0
100
AcDbLine
 62
7
  6
CONTINUOUS
 10
93.9488303078
 20
86.8277893352
 11
94.4488303078
 21
86.3277893352
  0
LINE
  5
260
100
AcDbEntity
  8
02___PRT_ALL_AXES
100
AcDbLine
 62
7
  6
CENTER
 10
103.9738303078
 20
106.0777893352
 11
103.9738303078
 21
56.5442339433
  0
LINE
  5
261
100
AcDbEntity
  8
02___PRT_ALL_AXES
100
AcDbLine
 62
7
  6
CENTER
 10
103.9738303078
 20
106.0777893352
 11
103.9738303078
 21
155.6113447271
  0
LINE
  5
262
100
AcDbEntity
  8
02___PRT_ALL_AXES
100
AcDbLine
 62
7
  6
CENTER
 10
103.9738303078
 20
106.0777893352
 11
54.4402749159
 21
106.0777893352
  0
LINE
  5
263
100
AcDbEntity
  8
02___PRT_ALL_AXES
100
AcDbLine
 62
7
  6
CENTER
 10
103.9738303078
 20
106.0777893352
 11
153.5073856997
 21
106.0777893352
  0
LINE
  5
264
100
AcDbEntity
  8
RUNDUNGEN
100
AcDbLine
 62
7
  6
CONTINUOUS
 10
123.2238303078
 20
87.3277893352
 11
123.2238303078
 21
96.0527893352
  0
LINE
  5
265
100
AcDbEntity
  8
RUNDUNGEN
100
AcDbLine
 62
7
  6
CONTINUOUS
 10
123.2238303078
 20
116.1027893352
 11
123.2238303078
 21
124.8277893352
  0
LINE
  5
266
100
AcDbEntity
  8
RUNDUNGEN
100
AcDbLine
 62
7
  6
CONTINUOUS
 10
122.7238303078
 20
125.3277893352
 11
113.9988303078
 21
125.3277893352
  0
LINE
  5
267
100
AcDbEntity
  8
RUNDUNGEN
100
AcDbLine
 62
7
  6
CONTINUOUS
 10
93.9488303078
 20
125.3277893352
 11
85.2238303078
 21
125.3277893352
  0
LINE
  5
268
100
AcDbEntity
  8
0
100
AcDbLine
 62
7
  6
CONTINUOUS
 10
123.7238303078
 20
96.5527893352
 11
123.7238303078
 21
115.6027893352
  0
LINE
  5
269
100
AcDbEntity
  8
0
100
AcDbLine
 62
7
  6
CONTINUOUS
 10
128.2238303078
 20
86.8277893352
 11
128.2238303078
 21
125.3277893352
  0
LINE
  5
26A
100
AcDbEntity
  8
0
100
AcDbLine
 62
7
  6
CONTINUOUS
 10
113.4988303078
 20
86.3277893352
 11
113.9988303078
 21
86.8277893352
  0
LINE
  5
26B
100
AcDbEntity
  8
0
100
AcDbLine
 62
7
  6
CONTINUOUS
 10
123.2238303078
 20
96.0527893352
 11
123.7238303078
 21
96.5527893352
  0
LINE
  5
26C
100
AcDbEntity
  8
0
100
AcDbLine
 62
7
  6
CONTINUOUS
 10
113.4988303078
 20
125.8277893352
 11
94.4488303078
 21
125.8277893352
  0
LINE
  5
26D
100
AcDbEntity
  8
0
100
AcDbLine
 62
7
  6
CONTINUOUS
 10
123.2238303078
 20
130.3277893352
 11
84.7238303078
 21
130.3277893352
  0
LINE
  5
26E
100
AcDbEntity
  8
0
100
AcDbLine
 62
7
  6
CONTINUOUS
 10
123.7238303078
 20
115.6027893352
 11
123.2238303078
 21
116.1027893352
  0
LINE
  5
26F
100
AcDbEntity
  8
0
100
AcDbLine
 62
7
  6
CONTINUOUS
 10
113.9988303078
 20
125.3277893352
 11
113.4988303078
 21
125.8277893352
  0
LINE
  5
270
100
AcDbEntity
  8
0
100
AcDbLine
 62
7
  6
CONTINUOUS
 10
182.6618626719
 20
70.765210884
 11
182.9138381757
 21
72.8173866788
  0
LINE
  5
271
100
AcDbEntity
  8
0
100
AcDbLine
 62
7
  6
CONTINUOUS
 10
188.9680838246
 20
95.4121390418
 11
189.7759545345
 21
97.3153631651
  0
LINE
  5
272
100
AcDbEntity
  8
0
100
AcDbLine
 62
7
  6
CONTINUOUS
 10
154.4633760833
 20
36.1521831413
 11
155.7076811682
 21
37.8034317607
  0
LINE
  5
273
100
AcDbEntity
  8
0
100
AcDbLine
 62
7
  6
CONTINUOUS
 10
172.2481878823
 20
54.3439384749
 11
173.8994365017
 21
55.5882435597
  0
LINE
  5
274
100
AcDbEntity
  8
0
100
AcDbLine
 62
7
  6
CONTINUOUS
 10
112.736256478
 20
20.2756651085
 11
114.6394806012
 21
21.0835358184
  0
LINE
  5
275
100
AcDbEntity
  8
0
100
AcDbLine
 62
7
  6
CONTINUOUS
 10
70.7134276514
 20
185.0177972031
 11
68.6612518566
 21
184.7658216992
  0
LINE
  5
276
100
AcDbEntity
  8
0
100
AcDbLine
 62
7
  6
CONTINUOUS
 10
139.286408759
 20
184.7658216992
 11
137.2342329642
 21
185.0177972031
  0
LINE
  5
277
100
AcDbEntity
  8
0
100
AcDbLine
 62
7
  6
CONTINUOUS
 10
114.6394806012
 20
191.0720428519
 11
112.736256478
 21
191.8799135618
  0
LINE
  5
278
100
AcDbEntity
  8
0
100
AcDbLine
 62
7
  6
CONTINUOUS
 10
173.8994365017
 20
156.5673351106
 11
172.2481878823
 21
157.8116401955
  0
LINE
  5
279
100
AcDbEntity
  8
0
100
AcDbLine
 62
7
  6
CONTINUOUS
 10
155.7076811682
 20
174.3521469097
 11
154.4633760833
 21
176.0033955291
  0
LINE
  5
27A
100
AcDbEntity
  8
0
100
AcDbLine
 62
7
  6
CONTINUOUS
 10
189.7759545345
 20
114.8402155053
 11
188.9680838246
 21
116.7434396286
  0
LINE
  5
27B
100
AcDbEntity
  8
0
100
AcDbLine
 62
7
  6
CONTINUOUS
 10
182.9138381757
 20
139.3381919916
 11
182.6618626719
 21
141.3903677864
  0
LINE
  5
27C
100
AcDbEntity
  8
0
100
AcDbLine
 62
7
  6
CONTINUOUS
 10
191.9751004971
 20
108.9624098884
 11
191.9751004971
 21
103.1931687819
  0
LINE
  5
27D
100
AcDbEntity
  8
0
100
AcDbLine
 62
7
  6
CONTINUOUS
 10
184.7074600798
 20
84.4452784358
 11
183.358435931
 21
78.098618807
  0
LINE
  5
27E
100
AcDbEntity
  8
RUNDUNGEN
100
AcDbLine
 62
7
  6
CONTINUOUS
 10
187.8154276514
 20
75.0514023978
 11
189.5370892112
 21
83.1511832102
  0
LINE
  5
27F
100
AcDbEntity
  8
0
100
AcDbLine
 62
7
  6
CONTINUOUS
 10
186.712500711
 20
90.6161589778
 11
184.7074600798
 21
84.4452784358
  0
LINE
  5
280
100
AcDbEntity
  8
0
100
AcDbLine
 62
7
  6
CONTINUOUS
 10
189.5370892112
 20
83.1511832102
 11
192.09597697
 21
91.0266299388
  0
LINE
  5
281
100
AcDbEntity
  8
0
100
AcDbLine
 62
7
  6
CONTINUOUS
 10
181.6274761336
 20
64.57530892
 11
178.7428555804
 21
59.5789995612
  0
LINE
  5
282
100
AcDbEntity
  8
0
100
AcDbLine
 62
7
  6
CONTINUOUS
 10
163.0749491803
 20
46.9766704627
 11
158.7333301828
 21
42.1548140694
  0
LINE
  5
283
100
AcDbEntity
  8
RUNDUNGEN
100
AcDbLine
 62
7
  6
CONTINUOUS
 10
161.0695900326
 20
37.287351388
 11
166.6104830863
 21
43.4411365567
  0
LINE
  5
284
100
AcDbEntity
  8
0
100
AcDbLine
 62
7
  6
CONTINUOUS
 10
167.8968055736
 20
51.3182894602
 11
163.0749491803
 21
46.9766704627
  0
LINE
  5
285
100
AcDbEntity
  8
RUNDUNGEN
100
AcDbLine
 62
7
  6
CONTINUOUS
 10
166.6104830863
 20
43.4411365567
 11
172.7642682551
 21
48.9820296105
  0
LINE
  5
286
100
AcDbEntity
  8
0
100
AcDbLine
 62
7
  6
CONTINUOUS
 10
150.4726200818
 20
31.3087640626
 11
145.4763107231
 21
28.4241435094
  0
LINE
  5
287
100
AcDbEntity
  8
0
100
AcDbLine
 62
7
  6
CONTINUOUS
 10
125.6063412073
 20
25.3441595633
 11
119.4354606652
 21
23.339118932
  0
LINE
  5
288
100
AcDbEntity
  8
RUNDUNGEN
100
AcDbLine
 62
7
  6
CONTINUOUS
 10
119.0249897042
 20
17.9556426731
 11
126.9004364328
 21
20.5145304318
  0
LINE
  5
289
100
AcDbEntity
  8
0
100
AcDbLine
 62
7
  6
CONTINUOUS
 10
75.9946597797
 20
185.4623949583
 11
82.3413194084
 21
186.8114191071
  0
LINE
  5
28A
100
AcDbEntity
  8
RUNDUNGEN
100
AcDbLine
 62
7
  6
CONTINUOUS
 10
81.0472241829
 20
191.6410482386
 11
72.9474433704
 21
189.9193866788
  0
LINE
  5
28B
100
AcDbEntity
  8
0
100
AcDbLine
 62
7
  6
CONTINUOUS
 10
101.0892097546
 20
194.0790595244
 11
106.8584508611
 21
194.0790595244
  0
LINE
  5
28C
100
AcDbEntity
  8
0
100
AcDbLine
 62
7
  6
CONTINUOUS
 10
125.6063412073
 20
186.8114191071
 11
131.953000836
 21
185.4623949583
  0
LINE
  5
28D
100
AcDbEntity
  8
0
100
AcDbLine
 62
7
  6
CONTINUOUS
 10
135.0002172452
 20
189.9193866788
 11
126.9004364328
 21
191.6410482386
  0
LINE
  5
28E
100
AcDbEntity
  8
0
100
AcDbLine
 62
7
  6
CONTINUOUS
 10
119.4354606652
 20
188.8164597383
 11
125.6063412073
 21
186.8114191071
  0
LINE
  5
28F
100
AcDbEntity
  8
0
100
AcDbLine
 62
7
  6
CONTINUOUS
 10
126.9004364328
 20
191.6410482386
 11
119.0249897042
 21
194.1999359973
  0
LINE
  5
290
100
AcDbEntity
  8
0
100
AcDbLine
 62
7
  6
CONTINUOUS
 10
145.4763107231
 20
183.731435161
 11
150.4726200818
 21
180.8468146077
  0
LINE
  5
291
100
AcDbEntity
  8
0
100
AcDbLine
 62
7
  6
CONTINUOUS
 10
163.0749491803
 20
165.1789082077
 11
167.8968055736
 21
160.8372892102
  0
LINE
  5
292
100
AcDbEntity
  8
0
100
AcDbLine
 62
7
  6
CONTINUOUS
 10
172.7642682551
 20
163.1735490599
 11
166.6104830863
 21
168.7144421136
  0
LINE
  5
293
100
AcDbEntity
  8
0
100
AcDbLine
 62
7
  6
CONTINUOUS
 10
158.7333301828
 20
170.0007646009
 11
163.0749491803
 21
165.1789082077
  0
LINE
  5
294
100
AcDbEntity
  8
0
100
AcDbLine
 62
7
  6
CONTINUOUS
 10
166.6104830863
 20
168.7144421136
 11
161.0695900326
 21
174.8682272824
  0
LINE
  5
295
100
AcDbEntity
  8
0
100
AcDbLine
 62
7
  6
CONTINUOUS
 10
178.7428555804
 20
152.5765791092
 11
181.6274761336
 21
147.5802697504
  0
LINE
  5
296
100
AcDbEntity
  8
0
100
AcDbLine
 62
7
  6
CONTINUOUS
 10
184.7074600798
 20
127.7103002346
 11
186.712500711
 21
121.5394196926
  0
LINE
  5
297
100
AcDbEntity
  8
0
100
AcDbLine
 62
7
  6
CONTINUOUS
 10
192.09597697
 20
121.1289487316
 11
189.5370892112
 21
129.0043954601
  0
LINE
  5
298
100
AcDbEntity
  8
0
100
AcDbLine
 62
7
  6
CONTINUOUS
 10
183.358435931
 20
134.0569598633
 11
184.7074600798
 21
127.7103002346
  0
LINE
  5
299
100
AcDbEntity
  8
0
100
AcDbLine
 62
7
  6
CONTINUOUS
 10
189.5370892112
 20
129.0043954601
 11
187.8154276514
 21
137.1041762726
  0
LINE
  5
29A
100
AcDbEntity
  8
0
100
AcDbLine
 62
7
  6
CONTINUOUS
 10
196.9751004971
 20
101.0342270488
 11
196.9751004971
 21
111.1213516216
  0
LINE
  5
29B
100
AcDbEntity
  8
RUNDUNGEN
100
AcDbLine
 62
7
  6
CONTINUOUS
 10
181.9935117327
 20
55.209301175
 11
187.0370740191
 21
63.9450073062
  0
LINE
  5
29C
100
AcDbEntity
  8
RUNDUNGEN
100
AcDbLine
 62
7
  6
CONTINUOUS
 10
146.1066123368
 20
23.0145456239
 11
154.8423184681
 21
28.0581079103
  0
LINE
  5
29D
100
AcDbEntity
  8
0
100
AcDbLine
 62
7
  6
CONTINUOUS
 10
109.0173925943
 20
199.0790595244
 11
98.9302680214
 21
199.0790595244
  0
LINE
  5
29E
100
AcDbEntity
  8
0
100
AcDbLine
 62
7
  6
CONTINUOUS
 10
154.8423184681
 20
184.0974707601
 11
146.1066123368
 21
189.1410330465
  0
LINE
  5
29F
100
AcDbEntity
  8
0
100
AcDbLine
 62
7
  6
CONTINUOUS
 10
187.0370740191
 20
148.2105713642
 11
181.9935117327
 21
156.9462774954
  0
LINE
  5
2A0
100
AcDbEntity
  8
RUNDUNGEN
100
AcDbLine
 62
7
  6
CONTINUOUS
 10
242.1274420943
 20
13.076519146
 11
222.1274420943
 21
13.076519146
  0
LINE
  5
2A1
100
AcDbEntity
  8
0
100
AcDbLine
 62
7
  6
CONTINUOUS
 10
231.3774420943
 20
17.324680987
 11
232.8774420943
 21
17.324680987
  0
LINE
  5
2A2
100
AcDbEntity
  8
RUNDUNGEN
100
AcDbLine
 62
7
  6
CONTINUOUS
 10
242.1274420943
 20
17.8577557057
 11
222.1274420943
 21
17.8577557057
  0
LINE
  5
2A3
100
AcDbEntity
  8
0
100
AcDbLine
 62
7
  6
CONTINUOUS
 10
222.1274420943
 20
20.5145304318
 11
242.1274420943
 21
20.5145304318
  0
LINE
  5
2A4
100
AcDbEntity
  8
RUNDUNGEN
100
AcDbLine
 62
7
  6
CONTINUOUS
 10
242.1274420943
 20
22.6796091333
 11
222.1274420943
 21
22.6796091333
  0
LINE
  5
2A5
100
AcDbEntity
  8
0
100
AcDbLine
 62
7
  6
CONTINUOUS
 10
231.3774420943
 20
33.1328334244
 11
232.8774420943
 21
33.1328334244
  0
LWPOLYLINE
  5
2A6
100
AcDbEntity
  8
0
100
AcDbPolyline
 62
7
  6
CONTINUOUS
 90
3
 70
0
 10
231.3553621713
 20
36.6256126049
 10
231.359986989
 20
36.6260787848
 10
231.3774420943
 20
36.6373536143
  0
LINE
  5
2A7
100
AcDbEntity
  8
0
100
AcDbLine
 62
7
  6
CONTINUOUS
 10
222.1274420943
 20
36.1521831413
 11
230.8800588012
 21
36.1521831413
  0
LINE
  5
2A8
100
AcDbEntity
  8
0
100
AcDbLine
 62
7
  6
CONTINUOUS
 10
233.3748253875
 20
36.1521831413
 11
242.1274420943
 21
36.1521831413
  0
LINE
  5
2A9
100
AcDbEntity
  8
RUNDUNGEN
100
AcDbLine
 62
7
  6
CONTINUOUS
 10
242.1274420943
 20
36.6256126007
 11
232.9004362601
 21
36.6256126007
  0
LINE
  5
2AA
100
AcDbEntity
  8
RUNDUNGEN
100
AcDbLine
 62
7
  6
CONTINUOUS
 10
231.3544479286
 20
36.6256126007
 11
222.1274420943
 21
36.6256126007
  0
LINE
  5
2AB
100
AcDbEntity
  8
0
100
AcDbLine
 62
7
  6
CONTINUOUS
 10
232.8774420943
 20
36.6373536143
 11
231.3774420943
 21
36.6373536143
  0
LWPOLYLINE
  5
2AC
100
AcDbEntity
  8
0
100
AcDbPolyline
 62
7
  6
CONTINUOUS
 90
3
 70
0
 10
232.8995220174
 20
36.6256126049
 10
232.8948971997
 20
36.6260787848
 10
232.8774420943
 20
36.6373536143
  0
LINE
  5
2AD
100
AcDbEntity
  8
0
100
AcDbLine
 62
7
  6
CONTINUOUS
 10
222.1274420943
 20
43.4411365567
 11
242.1274420943
 21
43.4411365567
  0
LINE
  5
2AE
100
AcDbEntity
  8
0
100
AcDbLine
 62
7
  6
CONTINUOUS
 10
232.8774420943
 20
50.2519256317
 11
231.3774420943
 21
50.2519256317
  0
LINE
  5
2AF
100
AcDbEntity
  8
RUNDUNGEN
100
AcDbLine
 62
7
  6
CONTINUOUS
 10
242.1274420943
 20
53.959301175
 11
222.1274420943
 21
53.959301175
  0
LINE
  5
2B0
100
AcDbEntity
  8
0
100
AcDbLine
 62
7
  6
CONTINUOUS
 10
231.3774420943
 20
68.4865278901
 11
232.8774420943
 21
68.4865278901
  0
LINE
  5
2B1
100
AcDbEntity
  8
0
100
AcDbLine
 62
7
  6
CONTINUOUS
 10
222.1274420943
 20
70.765210884
 11
230.8800588012
 21
70.765210884
  0
LINE
  5
2B2
100
AcDbEntity
  8
0
100
AcDbLine
 62
7
  6
CONTINUOUS
 10
233.3748253875
 20
70.765210884
 11
242.1274420943
 21
70.765210884
  0
LINE
  5
2B3
100
AcDbEntity
  8
0
100
AcDbLine
 62
7
  6
CONTINUOUS
 10
222.1274420943
 20
72.8173866788
 11
230.777514768
 21
72.8173866788
  0
LINE
  5
2B4
100
AcDbEntity
  8
0
100
AcDbLine
 62
7
  6
CONTINUOUS
 10
233.4773694207
 20
72.8173866788
 11
242.1274420943
 21
72.8173866788
  0
LINE
  5
2B5
100
AcDbEntity
  8
0
100
AcDbLine
 62
7
  6
CONTINUOUS
 10
232.8774420943
 20
73.8535398028
 11
231.3774420943
 21
73.8535398028
  0
LINE
  5
2B6
100
AcDbEntity
  8
0
100
AcDbLine
 62
7
  6
CONTINUOUS
 10
212.1274420943
 20
81.8277893352
 11
212.1274420943
 21
116.1027893352
  0
LINE
  5
2B7
100
AcDbEntity
  8
RUNDUNGEN
100
AcDbLine
 62
7
  6
CONTINUOUS
 10
212.1274420943
 20
116.1027893352
 11
212.1274420943
 21
125.3277893352
  0
LINE
  5
2B8
100
AcDbEntity
  8
0
100
AcDbLine
 62
7
  6
CONTINUOUS
 10
212.1274420943
 20
125.3277893352
 11
212.1274420943
 21
130.3277893352
  0
LINE
  5
2B9
100
AcDbEntity
  8
0
100
AcDbLine
 62
7
  6
CONTINUOUS
 10
212.1274420943
 20
81.8277893352
 11
222.1274420943
 21
81.8277893352
  0
LINE
  5
2BA
100
AcDbEntity
  8
0
100
AcDbLine
 62
7
  6
CONTINUOUS
 10
242.1274420943
 20
81.8277893352
 11
252.1274420943
 21
81.8277893352
  0
LINE
  5
2BB
100
AcDbEntity
  8
0
100
AcDbLine
 62
7
  6
CONTINUOUS
 10
222.1274420943
 20
83.1511832102
 11
242.1274420943
 21
83.1511832102
  0
LWPOLYLINE
  5
2BC
100
AcDbEntity
  8
0
100
AcDbPolyline
 62
7
  6
CONTINUOUS
 90
7
 70
0
 10
233.0101355475
 20
73.47912311
 10
232.9837262442
 20
73.5057433941
 10
232.9589506052
 20
73.5472898451
 10
232.9357300427
 20
73.6033928411
 10
232.9143003199
 20
73.6735562909
 10
232.8948971997
 20
73.7571687381
 10
232.8774420943
 20
73.8535398028
  0
LINE
  5
2BD
100
AcDbEntity
  8
0
100
AcDbLine
 62
7
  6
CONTINUOUS
 10
232.8774420943
 20
92.4513910402
 11
231.3774420943
 21
92.4513910402
  0
LWPOLYLINE
  5
2BE
100
AcDbEntity
  8
0
100
AcDbPolyline
 62
7
  6
CONTINUOUS
 90
7
 70
0
 10
233.4773694207
 20
72.8173866788
 10
233.4044786874
 20
72.9699008702
 10
233.3295391977
 20
73.1057445375
 10
233.2524983348
 20
73.224738805
 10
233.1735139494
 20
73.3267258886
 10
233.0927438927
 20
73.4115635319
 10
233.0101355475
 20
73.47912311
  0
LINE
  5
2BF
100
AcDbEntity
  8
0
100
AcDbLine
 62
7
  6
CONTINUOUS
 10
231.3774420943
 20
17.324680987
 11
231.2866561312
 21
17.8577557057
  0
LINE
  5
2C0
100
AcDbEntity
  8
0
100
AcDbLine
 62
7
  6
CONTINUOUS
 10
231.3774420943
 20
33.1328334244
 11
231.2069727566
 21
34.1256518827
  0
LINE
  5
2C1
100
AcDbEntity
  8
0
100
AcDbLine
 62
7
  6
CONTINUOUS
 10
231.2069727566
 20
34.1256518827
 11
231.0409040229
 21
35.1335005108
  0
LWPOLYLINE
  5
2C2
100
AcDbEntity
  8
0
100
AcDbPolyline
 62
7
  6
CONTINUOUS
 90
7
 70
0
 10
231.3774420943
 20
50.2519256317
 10
231.3599811145
 20
50.4251876407
 10
231.3405776151
 20
50.5990071416
 10
231.3191559576
 20
50.7720590593
 10
231.2959430578
 20
50.9430560785
 10
231.2711658319
 20
51.1107153408
 10
231.1621515634
 20
51.7717789991
  0
LWPOLYLINE
  5
2C3
100
AcDbEntity
  8
0
100
AcDbPolyline
 62
7
  6
CONTINUOUS
 90
3
 70
0
 10
230.8800588012
 20
36.1521831413
 10
230.8536824796
 20
36.5648704346
 10
230.8498736416
 20
36.6256126007
  0
LINE
  5
2C4
100
AcDbEntity
  8
0
100
AcDbLine
 62
7
  6
CONTINUOUS
 10
222.1274420943
 20
178.663030202
 11
222.1274420943
 21
130.3277893352
  0
LINE
  5
2C5
100
AcDbEntity
  8
0
100
AcDbLine
 62
7
  6
CONTINUOUS
 10
222.1274420943
 20
97.3153631651
 11
222.1274420943
 21
95.4121390418
  0
LINE
  5
2C6
100
AcDbEntity
  8
0
100
AcDbLine
 62
7
  6
CONTINUOUS
 10
222.1274420943
 20
72.8173866788
 11
222.1274420943
 21
70.765210884
  0
LINE
  5
2C7
100
AcDbEntity
  8
0
100
AcDbLine
 62
7
  6
CONTINUOUS
 10
222.1274420943
 20
36.6259551067
 11
222.1274420943
 21
36.1521831413
  0
LINE
  5
2C8
100
AcDbEntity
  8
RUNDUNGEN
100
AcDbLine
 62
7
  6
CONTINUOUS
 10
222.1274420943
 20
13.076519146
 11
222.1274420943
 21
36.1521831413
  0
LINE
  5
2C9
100
AcDbEntity
  8
RUNDUNGEN
100
AcDbLine
 62
7
  6
CONTINUOUS
 10
222.1274420943
 20
36.6259551067
 11
222.1274420943
 21
53.8187591194
  0
LINE
  5
2CA
100
AcDbEntity
  8
RUNDUNGEN
100
AcDbLine
 62
7
  6
CONTINUOUS
 10
222.1274420943
 20
53.9597412415
 11
222.1274420943
 21
70.765210884
  0
LINE
  5
2CB
100
AcDbEntity
  8
RUNDUNGEN
100
AcDbLine
 62
7
  6
CONTINUOUS
 10
222.1274420943
 20
72.8173866788
 11
222.1274420943
 21
95.4121390418
  0
LINE
  5
2CC
100
AcDbEntity
  8
RUNDUNGEN
100
AcDbLine
 62
7
  6
CONTINUOUS
 10
222.1274420943
 20
97.3153631651
 11
222.1274420943
 21
106.0777893358
  0
LINE
  5
2CD
100
AcDbEntity
  8
0
100
AcDbLine
 62
7
  6
CONTINUOUS
 10
222.1274420943
 20
178.7027004713
 11
222.1274420943
 21
199.0790595244
  0
LINE
  5
2CE
100
AcDbEntity
  8
0
100
AcDbLine
 62
7
  6
CONTINUOUS
 10
222.1274420943
 20
95.4121390418
 11
230.777514768
 21
95.4121390418
  0
LINE
  5
2CF
100
AcDbEntity
  8
0
100
AcDbLine
 62
7
  6
CONTINUOUS
 10
233.4773694207
 20
95.4121390418
 11
242.1274420943
 21
95.4121390418
  0
LINE
  5
2D0
100
AcDbEntity
  8
0
100
AcDbLine
 62
7
  6
CONTINUOUS
 10
222.1274420943
 20
97.3153631651
 11
230.8800588012
 21
97.3153631651
  0
LINE
  5
2D1
100
AcDbEntity
  8
0
100
AcDbLine
 62
7
  6
CONTINUOUS
 10
233.3748253875
 20
97.3153631651
 11
242.1274420943
 21
97.3153631651
  0
LINE
  5
2D2
100
AcDbEntity
  8
0
100
AcDbLine
 62
7
  6
CONTINUOUS
 10
231.3774420943
 20
98.242808168
 11
232.8774420943
 21
98.242808168
  0
LWPOLYLINE
  5
2D3
100
AcDbEntity
  8
0
100
AcDbPolyline
 62
7
  6
CONTINUOUS
 90
7
 70
0
 10
231.3774420943
 20
68.4865278901
 10
231.2916573499
 20
68.839085549
 10
231.2069727566
 20
69.2030424991
 10
231.1233368825
 20
69.5780488917
 10
231.0409040229
 20
69.963690349
 10
230.9598284731
 20
70.3595385046
 10
230.8800588012
 20
70.765210884
  0
LWPOLYLINE
  5
2D4
100
AcDbEntity
  8
0
100
AcDbPolyline
 62
7
  6
CONTINUOUS
 90
6
 70
0
 10
231.1621515634
 20
51.7717789991
 10
231.0813841691
 20
52.276038057
 10
231.0023899999
 20
52.785984869
 10
230.9253384316
 20
53.3010125738
 10
230.8503988406
 20
53.8205083109
 10
230.8310728829
 20
53.959301175
  0
LINE
  5
2D5
100
AcDbEntity
  8
0
100
AcDbLine
 62
7
  6
CONTINUOUS
 10
231.0409040229
 20
35.1335005108
 11
230.8800588012
 21
36.1521831413
  0
LINE
  5
2D6
100
AcDbEntity
  8
0
100
AcDbLine
 62
7
  6
CONTINUOUS
 10
233.4773694207
 20
95.4121390418
 11
233.3748253875
 21
97.3153631651
  0
LINE
  5
2D7
100
AcDbEntity
  8
0
100
AcDbLine
 62
7
  6
CONTINUOUS
 10
230.8800588012
 20
70.765210884
 11
230.777514768
 21
72.8173866788
  0
LINE
  5
2D8
100
AcDbEntity
  8
0
100
AcDbLine
 62
7
  6
CONTINUOUS
 10
229.6274420943
 20
130.3277893352
 11
229.6274420943
 21
194.0790595244
  0
LINE
  5
2D9
100
AcDbEntity
  8
0
100
AcDbLine
 62
7
  6
CONTINUOUS
 10
231.3774420943
 20
17.324680987
 11
231.3774420943
 21
17.8577557057
  0
LINE
  5
2DA
100
AcDbEntity
  8
0
100
AcDbLine
 62
7
  6
CONTINUOUS
 10
231.3774420943
 20
33.1328334244
 11
231.3774420943
 21
36.6373536143
  0
LINE
  5
2DB
100
AcDbEntity
  8
0
100
AcDbLine
 62
7
  6
CONTINUOUS
 10
231.3774420943
 20
50.2519256317
 11
231.3774420943
 21
53.959301175
  0
LINE
  5
2DC
100
AcDbEntity
  8
0
100
AcDbLine
 62
7
  6
CONTINUOUS
 10
231.3774420943
 20
68.4865278901
 11
231.3774420943
 21
73.8535398028
  0
LINE
  5
2DD
100
AcDbEntity
  8
0
100
AcDbLine
 62
7
  6
CONTINUOUS
 10
231.3774420943
 20
92.4513910402
 11
231.3774420943
 21
98.242808168
  0
LINE
  5
2DE
100
AcDbEntity
  8
0
100
AcDbLine
 62
7
  6
CONTINUOUS
 10
232.8774420943
 20
17.324680987
 11
232.8774420943
 21
17.8577557057
  0
LINE
  5
2DF
100
AcDbEntity
  8
0
100
AcDbLine
 62
7
  6
CONTINUOUS
 10
232.8774420943
 20
33.1328334244
 11
232.8774420943
 21
36.6373536143
  0
LINE
  5
2E0
100
AcDbEntity
  8
0
100
AcDbLine
 62
7
  6
CONTINUOUS
 10
232.8774420943
 20
50.2519256317
 11
232.8774420943
 21
53.959301175
  0
LINE
  5
2E1
100
AcDbEntity
  8
0
100
AcDbLine
 62
7
  6
CONTINUOUS
 10
232.8774420943
 20
68.4865278901
 11
232.8774420943
 21
73.8535398028
  0
LINE
  5
2E2
100
AcDbEntity
  8
0
100
AcDbLine
 62
7
  6
CONTINUOUS
 10
232.8774420943
 20
92.4513910402
 11
232.8774420943
 21
98.242808168
  0
LINE
  5
2E3
100
AcDbEntity
  8
0
100
AcDbLine
 62
7
  6
CONTINUOUS
 10
230.777514768
 20
95.4121390418
 11
230.8800588012
 21
97.3153631651
  0
LINE
  5
2E4
100
AcDbEntity
  8
02___PRT_ALL_AXES
100
AcDbLine
 62
7
  6
CENTER
 10
262.2800841856
 20
106.0777893352
 11
204.9360515325
 21
106.0777893352
  0
LINE
  5
2E5
100
AcDbEntity
  8
0
100
AcDbLine
 62
2
  6
CONTINUOUS
 10
212.1274420943
 20
106.0777893358
 11
252.1274420943
 21
106.0777893358
  0
LWPOLYLINE
  5
2E6
100
AcDbEntity
  8
0
100
AcDbPolyline
 62
7
  6
CONTINUOUS
 90
7
 70
0
 10
233.3748253875
 20
97.3153631651
 10
233.2950523121
 20
97.5075659416
 10
233.2139778261
 20
97.6849596852
 10
233.1315534097
 20
97.8473523316
 10
233.0479246225
 20
97.9945650549
 10
232.963237024
 20
98.1264334328
 10
232.8774420943
 20
98.242808168
  0
LWPOLYLINE
  5
2E7
100
AcDbEntity
  8
0
100
AcDbPolyline
 62
7
  6
CONTINUOUS
 90
7
 70
0
 10
231.2447486412
 20
93.2574987927
 10
231.1621515634
 20
93.5840476886
 10
231.0813841691
 20
93.924159647
 10
231.0023899999
 20
94.2774660822
 10
230.9253384316
 20
94.6435283526
 10
230.8503988406
 20
95.021889595
 10
230.777514768
 20
95.4121390418
  0
LWPOLYLINE
  5
2E8
100
AcDbEntity
  8
0
100
AcDbPolyline
 62
7
  6
CONTINUOUS
 90
7
 70
0
 10
231.3774420943
 20
92.4513910402
 10
231.3599811145
 20
92.6070782791
 10
231.3405776151
 20
92.7557057527
 10
231.3191559576
 20
92.8961108013
 10
231.2959430578
 20
93.0272177739
 10
231.2711658319
 20
93.1480072997
 10
231.2447486412
 20
93.2574987927
  0
LINE
  5
2E9
100
AcDbEntity
  8
0
100
AcDbLine
 62
7
  6
CONTINUOUS
 10
234.6274420943
 20
130.3277893352
 11
234.6274420943
 21
194.0790595244
  0
LINE
  5
2EA
100
AcDbEntity
  8
0
100
AcDbLine
 62
7
  6
CONTINUOUS
 10
233.3748253875
 20
70.765210884
 11
233.4773694207
 21
72.8173866788
  0
LINE
  5
2EB
100
AcDbEntity
  8
0
100
AcDbLine
 62
7
  6
CONTINUOUS
 10
233.3748253875
 20
36.1521831413
 11
233.4050105471
 21
36.6256126007
  0
LWPOLYLINE
  5
2EC
100
AcDbEntity
  8
0
100
AcDbPolyline
 62
7
  6
CONTINUOUS
 90
6
 70
0
 10
232.8774420943
 20
50.2519256317
 10
232.8949030742
 20
50.4251876407
 10
232.9143065736
 20
50.5990071416
 10
232.9357282311
 20
50.7720590593
 10
232.9589411309
 20
50.9430560785
 10
232.9837183568
 20
51.1107153408
  0
LWPOLYLINE
  5
2ED
100
AcDbEntity
  8
0
100
AcDbPolyline
 62
7
  6
CONTINUOUS
 90
7
 70
0
 10
232.8774420943
 20
92.4513910402
 10
232.8949030742
 20
92.6070782791
 10
232.9143065736
 20
92.7557057527
 10
232.9357282311
 20
92.8961108013
 10
232.9589411309
 20
93.0272177739
 10
232.9837183568
 20
93.1480072997
 10
233.0101355475
 20
93.2574987927
  0
LWPOLYLINE
  5
2EE
100
AcDbEntity
  8
0
100
AcDbPolyline
 62
7
  6
CONTINUOUS
 90
7
 70
0
 10
233.0101355475
 20
93.2574987927
 10
233.0927326253
 20
93.5840476886
 10
233.1735000195
 20
93.924159647
 10
233.2524941888
 20
94.2774660822
 10
233.3295457571
 20
94.6435283526
 10
233.4044853481
 20
95.021889595
 10
233.4773694207
 20
95.4121390418
  0
LWPOLYLINE
  5
2EF
100
AcDbEntity
  8
0
100
AcDbPolyline
 62
7
  6
CONTINUOUS
 90
7
 70
0
 10
230.8800588012
 20
97.3153631651
 10
230.9598318766
 20
97.5075659416
 10
231.0409063626
 20
97.6849596852
 10
231.123330779
 20
97.8473523316
 10
231.2069595662
 20
97.9945650549
 10
231.2916471647
 20
98.1264334328
 10
231.3774420943
 20
98.242808168
  0
LINE
  5
2F0
100
AcDbEntity
  8
0
100
AcDbLine
 62
7
  6
CONTINUOUS
 10
242.1274420943
 20
178.663030202
 11
242.1274420943
 21
130.3277893352
  0
LINE
  5
2F1
100
AcDbEntity
  8
RUNDUNGEN
100
AcDbLine
 62
7
  6
CONTINUOUS
 10
242.1274420943
 20
106.0777893358
 11
242.1274420943
 21
97.3153631651
  0
LINE
  5
2F2
100
AcDbEntity
  8
0
100
AcDbLine
 62
7
  6
CONTINUOUS
 10
242.1274420943
 20
97.3153631651
 11
242.1274420943
 21
95.4121390418
  0
LINE
  5
2F3
100
AcDbEntity
  8
RUNDUNGEN
100
AcDbLine
 62
7
  6
CONTINUOUS
 10
242.1274420943
 20
95.4121390418
 11
242.1274420943
 21
72.8173866788
  0
LINE
  5
2F4
100
AcDbEntity
  8
0
100
AcDbLine
 62
7
  6
CONTINUOUS
 10
242.1274420943
 20
72.8173866788
 11
242.1274420943
 21
70.765210884
  0
LINE
  5
2F5
100
AcDbEntity
  8
RUNDUNGEN
100
AcDbLine
 62
7
  6
CONTINUOUS
 10
242.1274420943
 20
70.765210884
 11
242.1274420943
 21
36.6259551067
  0
LINE
  5
2F6
100
AcDbEntity
  8
0
100
AcDbLine
 62
7
  6
CONTINUOUS
 10
242.1274420943
 20
36.6256126007
 11
242.1274420943
 21
36.1521831413
  0
LINE
  5
2F7
100
AcDbEntity
  8
RUNDUNGEN
100
AcDbLine
 62
7
  6
CONTINUOUS
 10
242.1274420943
 20
36.1521831413
 11
242.1274420943
 21
13.076519146
  0
LINE
  5
2F8
100
AcDbEntity
  8
0
100
AcDbLine
 62
7
  6
CONTINUOUS
 10
242.1274420943
 20
178.7027004713
 11
242.1274420943
 21
199.0790595244
  0
LINE
  5
2F9
100
AcDbEntity
  8
0
100
AcDbLine
 62
7
  6
CONTINUOUS
 10
233.2139801657
 20
35.1335005108
 11
233.3748253875
 21
36.1521831413
  0
LWPOLYLINE
  5
2FA
100
AcDbEntity
  8
0
100
AcDbPolyline
 62
7
  6
CONTINUOUS
 90
7
 70
0
 10
232.9837183568
 20
51.1107153408
 10
233.0927326253
 20
51.7717789991
 10
233.1735000195
 20
52.276038057
 10
233.2524941888
 20
52.785984869
 10
233.3295457571
 20
53.3010125738
 10
233.4044853481
 20
53.8205083109
 10
233.4238113058
 20
53.959301175
  0
LINE
  5
2FB
100
AcDbEntity
  8
0
100
AcDbLine
 62
7
  6
CONTINUOUS
 10
233.0479114321
 20
34.1256518827
 11
233.2139801657
 21
35.1335005108
  0
LINE
  5
2FC
100
AcDbEntity
  8
0
100
AcDbLine
 62
7
  6
CONTINUOUS
 10
232.8774420943
 20
33.1328334244
 11
233.0479114321
 21
34.1256518827
  0
LWPOLYLINE
  5
2FD
100
AcDbEntity
  8
0
100
AcDbPolyline
 62
7
  6
CONTINUOUS
 90
7
 70
0
 10
232.8774420943
 20
68.4865278901
 10
232.9632268388
 20
68.839085549
 10
233.0479114321
 20
69.2030424991
 10
233.1315473062
 20
69.5780488917
 10
233.2139801657
 20
69.963690349
 10
233.2950557156
 20
70.3595385046
 10
233.3748253875
 20
70.765210884
  0
LWPOLYLINE
  5
2FE
100
AcDbEntity
  8
0
100
AcDbPolyline
 62
7
  6
CONTINUOUS
 90
7
 70
0
 10
230.777514768
 20
72.8173866788
 10
230.8504055013
 20
72.9699008702
 10
230.925344991
 20
73.1057445375
 10
231.0023858539
 20
73.224738805
 10
231.0813702393
 20
73.3267258886
 10
231.162140296
 20
73.4115635319
 10
231.2447486412
 20
73.47912311
  0
LINE
  5
2FF
100
AcDbEntity
  8
0
100
AcDbLine
 62
7
  6
CONTINUOUS
 10
212.1274420943
 20
115.6027893352
 11
252.1274420943
 21
115.6027893352
  0
LINE
  5
300
100
AcDbEntity
  8
0
100
AcDbLine
 62
7
  6
CONTINUOUS
 10
212.1274420943
 20
116.1027893352
 11
252.1274420943
 21
116.1027893352
  0
LINE
  5
301
100
AcDbEntity
  8
0
100
AcDbLine
 62
7
  6
CONTINUOUS
 10
252.1274420943
 20
81.8277893352
 11
252.1274420943
 21
116.1027893352
  0
LINE
  5
302
100
AcDbEntity
  8
RUNDUNGEN
100
AcDbLine
 62
7
  6
CONTINUOUS
 10
252.1274420943
 20
116.1027893352
 11
252.1274420943
 21
125.3277893352
  0
LINE
  5
303
100
AcDbEntity
  8
0
100
AcDbLine
 62
7
  6
CONTINUOUS
 10
252.1274420943
 20
125.3277893352
 11
252.1274420943
 21
130.3277893352
  0
LINE
  5
304
100
AcDbEntity
  8
0
100
AcDbLine
 62
7
  6
CONTINUOUS
 10
232.8774420943
 20
17.324680987
 11
232.9682280575
 21
17.8577557057
  0
LINE
  5
305
100
AcDbEntity
  8
0
100
AcDbLine
 62
7
  6
CONTINUOUS
 10
212.1274420943
 20
125.3277893352
 11
252.1274420943
 21
125.3277893352
  0
LINE
  5
306
100
AcDbEntity
  8
0
100
AcDbLine
 62
7
  6
CONTINUOUS
 10
212.1274420943
 20
125.8277893352
 11
252.1274420943
 21
125.8277893352
  0
LWPOLYLINE
  5
307
100
AcDbEntity
  8
0
100
AcDbPolyline
 62
7
  6
CONTINUOUS
 90
7
 70
0
 10
231.2447486412
 20
73.47912311
 10
231.2711579445
 20
73.5057433941
 10
231.2959335835
 20
73.5472898451
 10
231.319154146
 20
73.6033928411
 10
231.3405838688
 20
73.6735562909
 10
231.359986989
 20
73.7571687381
 10
231.3774420943
 20
73.8535398028
  0
LINE
  5
308
100
AcDbEntity
  8
0
100
AcDbLine
 62
7
  6
CONTINUOUS
 10
212.1274420943
 20
130.3277893352
 11
229.6274420943
 21
130.3277893352
  0
LINE
  5
309
100
AcDbEntity
  8
0
100
AcDbLine
 62
7
  6
CONTINUOUS
 10
234.6274420943
 20
130.3277893352
 11
252.1274420943
 21
130.3277893352
  0
LINE
  5
30A
100
AcDbEntity
  8
0
100
AcDbLine
 62
7
  6
CONTINUOUS
 10
222.1274420943
 20
134.0569598633
 11
229.6274420943
 21
134.0569598633
  0
LINE
  5
30B
100
AcDbEntity
  8
0
100
AcDbLine
 62
7
  6
CONTINUOUS
 10
234.6274420943
 20
134.0569598633
 11
242.1274420943
 21
134.0569598633
  0
LINE
  5
30C
100
AcDbEntity
  8
0
100
AcDbLine
 62
7
  6
CONTINUOUS
 10
222.1274420943
 20
147.5802697504
 11
229.6274420943
 21
147.5802697504
  0
LINE
  5
30D
100
AcDbEntity
  8
0
100
AcDbLine
 62
7
  6
CONTINUOUS
 10
234.6274420943
 20
147.5802697504
 11
242.1274420943
 21
147.5802697504
  0
LINE
  5
30E
100
AcDbEntity
  8
0
100
AcDbLine
 62
7
  6
CONTINUOUS
 10
222.1274420943
 20
151.436054398
 11
229.6274420943
 21
151.436054398
  0
LINE
  5
30F
100
AcDbEntity
  8
0
100
AcDbLine
 62
7
  6
CONTINUOUS
 10
234.6274420943
 20
151.436054398
 11
242.1274420943
 21
151.436054398
  0
LINE
  5
310
100
AcDbEntity
  8
0
100
AcDbLine
 62
7
  6
CONTINUOUS
 10
222.1274420943
 20
160.8372892102
 11
229.6274420943
 21
160.8372892102
  0
LINE
  5
311
100
AcDbEntity
  8
0
100
AcDbLine
 62
7
  6
CONTINUOUS
 10
234.6274420943
 20
160.8372892102
 11
242.1274420943
 21
160.8372892102
  0
LINE
  5
312
100
AcDbEntity
  8
0
100
AcDbLine
 62
7
  6
CONTINUOUS
 10
222.1274420943
 20
165.1789082077
 11
229.6274420943
 21
165.1789082077
  0
LINE
  5
313
100
AcDbEntity
  8
0
100
AcDbLine
 62
7
  6
CONTINUOUS
 10
234.6274420943
 20
165.1789082077
 11
242.1274420943
 21
165.1789082077
  0
LINE
  5
314
100
AcDbEntity
  8
0
100
AcDbLine
 62
7
  6
CONTINUOUS
 10
222.1274420943
 20
169.1042132012
 11
229.6274420943
 21
169.1042132012
  0
LINE
  5
315
100
AcDbEntity
  8
0
100
AcDbLine
 62
7
  6
CONTINUOUS
 10
234.6274420943
 20
169.1042132012
 11
242.1274420943
 21
169.1042132012
  0
LINE
  5
316
100
AcDbEntity
  8
0
100
AcDbLine
 62
7
  6
CONTINUOUS
 10
222.1274420943
 20
178.7025381031
 11
229.6274420943
 21
178.7025381031
  0
LINE
  5
317
100
AcDbEntity
  8
0
100
AcDbLine
 62
7
  6
CONTINUOUS
 10
234.6274420943
 20
178.7025381031
 11
242.1274420943
 21
178.7025381031
  0
LINE
  5
318
100
AcDbEntity
  8
0
100
AcDbLine
 62
7
  6
CONTINUOUS
 10
222.1274420943
 20
185.1695330632
 11
229.6274420943
 21
185.1695330632
  0
LINE
  5
319
100
AcDbEntity
  8
0
100
AcDbLine
 62
7
  6
CONTINUOUS
 10
234.6274420943
 20
185.1695330632
 11
242.1274420943
 21
185.1695330632
  0
LINE
  5
31A
100
AcDbEntity
  8
0
100
AcDbLine
 62
7
  6
CONTINUOUS
 10
222.1274420943
 20
194.0790595244
 11
229.6274420943
 21
194.0790595244
  0
LINE
  5
31B
100
AcDbEntity
  8
0
100
AcDbLine
 62
7
  6
CONTINUOUS
 10
234.6274420943
 20
194.0790595244
 11
242.1274420943
 21
194.0790595244
  0
LINE
  5
31C
100
AcDbEntity
  8
0
100
AcDbLine
 62
7
  6
CONTINUOUS
 10
222.1274420943
 20
199.0790595244
 11
242.1274420943
 21
199.0790595244
  0
ARC
  5
31D
100
AcDbEntity
  8
0
100
AcDbCircle
 62
7
  6
CONTINUOUS
 10
20.0554938629
 20
56.9116008649
 40
21.6666666666
100
AcDbArc
 50
67.8139555759
 51
77.9216479036
  0
ARC
  5
31E
100
AcDbEntity
  8
0
100
AcDbCircle
 62
7
  6
CONTINUOUS
 10
36.1452777016
 20
39.0540322381
 40
21.6666666667
100
AcDbArc
 50
90.6802472651
 51
108.6828532772
  0
ARC
  5
31F
100
AcDbEntity
  8
0
100
AcDbCircle
 62
7
  6
CONTINUOUS
 10
36.9500732108
 20
38.2492367289
 40
21.6666666667
100
AcDbArc
 50
341.3171467228
 51
359.3197527349
  0
ARC
  5
320
100
AcDbEntity
  8
0
100
AcDbCircle
 62
7
  6
CONTINUOUS
 10
54.8076418376
 20
22.1594528902
 40
21.6666666667
100
AcDbArc
 50
12.0783520964
 51
22.1860444241
  0
ARC
  5
321
100
AcDbEntity
  8
RUNDUNGEN
100
AcDbCircle
 62
7
  6
CONTINUOUS
 10
20.0554938629
 20
56.9116008649
 40
16.6666666667
100
AcDbArc
 50
72.6204782948
 51
83.7473672409
  0
ARC
  5
322
100
AcDbEntity
  8
RUNDUNGEN
100
AcDbCircle
 62
7
  6
CONTINUOUS
 10
36.1452777016
 20
39.0540322381
 40
16.6666666666
100
AcDbArc
 50
97.2282978974
 51
114.7557727191
  0
ARC
  5
323
100
AcDbEntity
  8
RUNDUNGEN
100
AcDbCircle
 62
7
  6
CONTINUOUS
 10
36.9500732108
 20
38.2492367289
 40
16.6666666667
100
AcDbArc
 50
335.2442272809
 51
352.7717021026
  0
ARC
  5
324
100
AcDbEntity
  8
RUNDUNGEN
100
AcDbCircle
 62
7
  6
CONTINUOUS
 10
54.8076418376
 20
22.1594528902
 40
16.6666666666
100
AcDbArc
 50
6.2526327591
 51
17.3795217052
  0
ARC
  5
325
100
AcDbEntity
  8
0
100
AcDbCircle
 62
7
  6
CONTINUOUS
 10
35.9474064418
 20
55.7195242723
 40
5.0
100
AcDbArc
 50
352.1860444241
 51
90.6802472651
  0
ARC
  5
326
100
AcDbEntity
  8
0
100
AcDbCircle
 62
7
  6
CONTINUOUS
 10
53.615565245
 20
38.0513654692
 40
5.0
100
AcDbArc
 50
359.3197527349
 51
97.8139555759
  0
ARC
  5
327
100
AcDbEntity
  8
RUNDUNGEN
100
AcDbCircle
 62
7
  6
CONTINUOUS
 10
28.1192123924
 20
56.459301175
 40
2.5
100
AcDbArc
 50
210.0
 51
294.7557727191
  0
ARC
  5
328
100
AcDbEntity
  8
RUNDUNGEN
100
AcDbCircle
 62
7
  6
CONTINUOUS
 10
54.3553421476
 20
30.2231714198
 40
2.5
100
AcDbArc
 50
155.2442272809
 51
240.0
  0
ARC
  5
329
100
AcDbEntity
  8
RUNDUNGEN
100
AcDbCircle
 62
7
  6
CONTINUOUS
 10
36.5216535733
 20
50.4683192614
 40
2.0
100
AcDbArc
 50
156.2526327591
 51
228.0
  0
ARC
  5
32A
100
AcDbEntity
  8
RUNDUNGEN
100
AcDbCircle
 62
7
  6
CONTINUOUS
 10
48.3643602341
 20
38.6256126007
 40
2.0
100
AcDbArc
 50
222.0
 51
293.7473672409
  0
ARC
  5
32B
100
AcDbEntity
  8
0
100
AcDbCircle
 62
7
  6
CONTINUOUS
 10
6.715324868
 20
105.4577893352
 40
21.6666666666
100
AcDbArc
 50
37.8139555759
 51
47.9216479036
  0
ARC
  5
32C
100
AcDbEntity
  8
0
100
AcDbCircle
 62
7
  6
CONTINUOUS
 10
11.7207021003
 20
81.9477893352
 40
21.6666666667
100
AcDbArc
 50
60.6802472651
 51
78.6828532772
  0
ARC
  5
32D
100
AcDbEntity
  8
0
100
AcDbCircle
 62
7
  6
CONTINUOUS
 10
12.0152777016
 20
80.8484182248
 40
21.6666666667
100
AcDbArc
 50
311.3171467228
 51
329.3197527349
  0
ARC
  5
32E
100
AcDbEntity
  8
0
100
AcDbCircle
 62
7
  6
CONTINUOUS
 10
19.4354938629
 20
57.9854723656
 40
21.6666666667
100
AcDbArc
 50
342.0783520964
 51
352.1860444241
  0
ARC
  5
32F
100
AcDbEntity
  8
RUNDUNGEN
100
AcDbCircle
 62
7
  6
CONTINUOUS
 10
6.715324868
 20
105.4577893352
 40
16.6666666667
100
AcDbArc
 50
42.6204782948
 51
53.7473672409
  0
ARC
  5
330
100
AcDbEntity
  8
RUNDUNGEN
100
AcDbCircle
 62
7
  6
CONTINUOUS
 10
11.7207021003
 20
81.9477893352
 40
16.6666666666
100
AcDbArc
 50
67.2282978974
 51
84.7557727191
  0
ARC
  5
331
100
AcDbEntity
  8
RUNDUNGEN
100
AcDbCircle
 62
7
  6
CONTINUOUS
 10
12.0152777016
 20
80.8484182248
 40
16.6666666667
100
AcDbArc
 50
305.2442272809
 51
322.7717021026
  0
ARC
  5
332
100
AcDbEntity
  8
RUNDUNGEN
100
AcDbCircle
 62
7
  6
CONTINUOUS
 10
19.4354938629
 20
57.9854723656
 40
16.6666666666
100
AcDbArc
 50
336.2526327591
 51
347.3795217052
  0
ARC
  5
333
100
AcDbEntity
  8
0
100
AcDbCircle
 62
7
  6
CONTINUOUS
 10
19.8820865798
 20
96.4794644332
 40
5.0
100
AcDbArc
 50
322.1860444241
 51
60.6802472651
  0
ARC
  5
334
100
AcDbEntity
  8
0
100
AcDbCircle
 62
7
  6
CONTINUOUS
 10
26.3490815399
 20
72.34431067
 40
5.0
100
AcDbArc
 50
329.3197527349
 51
67.8139555759
  0
ARC
  5
335
100
AcDbEntity
  8
RUNDUNGEN
100
AcDbCircle
 62
7
  6
CONTINUOUS
 10
13.4725601186
 20
101.0342270488
 40
2.5
100
AcDbArc
 50
180.0
 51
264.7557727191
  0
ARC
  5
336
100
AcDbEntity
  8
RUNDUNGEN
100
AcDbCircle
 62
7
  6
CONTINUOUS
 10
23.075650106
 20
65.1950073062
 40
2.5
100
AcDbArc
 50
125.2442272809
 51
210.0
  0
ARC
  5
337
100
AcDbEntity
  8
RUNDUNGEN
100
AcDbCircle
 62
7
  6
CONTINUOUS
 10
17.7537966783
 20
91.6446639276
 40
2.0
100
AcDbArc
 50
126.2526327591
 51
198.0
  0
ARC
  5
338
100
AcDbEntity
  8
RUNDUNGEN
100
AcDbCircle
 62
7
  6
CONTINUOUS
 10
22.0885281657
 20
75.4672257794
 40
2.0
100
AcDbArc
 50
192.0
 51
263.7473672409
  0
ARC
  5
339
100
AcDbEntity
  8
0
100
AcDbCircle
 62
7
  6
CONTINUOUS
 10
55.8815133383
 20
21.5394528902
 40
21.6666666666
100
AcDbArc
 50
97.8139555759
 51
107.9216479036
  0
ARC
  5
33A
100
AcDbEntity
  8
0
100
AcDbCircle
 62
7
  6
CONTINUOUS
 10
78.7444591974
 20
14.1192367289
 40
21.6666666667
100
AcDbArc
 50
120.6802472651
 51
138.6828532772
  0
ARC
  5
33B
100
AcDbEntity
  8
0
100
AcDbCircle
 62
7
  6
CONTINUOUS
 10
79.8438303078
 20
13.8246611277
 40
21.6666666667
100
AcDbArc
 50
11.3171467228
 51
29.3197527349
  0
ARC
  5
33C
100
AcDbEntity
  8
0
100
AcDbCircle
 62
7
  6
CONTINUOUS
 10
103.3538303078
 20
8.8192838954
 40
21.6666666667
100
AcDbArc
 50
42.0783520964
 51
52.1860444241
  0
ARC
  5
33D
100
AcDbEntity
  8
RUNDUNGEN
100
AcDbCircle
 62
7
  6
CONTINUOUS
 10
55.8815133383
 20
21.5394528902
 40
16.6666666667
100
AcDbArc
 50
102.6204782948
 51
113.7473672409
  0
ARC
  5
33E
100
AcDbEntity
  8
RUNDUNGEN
100
AcDbCircle
 62
7
  6
CONTINUOUS
 10
78.7444591974
 20
14.1192367289
 40
16.6666666666
100
AcDbArc
 50
127.2282978974
 51
144.7557727191
  0
ARC
  5
33F
100
AcDbEntity
  8
RUNDUNGEN
100
AcDbCircle
 62
7
  6
CONTINUOUS
 10
79.8438303078
 20
13.8246611277
 40
16.6666666667
100
AcDbArc
 50
5.2442272809
 51
22.7717021026
  0
ARC
  5
340
100
AcDbEntity
  8
RUNDUNGEN
100
AcDbCircle
 62
7
  6
CONTINUOUS
 10
103.3538303078
 20
8.8192838954
 40
16.6666666666
100
AcDbArc
 50
36.2526327591
 51
47.3795217052
  0
ARC
  5
341
100
AcDbEntity
  8
0
100
AcDbCircle
 62
7
  6
CONTINUOUS
 10
70.2403516427
 20
28.4530405672
 40
5.0
100
AcDbArc
 50
22.1860444241
 51
120.6802472651
  0
ARC
  5
342
100
AcDbEntity
  8
0
100
AcDbCircle
 62
7
  6
CONTINUOUS
 10
94.3755054059
 20
21.9860456072
 40
5.0
100
AcDbArc
 50
29.3197527349
 51
127.8139555759
  0
ARC
  5
343
100
AcDbEntity
  8
RUNDUNGEN
100
AcDbCircle
 62
7
  6
CONTINUOUS
 10
63.0910482788
 20
25.1796091333
 40
2.5
100
AcDbArc
 50
240.0
 51
324.7557727191
  0
ARC
  5
344
100
AcDbEntity
  8
RUNDUNGEN
100
AcDbCircle
 62
7
  6
CONTINUOUS
 10
98.9302680214
 20
15.576519146
 40
2.5
100
AcDbArc
 50
185.2442272809
 51
270.0
  0
ARC
  5
345
100
AcDbEntity
  8
RUNDUNGEN
100
AcDbCircle
 62
7
  6
CONTINUOUS
 10
73.3632667521
 20
24.1924871931
 40
2.0
100
AcDbArc
 50
186.2526327591
 51
258.0
  0
ARC
  5
346
100
AcDbEntity
  8
RUNDUNGEN
100
AcDbCircle
 62
7
  6
CONTINUOUS
 10
89.5407049002
 20
19.8577557057
 40
2.0
100
AcDbArc
 50
252.0
 51
323.7473672409
  0
ARC
  5
347
100
AcDbEntity
  8
0
100
AcDbCircle
 62
7
  6
CONTINUOUS
 10
84.7238303078
 20
86.8277893352
 40
5.0
100
AcDbArc
 50
180.0
 51
270.0
  0
ARC
  5
348
100
AcDbEntity
  8
RUNDUNGEN
100
AcDbCircle
 62
7
  6
CONTINUOUS
 10
85.2238303078
 20
87.3277893352
 40
0.5
100
AcDbArc
 50
180.0
 51
270.0
  0
ARC
  5
349
100
AcDbEntity
  8
0
100
AcDbCircle
 62
7
  6
CONTINUOUS
 10
19.4354938629
 20
154.1701063047
 40
21.6666666666
100
AcDbArc
 50
7.8139555759
 51
17.9216479036
  0
ARC
  5
34A
100
AcDbEntity
  8
0
100
AcDbCircle
 62
7
  6
CONTINUOUS
 10
12.0152777016
 20
131.3071604456
 40
21.6666666667
100
AcDbArc
 50
30.6802472651
 51
48.6828532772
  0
ARC
  5
34B
100
AcDbEntity
  8
0
100
AcDbCircle
 62
7
  6
CONTINUOUS
 10
11.7207021003
 20
130.2077893352
 40
21.6666666667
100
AcDbArc
 50
281.3171467228
 51
299.3197527349
  0
ARC
  5
34C
100
AcDbEntity
  8
0
100
AcDbCircle
 62
7
  6
CONTINUOUS
 10
6.715324868
 20
106.6977893352
 40
21.6666666667
100
AcDbArc
 50
312.0783520964
 51
322.1860444241
  0
ARC
  5
34D
100
AcDbEntity
  8
RUNDUNGEN
100
AcDbCircle
 62
7
  6
CONTINUOUS
 10
12.0152777016
 20
131.3071604456
 40
16.6666666666
100
AcDbArc
 50
37.2282978974
 51
54.7557727191
  0
ARC
  5
34E
100
AcDbEntity
  8
RUNDUNGEN
100
AcDbCircle
 62
7
  6
CONTINUOUS
 10
11.7207021003
 20
130.2077893352
 40
16.6666666667
100
AcDbArc
 50
275.2442272809
 51
292.7717021026
  0
ARC
  5
34F
100
AcDbEntity
  8
RUNDUNGEN
100
AcDbCircle
 62
7
  6
CONTINUOUS
 10
6.715324868
 20
106.6977893352
 40
16.6666666666
100
AcDbArc
 50
306.2526327591
 51
317.3795217052
  0
ARC
  5
350
100
AcDbEntity
  8
RUNDUNGEN
100
AcDbCircle
 62
7
  6
CONTINUOUS
 10
19.4354938629
 20
154.1701063047
 40
16.6666666667
100
AcDbArc
 50
12.6204782948
 51
23.7473672409
  0
ARC
  5
351
100
AcDbEntity
  8
0
100
AcDbCircle
 62
7
  6
CONTINUOUS
 10
26.3490815399
 20
139.8112680003
 40
5.0
100
AcDbArc
 50
292.1860444241
 51
30.6802472651
  0
ARC
  5
352
100
AcDbEntity
  8
0
100
AcDbCircle
 62
7
  6
CONTINUOUS
 10
19.8820865798
 20
115.6761142371
 40
5.0
100
AcDbArc
 50
299.3197527349
 51
37.8139555759
  0
ARC
  5
353
100
AcDbEntity
  8
RUNDUNGEN
100
AcDbCircle
 62
7
  6
CONTINUOUS
 10
13.4725601186
 20
111.1213516216
 40
2.5
100
AcDbArc
 50
95.2442272809
 51
180.0
  0
ARC
  5
354
100
AcDbEntity
  8
RUNDUNGEN
100
AcDbCircle
 62
7
  6
CONTINUOUS
 10
23.075650106
 20
146.9605713642
 40
2.5
100
AcDbArc
 50
150.0
 51
234.7557727191
  0
ARC
  5
355
100
AcDbEntity
  8
RUNDUNGEN
100
AcDbCircle
 62
7
  6
CONTINUOUS
 10
22.0885281657
 20
136.6883528909
 40
2.0
100
AcDbArc
 50
96.2526327591
 51
168.0
  0
ARC
  5
356
100
AcDbEntity
  8
RUNDUNGEN
100
AcDbCircle
 62
7
  6
CONTINUOUS
 10
17.7537966783
 20
120.5109147428
 40
2.0
100
AcDbArc
 50
162.0
 51
233.7473672409
  0
ARC
  5
357
100
AcDbEntity
  8
0
100
AcDbCircle
 62
7
  6
CONTINUOUS
 10
36.9500732108
 20
173.9063419414
 40
21.6666666667
100
AcDbArc
 50
0.6802472651
 51
18.6828532772
  0
ARC
  5
358
100
AcDbEntity
  8
0
100
AcDbCircle
 62
7
  6
CONTINUOUS
 10
54.8076418376
 20
189.9961257802
 40
21.6666666666
100
AcDbArc
 50
337.8139555759
 51
347.9216479036
  0
ARC
  5
359
100
AcDbEntity
  8
0
100
AcDbCircle
 62
7
  6
CONTINUOUS
 10
36.1452777016
 20
173.1015464322
 40
21.6666666667
100
AcDbArc
 50
251.3171467228
 51
269.3197527349
  0
ARC
  5
35A
100
AcDbEntity
  8
0
100
AcDbCircle
 62
7
  6
CONTINUOUS
 10
20.0554938629
 20
155.2439778054
 40
21.6666666667
100
AcDbArc
 50
282.0783520964
 51
292.1860444241
  0
ARC
  5
35B
100
AcDbEntity
  8
RUNDUNGEN
100
AcDbCircle
 62
7
  6
CONTINUOUS
 10
20.0554938629
 20
155.2439778054
 40
16.6666666666
100
AcDbArc
 50
276.2526327591
 51
287.3795217052
  0
ARC
  5
35C
100
AcDbEntity
  8
RUNDUNGEN
100
AcDbCircle
 62
7
  6
CONTINUOUS
 10
54.8076418376
 20
189.9961257802
 40
16.6666666667
100
AcDbArc
 50
342.6204782948
 51
353.7473672409
  0
ARC
  5
35D
100
AcDbEntity
  8
RUNDUNGEN
100
AcDbCircle
 62
7
  6
CONTINUOUS
 10
36.9500732108
 20
173.9063419414
 40
16.6666666666
100
AcDbArc
 50
7.2282978974
 51
24.7557727191
  0
ARC
  5
35E
100
AcDbEntity
  8
RUNDUNGEN
100
AcDbCircle
 62
7
  6
CONTINUOUS
 10
36.1452777016
 20
173.1015464322
 40
16.6666666667
100
AcDbArc
 50
245.2442272809
 51
262.7717021026
  0
ARC
  5
35F
100
AcDbEntity
  8
0
100
AcDbCircle
 62
7
  6
CONTINUOUS
 10
53.615565245
 20
174.1042132012
 40
5.0
100
AcDbArc
 50
262.1860444241
 51
0.6802472651
  0
ARC
  5
360
100
AcDbEntity
  8
0
100
AcDbCircle
 62
7
  6
CONTINUOUS
 10
35.9474064418
 20
156.436054398
 40
5.0
100
AcDbArc
 50
269.3197527349
 51
7.8139555759
  0
ARC
  5
361
100
AcDbEntity
  8
RUNDUNGEN
100
AcDbCircle
 62
7
  6
CONTINUOUS
 10
54.3553421476
 20
181.9324072506
 40
2.5
100
AcDbArc
 50
120.0
 51
204.7557727191
  0
ARC
  5
362
100
AcDbEntity
  8
RUNDUNGEN
100
AcDbCircle
 62
7
  6
CONTINUOUS
 10
28.1192123924
 20
155.6962774954
 40
2.5
100
AcDbArc
 50
65.2442272809
 51
150.0
  0
ARC
  5
363
100
AcDbEntity
  8
RUNDUNGEN
100
AcDbCircle
 62
7
  6
CONTINUOUS
 10
48.3643602341
 20
173.5299660697
 40
2.0
100
AcDbArc
 50
66.2526327591
 51
138.0
  0
ARC
  5
364
100
AcDbEntity
  8
RUNDUNGEN
100
AcDbCircle
 62
7
  6
CONTINUOUS
 10
36.5216535733
 20
161.687259409
 40
2.0
100
AcDbArc
 50
132.0
 51
203.7473672409
  0
ARC
  5
365
100
AcDbEntity
  8
0
100
AcDbCircle
 62
7
  6
CONTINUOUS
 10
84.7238303078
 20
125.3277893352
 40
5.0
100
AcDbArc
 50
90.0
 51
180.0
  0
ARC
  5
366
100
AcDbEntity
  8
RUNDUNGEN
100
AcDbCircle
 62
7
  6
CONTINUOUS
 10
85.2238303078
 20
124.8277893352
 40
0.5
100
AcDbArc
 50
90.0
 51
180.0
  0
ARC
  5
367
100
AcDbEntity
  8
0
100
AcDbCircle
 62
7
  6
CONTINUOUS
 10
55.8815133383
 20
190.6161257802
 40
21.6666666667
100
AcDbArc
 50
252.0783520964
 51
262.1860444241
  0
ARC
  5
368
100
AcDbEntity
  8
0
100
AcDbCircle
 62
7
  6
CONTINUOUS
 10
78.7444591974
 20
198.0363419414
 40
21.6666666667
100
AcDbArc
 50
221.3171467228
 51
239.3197527349
  0
ARC
  5
369
100
AcDbEntity
  8
0
100
AcDbCircle
 62
7
  6
CONTINUOUS
 10
79.8438303078
 20
198.3309175427
 40
21.6666666667
100
AcDbArc
 50
330.6802472651
 51
348.6828532772
  0
ARC
  5
36A
100
AcDbEntity
  8
0
100
AcDbCircle
 62
7
  6
CONTINUOUS
 10
103.3538303078
 20
203.336294775
 40
21.6666666666
100
AcDbArc
 50
307.8139555759
 51
317.9216479036
  0
ARC
  5
36B
100
AcDbEntity
  8
0
100
AcDbCircle
 62
7
  6
CONTINUOUS
 10
103.3538303078
 20
203.336294775
 40
16.6666666667
100
AcDbArc
 50
312.6204782948
 51
323.7473672409
  0
ARC
  5
36C
100
AcDbEntity
  8
0
100
AcDbCircle
 62
7
  6
CONTINUOUS
 10
79.8438303078
 20
198.3309175427
 40
16.6666666666
100
AcDbArc
 50
337.2282978974
 51
354.7557727191
  0
ARC
  5
36D
100
AcDbEntity
  8
RUNDUNGEN
100
AcDbCircle
 62
7
  6
CONTINUOUS
 10
78.7444591974
 20
198.0363419414
 40
16.6666666667
100
AcDbArc
 50
215.2442272809
 51
232.7717021026
  0
ARC
  5
36E
100
AcDbEntity
  8
RUNDUNGEN
100
AcDbCircle
 62
7
  6
CONTINUOUS
 10
55.8815133383
 20
190.6161257802
 40
16.6666666666
100
AcDbArc
 50
246.2526327591
 51
257.3795217052
  0
ARC
  5
36F
100
AcDbEntity
  8
0
100
AcDbCircle
 62
7
  6
CONTINUOUS
 10
70.2403516427
 20
183.7025381031
 40
5.0
100
AcDbArc
 50
239.3197527349
 51
337.8139555759
  0
ARC
  5
370
100
AcDbEntity
  8
0
100
AcDbCircle
 62
7
  6
CONTINUOUS
 10
94.3755054059
 20
190.1695330632
 40
5.0
100
AcDbArc
 50
232.1860444241
 51
330.6802472651
  0
ARC
  5
371
100
AcDbEntity
  8
0
100
AcDbCircle
 62
7
  6
CONTINUOUS
 10
98.9302680214
 20
196.5790595244
 40
2.5
100
AcDbArc
 50
90.0
 51
174.7557727191
  0
ARC
  5
372
100
AcDbEntity
  8
RUNDUNGEN
100
AcDbCircle
 62
7
  6
CONTINUOUS
 10
63.0910482788
 20
186.975969537
 40
2.5
100
AcDbArc
 50
35.2442272809
 51
120.0
  0
ARC
  5
373
100
AcDbEntity
  8
0
100
AcDbCircle
 62
7
  6
CONTINUOUS
 10
89.5407049002
 20
192.2978229647
 40
2.0
100
AcDbArc
 50
36.2526327591
 51
108.0
  0
ARC
  5
374
100
AcDbEntity
  8
RUNDUNGEN
100
AcDbCircle
 62
7
  6
CONTINUOUS
 10
73.3632667521
 20
187.9630914773
 40
2.0
100
AcDbArc
 50
102.0
 51
173.7473672409
  0
ARC
  5
375
100
AcDbEntity
  8
0
100
AcDbCircle
 62
7
  6
CONTINUOUS
 10
104.5938303078
 20
8.8192838954
 40
21.6666666666
100
AcDbArc
 50
127.8139555759
 51
137.9216479036
  0
ARC
  5
376
100
AcDbEntity
  8
0
100
AcDbCircle
 62
7
  6
CONTINUOUS
 10
128.1038303078
 20
13.8246611277
 40
21.6666666667
100
AcDbArc
 50
150.6802472651
 51
168.6828532772
  0
ARC
  5
377
100
AcDbEntity
  8
0
100
AcDbCircle
 62
7
  6
CONTINUOUS
 10
129.2032014183
 20
14.1192367289
 40
21.6666666667
100
AcDbArc
 50
41.3171467228
 51
59.3197527349
  0
ARC
  5
378
100
AcDbEntity
  8
0
100
AcDbCircle
 62
7
  6
CONTINUOUS
 10
152.0661472774
 20
21.5394528902
 40
21.6666666667
100
AcDbArc
 50
72.0783520964
 51
82.1860444241
  0
ARC
  5
379
100
AcDbEntity
  8
RUNDUNGEN
100
AcDbCircle
 62
7
  6
CONTINUOUS
 10
104.5938303078
 20
8.8192838954
 40
16.6666666667
100
AcDbArc
 50
132.6204782948
 51
143.7473672409
  0
ARC
  5
37A
100
AcDbEntity
  8
RUNDUNGEN
100
AcDbCircle
 62
7
  6
CONTINUOUS
 10
128.1038303078
 20
13.8246611277
 40
16.6666666666
100
AcDbArc
 50
157.2282978974
 51
174.7557727191
  0
ARC
  5
37B
100
AcDbEntity
  8
RUNDUNGEN
100
AcDbCircle
 62
7
  6
CONTINUOUS
 10
129.2032014183
 20
14.1192367289
 40
16.6666666667
100
AcDbArc
 50
35.2442272809
 51
52.7717021026
  0
ARC
  5
37C
100
AcDbEntity
  8
RUNDUNGEN
100
AcDbCircle
 62
7
  6
CONTINUOUS
 10
152.0661472774
 20
21.5394528902
 40
16.6666666666
100
AcDbArc
 50
66.2526327591
 51
77.3795217052
  0
ARC
  5
37D
100
AcDbEntity
  8
0
100
AcDbCircle
 62
7
  6
CONTINUOUS
 10
113.5721552098
 20
21.9860456072
 40
5.0
100
AcDbArc
 50
52.1860444241
 51
150.6802472651
  0
ARC
  5
37E
100
AcDbEntity
  8
0
100
AcDbCircle
 62
7
  6
CONTINUOUS
 10
137.707308973
 20
28.4530405672
 40
5.0
100
AcDbArc
 50
59.3197527349
 51
157.8139555759
  0
ARC
  5
37F
100
AcDbEntity
  8
RUNDUNGEN
100
AcDbCircle
 62
7
  6
CONTINUOUS
 10
109.0173925943
 20
15.576519146
 40
2.5
100
AcDbArc
 50
270.0
 51
354.7557727191
  0
ARC
  5
380
100
AcDbEntity
  8
RUNDUNGEN
100
AcDbCircle
 62
7
  6
CONTINUOUS
 10
144.8566123368
 20
25.1796091333
 40
2.5
100
AcDbArc
 50
215.2442272809
 51
300.0
  0
ARC
  5
381
100
AcDbEntity
  8
RUNDUNGEN
100
AcDbCircle
 62
7
  6
CONTINUOUS
 10
118.4069557155
 20
19.8577557057
 40
2.0
100
AcDbArc
 50
216.2526327591
 51
288.0
  0
ARC
  5
382
100
AcDbEntity
  8
RUNDUNGEN
100
AcDbCircle
 62
7
  6
CONTINUOUS
 10
134.5843938636
 20
24.1924871931
 40
2.0
100
AcDbArc
 50
282.0
 51
353.7473672409
  0
ARC
  5
383
100
AcDbEntity
  8
0
100
AcDbCircle
 62
7
  6
CONTINUOUS
 10
123.2238303078
 20
86.8277893352
 40
5.0
100
AcDbArc
 50
270.0
 51
360.0
  0
ARC
  5
384
100
AcDbEntity
  8
RUNDUNGEN
100
AcDbCircle
 62
7
  6
CONTINUOUS
 10
122.7238303078
 20
87.3277893352
 40
0.5
100
AcDbArc
 50
270.0
 51
360.0
  0
ARC
  5
385
100
AcDbEntity
  8
0
100
AcDbCircle
 62
7
  6
CONTINUOUS
 10
187.8921667528
 20
56.9116008649
 40
21.6666666667
100
AcDbArc
 50
102.0783520964
 51
112.1860444241
  0
ARC
  5
386
100
AcDbEntity
  8
0
100
AcDbCircle
 62
7
  6
CONTINUOUS
 10
171.8023829141
 20
39.0540322381
 40
21.6666666667
100
AcDbArc
 50
71.3171467228
 51
89.3197527349
  0
ARC
  5
387
100
AcDbEntity
  8
0
100
AcDbCircle
 62
7
  6
CONTINUOUS
 10
153.1400187781
 20
22.1594528902
 40
21.6666666666
100
AcDbArc
 50
157.8139555759
 51
167.9216479036
  0
ARC
  5
388
100
AcDbEntity
  8
0
100
AcDbCircle
 62
7
  6
CONTINUOUS
 10
170.9975874049
 20
38.2492367289
 40
21.6666666667
100
AcDbArc
 50
180.6802472651
 51
198.6828532772
  0
ARC
  5
389
100
AcDbEntity
  8
RUNDUNGEN
100
AcDbCircle
 62
7
  6
CONTINUOUS
 10
153.1400187781
 20
22.1594528902
 40
16.6666666667
100
AcDbArc
 50
162.6204782948
 51
173.7473672409
  0
ARC
  5
38A
100
AcDbEntity
  8
RUNDUNGEN
100
AcDbCircle
 62
7
  6
CONTINUOUS
 10
170.9975874049
 20
38.2492367289
 40
16.6666666666
100
AcDbArc
 50
187.2282978974
 51
204.7557727191
  0
ARC
  5
38B
100
AcDbEntity
  8
RUNDUNGEN
100
AcDbCircle
 62
7
  6
CONTINUOUS
 10
171.8023829141
 20
39.0540322381
 40
16.6666666667
100
AcDbArc
 50
65.2442272809
 51
82.7717021026
  0
ARC
  5
38C
100
AcDbEntity
  8
RUNDUNGEN
100
AcDbCircle
 62
7
  6
CONTINUOUS
 10
187.8921667528
 20
56.9116008649
 40
16.6666666666
100
AcDbArc
 50
96.2526327591
 51
107.3795217052
  0
ARC
  5
38D
100
AcDbEntity
  8
0
100
AcDbCircle
 62
7
  6
CONTINUOUS
 10
172.0002541738
 20
55.7195242723
 40
5.0
100
AcDbArc
 50
89.3197527349
 51
187.8139555759
  0
ARC
  5
38E
100
AcDbEntity
  8
0
100
AcDbCircle
 62
7
  6
CONTINUOUS
 10
154.3320953707
 20
38.0513654692
 40
5.0
100
AcDbArc
 50
82.1860444241
 51
180.6802472651
  0
ARC
  5
38F
100
AcDbEntity
  8
RUNDUNGEN
100
AcDbCircle
 62
7
  6
CONTINUOUS
 10
153.5923184681
 20
30.2231714198
 40
2.5
100
AcDbArc
 50
300.0
 51
24.7557727191
  0
ARC
  5
390
100
AcDbEntity
  8
RUNDUNGEN
100
AcDbCircle
 62
7
  6
CONTINUOUS
 10
179.8284482233
 20
56.459301175
 40
2.5
100
AcDbArc
 50
245.2442272809
 51
330.0
  0
ARC
  5
391
100
AcDbEntity
  8
RUNDUNGEN
100
AcDbCircle
 62
7
  6
CONTINUOUS
 10
159.5833003816
 20
38.6256126007
 40
2.0
100
AcDbArc
 50
246.2526327591
 51
318.0
  0
ARC
  5
392
100
AcDbEntity
  8
RUNDUNGEN
100
AcDbCircle
 62
7
  6
CONTINUOUS
 10
171.4260070423
 20
50.4683192614
 40
2.0
100
AcDbArc
 50
312.0
 51
23.7473672409
  0
ARC
  5
393
100
AcDbEntity
  8
0
100
AcDbCircle
 62
7
  6
CONTINUOUS
 10
201.2323357476
 20
105.4577893352
 40
21.6666666667
100
AcDbArc
 50
132.0783520964
 51
142.1860444241
  0
ARC
  5
394
100
AcDbEntity
  8
0
100
AcDbCircle
 62
7
  6
CONTINUOUS
 10
196.2269585153
 20
81.9477893352
 40
21.6666666667
100
AcDbArc
 50
101.3171467228
 51
119.3197527349
  0
ARC
  5
395
100
AcDbEntity
  8
0
100
AcDbCircle
 62
7
  6
CONTINUOUS
 10
195.9323829141
 20
80.8484182248
 40
21.6666666667
100
AcDbArc
 50
210.6802472651
 51
228.6828532772
  0
ARC
  5
396
100
AcDbEntity
  8
0
100
AcDbCircle
 62
7
  6
CONTINUOUS
 10
188.5121667528
 20
57.9854723656
 40
21.6666666666
100
AcDbArc
 50
187.8139555759
 51
197.9216479036
  0
ARC
  5
397
100
AcDbEntity
  8
RUNDUNGEN
100
AcDbCircle
 62
7
  6
CONTINUOUS
 10
188.5121667528
 20
57.9854723656
 40
16.6666666667
100
AcDbArc
 50
192.6204782948
 51
203.7473672409
  0
ARC
  5
398
100
AcDbEntity
  8
RUNDUNGEN
100
AcDbCircle
 62
7
  6
CONTINUOUS
 10
195.9323829141
 20
80.8484182248
 40
16.6666666666
100
AcDbArc
 50
217.2282978974
 51
234.7557727191
  0
ARC
  5
399
100
AcDbEntity
  8
0
100
AcDbCircle
 62
7
  6
CONTINUOUS
 10
196.2269585153
 20
81.9477893352
 40
16.6666666667
100
AcDbArc
 50
95.2442272809
 51
112.7717021026
  0
ARC
  5
39A
100
AcDbEntity
  8
0
100
AcDbCircle
 62
7
  6
CONTINUOUS
 10
201.2323357476
 20
105.4577893352
 40
16.6666666666
100
AcDbArc
 50
126.2526327591
 51
137.3795217052
  0
ARC
  5
39B
100
AcDbEntity
  8
0
100
AcDbCircle
 62
7
  6
CONTINUOUS
 10
188.0655740358
 20
96.4794644332
 40
5.0
100
AcDbArc
 50
119.3197527349
 51
217.8139555759
  0
ARC
  5
39C
100
AcDbEntity
  8
0
100
AcDbCircle
 62
7
  6
CONTINUOUS
 10
181.5985790758
 20
72.34431067
 40
5.0
100
AcDbArc
 50
112.1860444241
 51
210.6802472651
  0
ARC
  5
39D
100
AcDbEntity
  8
RUNDUNGEN
100
AcDbCircle
 62
7
  6
CONTINUOUS
 10
184.8720105097
 20
65.1950073062
 40
2.5
100
AcDbArc
 50
330.0
 51
54.7557727191
  0
ARC
  5
39E
100
AcDbEntity
  8
0
100
AcDbCircle
 62
7
  6
CONTINUOUS
 10
194.4751004971
 20
101.0342270488
 40
2.5
100
AcDbArc
 50
275.2442272809
 51
360.0
  0
ARC
  5
39F
100
AcDbEntity
  8
RUNDUNGEN
100
AcDbCircle
 62
7
  6
CONTINUOUS
 10
185.85913245
 20
75.4672257794
 40
2.0
100
AcDbArc
 50
276.2526327591
 51
348.0
  0
ARC
  5
3A0
100
AcDbEntity
  8
0
100
AcDbCircle
 62
7
  6
CONTINUOUS
 10
190.1938639374
 20
91.6446639276
 40
2.0
100
AcDbArc
 50
342.0
 51
53.7473672409
  0
ARC
  5
3A1
100
AcDbEntity
  8
0
100
AcDbCircle
 62
7
  6
CONTINUOUS
 10
103.9738303078
 20
106.0777893352
 40
89.098266938
100
AcDbArc
 50
155.0449009755
 51
158.7971533692
  0
ARC
  5
3A2
100
AcDbEntity
  8
0
100
AcDbCircle
 62
7
  6
CONTINUOUS
 10
103.9738303078
 20
106.0777893352
 40
89.098266938
100
AcDbArc
 50
141.2028466308
 51
144.9550990245
  0
ARC
  5
3A3
100
AcDbEntity
  8
0
100
AcDbCircle
 62
7
  6
CONTINUOUS
 10
103.9738303078
 20
106.0777893352
 40
89.098266938
100
AcDbArc
 50
125.0449009755
 51
128.7971533692
  0
ARC
  5
3A4
100
AcDbEntity
  8
0
100
AcDbCircle
 62
7
  6
CONTINUOUS
 10
103.9738303078
 20
106.0777893352
 40
89.098266938
100
AcDbArc
 50
111.2028466308
 51
114.9550990245
  0
ARC
  5
3A5
100
AcDbEntity
  8
0
100
AcDbCircle
 62
7
  6
CONTINUOUS
 10
103.9738303078
 20
106.0777893352
 40
89.098266938
100
AcDbArc
 50
95.0449009755
 51
98.7971533692
  0
ARC
  5
3A6
100
AcDbEntity
  8
0
100
AcDbCircle
 62
7
  6
CONTINUOUS
 10
103.9738303078
 20
106.0777893352
 40
89.098266938
100
AcDbArc
 50
81.2028466308
 51
84.9550990245
  0
ARC
  5
3A7
100
AcDbEntity
  8
0
100
AcDbCircle
 62
7
  6
CONTINUOUS
 10
103.9738303078
 20
106.0777893352
 40
89.098266938
100
AcDbArc
 50
65.0449009755
 51
68.7971533692
  0
ARC
  5
3A8
100
AcDbEntity
  8
0
100
AcDbCircle
 62
7
  6
CONTINUOUS
 10
103.9738303078
 20
106.0777893352
 40
89.098266938
100
AcDbArc
 50
51.2028466308
 51
54.9550990245
  0
ARC
  5
3A9
100
AcDbEntity
  8
0
100
AcDbCircle
 62
7
  6
CONTINUOUS
 10
103.9738303078
 20
106.0777893352
 40
89.098266938
100
AcDbArc
 50
35.0449009755
 51
38.7971533692
  0
ARC
  5
3AA
100
AcDbEntity
  8
0
100
AcDbCircle
 62
7
  6
CONTINUOUS
 10
103.9738303078
 20
106.0777893352
 40
89.098266938
100
AcDbArc
 50
21.2028466308
 51
24.9550990245
  0
ARC
  5
3AB
100
AcDbEntity
  8
0
100
AcDbCircle
 62
7
  6
CONTINUOUS
 10
103.9738303078
 20
106.0777893352
 40
89.098266938
100
AcDbArc
 50
5.0449009755
 51
8.7971533692
  0
ARC
  5
3AC
100
AcDbEntity
  8
0
100
AcDbCircle
 62
7
  6
CONTINUOUS
 10
103.9738303078
 20
106.0777893352
 40
89.098266938
100
AcDbArc
 50
351.2028466308
 51
354.9550990245
  0
ARC
  5
3AD
100
AcDbEntity
  8
0
100
AcDbCircle
 62
7
  6
CONTINUOUS
 10
103.9738303078
 20
106.0777893352
 40
89.098266938
100
AcDbArc
 50
335.0449009755
 51
338.7971533692
  0
ARC
  5
3AE
100
AcDbEntity
  8
0
100
AcDbCircle
 62
7
  6
CONTINUOUS
 10
103.9738303078
 20
106.0777893352
 40
89.098266938
100
AcDbArc
 50
321.2028466308
 51
324.9550990245
  0
ARC
  5
3AF
100
AcDbEntity
  8
0
100
AcDbCircle
 62
7
  6
CONTINUOUS
 10
103.9738303078
 20
106.0777893352
 40
89.098266938
100
AcDbArc
 50
305.0449009755
 51
308.7971533692
  0
ARC
  5
3B0
100
AcDbEntity
  8
0
100
AcDbCircle
 62
7
  6
CONTINUOUS
 10
103.9738303078
 20
106.0777893352
 40
89.098266938
100
AcDbArc
 50
291.2028466308
 51
294.9550990245
  0
ARC
  5
3B1
100
AcDbEntity
  8
0
100
AcDbCircle
 62
7
  6
CONTINUOUS
 10
103.9738303078
 20
106.0777893352
 40
89.098266938
100
AcDbArc
 50
275.0449009755
 51
278.7971533692
  0
ARC
  5
3B2
100
AcDbEntity
  8
0
100
AcDbCircle
 62
7
  6
CONTINUOUS
 10
103.9738303078
 20
106.0777893352
 40
89.098266938
100
AcDbArc
 50
261.2028466308
 51
264.9550990245
  0
ARC
  5
3B3
100
AcDbEntity
  8
0
100
AcDbCircle
 62
7
  6
CONTINUOUS
 10
103.9738303078
 20
106.0777893352
 40
89.098266938
100
AcDbArc
 50
245.0449009755
 51
248.7971533692
  0
ARC
  5
3B4
100
AcDbEntity
  8
0
100
AcDbCircle
 62
7
  6
CONTINUOUS
 10
103.9738303078
 20
106.0777893352
 40
89.098266938
100
AcDbArc
 50
231.2028466308
 51
234.9550990245
  0
ARC
  5
3B5
100
AcDbEntity
  8
0
100
AcDbCircle
 62
7
  6
CONTINUOUS
 10
103.9738303078
 20
106.0777893352
 40
89.098266938
100
AcDbArc
 50
215.0449009755
 51
218.7971533692
  0
ARC
  5
3B6
100
AcDbEntity
  8
0
100
AcDbCircle
 62
7
  6
CONTINUOUS
 10
103.9738303078
 20
106.0777893352
 40
89.098266938
100
AcDbArc
 50
201.2028466308
 51
204.9550990245
  0
ARC
  5
3B7
100
AcDbEntity
  8
0
100
AcDbCircle
 62
7
  6
CONTINUOUS
 10
103.9738303078
 20
106.0777893352
 40
89.098266938
100
AcDbArc
 50
185.0449009755
 51
188.7971533692
  0
ARC
  5
3B8
100
AcDbEntity
  8
0
100
AcDbCircle
 62
7
  6
CONTINUOUS
 10
103.9738303078
 20
106.0777893352
 40
89.098266938
100
AcDbArc
 50
171.2028466308
 51
174.9550990245
  0
ARC
  5
3B9
100
AcDbEntity
  8
0
100
AcDbCircle
 62
7
  6
CONTINUOUS
 10
123.2238303078
 20
125.3277893352
 40
5.0
100
AcDbArc
 50
0.0
 51
90.0
  0
ARC
  5
3BA
100
AcDbEntity
  8
RUNDUNGEN
100
AcDbCircle
 62
7
  6
CONTINUOUS
 10
122.7238303078
 20
124.8277893352
 40
0.5
100
AcDbArc
 50
0.0
 51
90.0
  0
ARC
  5
3BB
100
AcDbEntity
  8
0
100
AcDbCircle
 62
7
  6
CONTINUOUS
 10
104.5938303078
 20
203.336294775
 40
21.6666666667
100
AcDbArc
 50
222.0783520964
 51
232.1860444241
  0
ARC
  5
3BC
100
AcDbEntity
  8
0
100
AcDbCircle
 62
7
  6
CONTINUOUS
 10
128.1038303078
 20
198.3309175427
 40
21.6666666667
100
AcDbArc
 50
191.3171467228
 51
209.3197527349
  0
ARC
  5
3BD
100
AcDbEntity
  8
0
100
AcDbCircle
 62
7
  6
CONTINUOUS
 10
129.2032014183
 20
198.0363419414
 40
21.6666666667
100
AcDbArc
 50
300.6802472651
 51
318.6828532772
  0
ARC
  5
3BE
100
AcDbEntity
  8
0
100
AcDbCircle
 62
7
  6
CONTINUOUS
 10
152.0661472774
 20
190.6161257802
 40
21.6666666666
100
AcDbArc
 50
277.8139555759
 51
287.9216479036
  0
ARC
  5
3BF
100
AcDbEntity
  8
0
100
AcDbCircle
 62
7
  6
CONTINUOUS
 10
152.0661472774
 20
190.6161257802
 40
16.6666666667
100
AcDbArc
 50
282.6204782948
 51
293.7473672409
  0
ARC
  5
3C0
100
AcDbEntity
  8
0
100
AcDbCircle
 62
7
  6
CONTINUOUS
 10
129.2032014183
 20
198.0363419414
 40
16.6666666666
100
AcDbArc
 50
307.2282978974
 51
324.7557727191
  0
ARC
  5
3C1
100
AcDbEntity
  8
0
100
AcDbCircle
 62
7
  6
CONTINUOUS
 10
128.1038303078
 20
198.3309175427
 40
16.6666666667
100
AcDbArc
 50
185.2442272809
 51
202.7717021026
  0
ARC
  5
3C2
100
AcDbEntity
  8
0
100
AcDbCircle
 62
7
  6
CONTINUOUS
 10
104.5938303078
 20
203.336294775
 40
16.6666666666
100
AcDbArc
 50
216.2526327591
 51
227.3795217052
  0
ARC
  5
3C3
100
AcDbEntity
  8
0
100
AcDbCircle
 62
7
  6
CONTINUOUS
 10
113.5721552098
 20
190.1695330632
 40
5.0
100
AcDbArc
 50
209.3197527349
 51
307.8139555759
  0
ARC
  5
3C4
100
AcDbEntity
  8
0
100
AcDbCircle
 62
7
  6
CONTINUOUS
 10
137.707308973
 20
183.7025381031
 40
5.0
100
AcDbArc
 50
202.1860444241
 51
300.6802472651
  0
ARC
  5
3C5
100
AcDbEntity
  8
0
100
AcDbCircle
 62
7
  6
CONTINUOUS
 10
144.8566123368
 20
186.975969537
 40
2.5
100
AcDbArc
 50
60.0
 51
144.7557727191
  0
ARC
  5
3C6
100
AcDbEntity
  8
0
100
AcDbCircle
 62
7
  6
CONTINUOUS
 10
109.0173925943
 20
196.5790595244
 40
2.5
100
AcDbArc
 50
5.2442272809
 51
90.0
  0
ARC
  5
3C7
100
AcDbEntity
  8
0
100
AcDbCircle
 62
7
  6
CONTINUOUS
 10
134.5843938636
 20
187.9630914773
 40
2.0
100
AcDbArc
 50
6.2526327591
 51
78.0
  0
ARC
  5
3C8
100
AcDbEntity
  8
0
100
AcDbCircle
 62
7
  6
CONTINUOUS
 10
118.4069557155
 20
192.2978229647
 40
2.0
100
AcDbArc
 50
72.0
 51
143.7473672409
  0
ARC
  5
3C9
100
AcDbEntity
  8
0
100
AcDbCircle
 62
7
  6
CONTINUOUS
 10
188.5121667528
 20
154.1701063047
 40
21.6666666667
100
AcDbArc
 50
162.0783520964
 51
172.1860444241
  0
ARC
  5
3CA
100
AcDbEntity
  8
0
100
AcDbCircle
 62
7
  6
CONTINUOUS
 10
195.9323829141
 20
131.3071604456
 40
21.6666666667
100
AcDbArc
 50
131.3171467228
 51
149.3197527349
  0
ARC
  5
3CB
100
AcDbEntity
  8
0
100
AcDbCircle
 62
7
  6
CONTINUOUS
 10
196.2269585153
 20
130.2077893352
 40
21.6666666667
100
AcDbArc
 50
240.6802472651
 51
258.6828532772
  0
ARC
  5
3CC
100
AcDbEntity
  8
0
100
AcDbCircle
 62
7
  6
CONTINUOUS
 10
201.2323357476
 20
106.6977893352
 40
21.6666666666
100
AcDbArc
 50
217.8139555759
 51
227.9216479036
  0
ARC
  5
3CD
100
AcDbEntity
  8
0
100
AcDbCircle
 62
7
  6
CONTINUOUS
 10
201.2323357476
 20
106.6977893352
 40
16.6666666667
100
AcDbArc
 50
222.6204782948
 51
233.7473672409
  0
ARC
  5
3CE
100
AcDbEntity
  8
0
100
AcDbCircle
 62
7
  6
CONTINUOUS
 10
196.2269585153
 20
130.2077893352
 40
16.6666666666
100
AcDbArc
 50
247.2282978974
 51
264.7557727191
  0
ARC
  5
3CF
100
AcDbEntity
  8
0
100
AcDbCircle
 62
7
  6
CONTINUOUS
 10
195.9323829141
 20
131.3071604456
 40
16.6666666667
100
AcDbArc
 50
125.2442272809
 51
142.7717021026
  0
ARC
  5
3D0
100
AcDbEntity
  8
0
100
AcDbCircle
 62
7
  6
CONTINUOUS
 10
188.5121667528
 20
154.1701063047
 40
16.6666666666
100
AcDbArc
 50
156.2526327591
 51
167.3795217052
  0
ARC
  5
3D1
100
AcDbEntity
  8
0
100
AcDbCircle
 62
7
  6
CONTINUOUS
 10
181.5985790758
 20
139.8112680003
 40
5.0
100
AcDbArc
 50
149.3197527349
 51
247.8139555759
  0
ARC
  5
3D2
100
AcDbEntity
  8
0
100
AcDbCircle
 62
7
  6
CONTINUOUS
 10
188.0655740358
 20
115.6761142371
 40
5.0
100
AcDbArc
 50
142.1860444241
 51
240.6802472651
  0
ARC
  5
3D3
100
AcDbEntity
  8
0
100
AcDbCircle
 62
7
  6
CONTINUOUS
 10
194.4751004971
 20
111.1213516216
 40
2.5
100
AcDbArc
 50
0.0
 51
84.7557727191
  0
ARC
  5
3D4
100
AcDbEntity
  8
0
100
AcDbCircle
 62
7
  6
CONTINUOUS
 10
184.8720105097
 20
146.9605713642
 40
2.5
100
AcDbArc
 50
305.2442272809
 51
30.0
  0
ARC
  5
3D5
100
AcDbEntity
  8
0
100
AcDbCircle
 62
7
  6
CONTINUOUS
 10
190.1938639374
 20
120.5109147428
 40
2.0
100
AcDbArc
 50
306.2526327591
 51
18.0
  0
ARC
  5
3D6
100
AcDbEntity
  8
0
100
AcDbCircle
 62
7
  6
CONTINUOUS
 10
185.85913245
 20
136.6883528909
 40
2.0
100
AcDbArc
 50
12.0
 51
83.7473672409
  0
ARC
  5
3D7
100
AcDbEntity
  8
0
100
AcDbCircle
 62
7
  6
CONTINUOUS
 10
153.1400187781
 20
189.9961257802
 40
21.6666666667
100
AcDbArc
 50
192.0783520964
 51
202.1860444241
  0
ARC
  5
3D8
100
AcDbEntity
  8
0
100
AcDbCircle
 62
7
  6
CONTINUOUS
 10
170.9975874049
 20
173.9063419414
 40
21.6666666667
100
AcDbArc
 50
161.3171467228
 51
179.3197527349
  0
ARC
  5
3D9
100
AcDbEntity
  8
0
100
AcDbCircle
 62
7
  6
CONTINUOUS
 10
171.8023829141
 20
173.1015464322
 40
21.6666666667
100
AcDbArc
 50
270.6802472651
 51
288.6828532772
  0
ARC
  5
3DA
100
AcDbEntity
  8
0
100
AcDbCircle
 62
7
  6
CONTINUOUS
 10
187.8921667528
 20
155.2439778054
 40
21.6666666666
100
AcDbArc
 50
247.8139555759
 51
257.9216479036
  0
ARC
  5
3DB
100
AcDbEntity
  8
0
100
AcDbCircle
 62
7
  6
CONTINUOUS
 10
187.8921667528
 20
155.2439778054
 40
16.6666666667
100
AcDbArc
 50
252.6204782948
 51
263.7473672409
  0
ARC
  5
3DC
100
AcDbEntity
  8
0
100
AcDbCircle
 62
7
  6
CONTINUOUS
 10
171.8023829141
 20
173.1015464322
 40
16.6666666666
100
AcDbArc
 50
277.2282978974
 51
294.7557727191
  0
ARC
  5
3DD
100
AcDbEntity
  8
0
100
AcDbCircle
 62
7
  6
CONTINUOUS
 10
170.9975874049
 20
173.9063419414
 40
16.6666666667
100
AcDbArc
 50
155.2442272809
 51
172.7717021026
  0
ARC
  5
3DE
100
AcDbEntity
  8
0
100
AcDbCircle
 62
7
  6
CONTINUOUS
 10
153.1400187781
 20
189.9961257802
 40
16.6666666666
100
AcDbArc
 50
186.2526327591
 51
197.3795217052
  0
ARC
  5
3DF
100
AcDbEntity
  8
0
100
AcDbCircle
 62
7
  6
CONTINUOUS
 10
154.3320953707
 20
174.1042132012
 40
5.0
100
AcDbArc
 50
179.3197527349
 51
277.8139555759
  0
ARC
  5
3E0
100
AcDbEntity
  8
0
100
AcDbCircle
 62
7
  6
CONTINUOUS
 10
172.0002541738
 20
156.436054398
 40
5.0
100
AcDbArc
 50
172.1860444241
 51
270.6802472651
  0
ARC
  5
3E1
100
AcDbEntity
  8
0
100
AcDbCircle
 62
7
  6
CONTINUOUS
 10
179.8284482233
 20
155.6962774954
 40
2.5
100
AcDbArc
 50
30.0
 51
114.7557727191
  0
ARC
  5
3E2
100
AcDbEntity
  8
0
100
AcDbCircle
 62
7
  6
CONTINUOUS
 10
153.5923184681
 20
181.9324072506
 40
2.5
100
AcDbArc
 50
335.2442272809
 51
60.0
  0
ARC
  5
3E3
100
AcDbEntity
  8
0
100
AcDbCircle
 62
7
  6
CONTINUOUS
 10
171.4260070423
 20
161.687259409
 40
2.0
100
AcDbArc
 50
336.2526327591
 51
48.0
  0
ARC
  5
3E4
100
AcDbEntity
  8
0
100
AcDbCircle
 62
7
  6
CONTINUOUS
 10
159.5833003816
 20
173.5299660697
 40
2.0
100
AcDbArc
 50
42.0
 51
113.7473672409
  0
ENDSEC
  0
SECTION
  2
OBJECTS
  0
DICTIONARY
  5
C
100
AcDbDictionary
280
0
281
1
  3
ACAD_GROUP
350
D
  3
ACAD_MLINESTYLE
350
17
  3
ACAD_LAYOUT
350
1A
  3
ACAD_PLOTSETTINGS
350
19
  3
ACAD_PLOTSTYLENAME
350
E
  0
DICTIONARY
  5
D
102
{ACAD_REACTORS
330
C
102
}
100
AcDbDictionary
280
0
281
1
  0
ACDBDICTIONARYWDFLT
  5
E
102
{ACAD_REACTORS
330
C
102
}
100
AcDbDictionary
281
1
  3
Normal
350
F
100
AcDbDictionaryWithDefault
340
F
  0
DICTIONARY
  5
17
102
{ACAD_REACTORS
330
C
102
}
100
AcDbDictionary
280
0
281
1
  3
Standard
350
18
  0
DICTIONARY
  5
19
102
{ACAD_REACTORS
330
C
102
}
100
AcDbDictionary
281
1
  0
DICTIONARY
  5
1A
102
{ACAD_REACTORS
330
C
102
}
100
AcDbDictionary
281
1
  3
Model
350
3E5
  3
Layout1
350
3E6
  0
ACDBPLACEHOLDER
  5
F
102
{ACAD_REACTORS
330
E
102
}
  0
MLINESTYLE
  5
18
102
{ACAD_REACTORS
330
17
102
}
100
AcDbMlineStyle
  2
STANDARD
 70
0
  3

 62
256
 51
90.0
 52
90.0
 71
2
 49
0.5
 62
256
  6
BYLAYER
 49
-0.5
 62
256
  6
BYLAYER
  0
LAYOUT
  5
3E5
102
{ACAD_REACTORS
330
1A
102
}
100
AcDbPlotSettings
  1

  2
none_device
  4
ISO_A4_(297.00_x_210.00_MM)
  6

 40
0.0
 41
0.0
 42
0.0
 43
0.0
 44
297.0
 45
210.0
 46
0.0
 47
0.0
 48
0.0
 49
0.0
140
0.0
141
0.0
142
1.0
143
1.0
 70
1024
 72
1
 73
0
 74
0
  7

 75
0
147
1.0
148
0.0
149
0.0
100
AcDbLayout
  1
Model
 70
0
 71
0
 10
0.0
 20
0.0
 11
297.0
 21
210.0
 12
0.0
 22
0.0
 32
0.0
 14
0.0
 24
0.0
 34
0.0
 15
0.0
 25
0.0
 35
0.0
146
0.0
 13
0.0
 23
0.0
 33
0.0
 16
1.0
 26
0.0
 36
0.0
 17
0.0
 27
1.0
 37
0.0
 76
0
330
210
345
0
346
0
  0
LAYOUT
  5
3E6
102
{ACAD_REACTORS
330
1A
102
}
100
AcDbPlotSettings
  1

  2
none_device
  4
ISO_A4_(297.00_x_210.00_MM)
  6

 40
0.0
 41
0.0
 42
0.0
 43
0.0
 44
297.0
 45
210.0
 46
0.0
 47
0.0
 48
0.0
 49
0.0
140
0.0
141
0.0
142
1.0
143
1.0
 70
0
 72
1
 73
0
 74
0
  7

 75
0
147
1.0
148
0.0
149
0.0
100
AcDbLayout
  1
Layout1
 70
0
 71
1
 10
0.0
 20
0.0
 11
297.0
 21
210.0
 12
0.0
 22
0.0
 32
0.0
 14
0.0
 24
0.0
 34
0.0
 15
0.0
 25
0.0
 35
0.0
146
0.0
 13
0.0
 23
0.0
 33
0.0
 16
1.0
 26
0.0
 36
0.0
 17
0.0
 27
1.0
 37
0.0
 76
0
330
211
345
0
346
0
  0
ENDSEC
  0
EOF
