999
DXF file: S1-Z10_RD_30_mm.dxf
999
Pro/ENGINEER 2008490 by Parametric Technology Corporation
  0
SECTION
  2
HEADER
  9
$ACADVER
  1
AC1018
  9
$DWGCODEPAGE
  3
ANSI_1252
  9
$EXTMAX
 10
297.0
 20
210.0
 30
0.0
  9
$EXTMIN
 10
0.0
 20
0.0
 30
0.0
  9
$LIMMIN
 10
0.0
 20
0.0
  9
$LIMMAX
 10
297.0
 20
210.0
  9
$VIEWCTR
 10
148.5
 20
105.0
  9
$VIEWSIZE
 40
210.0
  9
$CLAYER
  8
0
  9
$LTSCALE
 40
16.335
  9
$CELTYPE
  6
BYLAYER
  9
$DIMSCALE
 40
1.0
  9
$DIMASZ
 40
3.5
  9
$DIMEXO
 40
1.85625
  9
$DIMDLI
 40
11.286
  9
$DIMEXE
 40
5.346
  9
$DIMCEN
 40
2.673
  9
$DIMLFAC
 40
1.0
  9
$DIMBLK
  1
_FILLED
  9
$DIMTXT
 40
3.5
  9
$DIMTOL
 70
1
  9
$DIMLIM
 70
0
  9
$DIMTFAC
 40
1.0
  9
$DIMTP
 40
0.005
  9
$DIMTM
 40
0.005
  9
$PDMODE
 70
3
  9
$PDSIZE
 40
0.3125
  9
$HANDSEED
  5
395
  9
$TILEMODE
 70
1
  9
$MEASUREMENT
 70
1
  9
$INSUNITS
 70
4
  0
ENDSEC
  0
SECTION
  2
CLASSES
  0
CLASS
  1
ACDBDICTIONARYWDFLT
  2
AcDbDictionaryWithDefault
  3
AutoCAD 2000
 90
0
 91
1
280
0
281
0
  0
CLASS
  1
ACDBPLACEHOLDER
  2
AcDbPlaceHolder
  3
AutoCAD 2000
 90
0
 91
1
280
0
281
0
  0
CLASS
  1
LAYOUT
  2
AcDbLayout
  3
AutoCAD 2000
 90
0
 91
0
280
0
281
0
  0
ENDSEC
  0
SECTION
  2
TABLES
  0
TABLE
  2
VPORT
  5
8
100
AcDbSymbolTable
 70
2
  0
VPORT
  5
1F4
100
AcDbSymbolTableRecord
100
AcDbViewportTableRecord
  2
*ACTIVE
 70
0
 10
0.0
 20
0.0
 11
1.0
 21
1.0
 12
148.5
 22
105.0
 13
0.0
 23
0.0
 14
1.0
 24
1.0
 15
0.0
 25
0.0
 16
0.0
 26
0.0
 36
1.0
 17
0.0
 27
0.0
 37
0.0
 40
210.0
 41
1.4142857143
 42
50.0
 43
0.0
 44
0.0
 50
0.0
 51
0.0
 71
0
 72
100
 73
1
 74
1
 75
0
 76
0
 77
0
 78
0
  0
ENDTAB
  0
TABLE
  2
LTYPE
  5
5
100
AcDbSymbolTable
 70
6
  0
LTYPE
  5
14
100
AcDbSymbolTableRecord
100
AcDbLinetypeTableRecord
  2
BYBLOCK
 70
0
  3

 72
65
 73
0
 40
0.0
  0
LTYPE
  5
15
100
AcDbSymbolTableRecord
100
AcDbLinetypeTableRecord
  2
BYLAYER
 70
0
  3

 72
65
 73
0
 40
0.0
  0
LTYPE
  5
16
100
AcDbSymbolTableRecord
100
AcDbLinetypeTableRecord
  2
CONTINUOUS
 70
64
  3
Solid line
 72
65
 73
0
 40
0.0
  0
LTYPE
  5
1F5
100
AcDbSymbolTableRecord
100
AcDbLinetypeTableRecord
  2
CENTER
 70
64
  3
____ _ ____ _ ____ _ ____ _ ____ _ ____ _ ____
 72
65
 73
4
 40
0.6
 49
0.375
 74
0
 49
-0.075
 74
0
 49
0.075
 74
0
 49
-0.075
 74
0
  0
LTYPE
  5
1F6
100
AcDbSymbolTableRecord
100
AcDbLinetypeTableRecord
  2
HIDDEN
 70
64
  3
- - - - - - - - - - - - - - - - - - - -
 72
65
 73
2
 40
0.2
 49
0.1
 74
0
 49
-0.1
 74
0
  0
LTYPE
  5
1F7
100
AcDbSymbolTableRecord
100
AcDbLinetypeTableRecord
  2
PHANTOM
 70
64
  3
_____ _ _ _____ _ _ _____ _ _ _____
 72
65
 73
6
 40
0.8
 49
0.45
 74
0
 49
-0.05
 74
0
 49
0.1
 74
0
 49
-0.05
 74
0
 49
0.1
 74
0
 49
-0.05
 74
0
  0
LTYPE
  5
1F8
100
AcDbSymbolTableRecord
100
AcDbLinetypeTableRecord
  2
DOT
 70
64
  3
. . . . . . . . . . . . . . . . . . . .
 72
65
 73
2
 40
0.2
 49
0.1
 74
0
 49
-0.1
 74
0
  0
LTYPE
  5
1F9
100
AcDbSymbolTableRecord
100
AcDbLinetypeTableRecord
  2
DASHED
 70
64
  3
- - - - - - - - - - - - - - - - - - - -
 72
65
 73
2
 40
0.2
 49
0.1
 74
0
 49
-0.1
 74
0
  0
ENDTAB
  0
TABLE
  2
LAYER
  5
2
100
AcDbSymbolTable
 70
36
  0
LAYER
  5
10
100
AcDbSymbolTableRecord
100
AcDbLayerTableRecord
  2
0
 70
0
 62
7
  6
CONTINUOUS
370
-3
390
F
  0
LAYER
  5
1FA
100
AcDbSymbolTableRecord
100
AcDbLayerTableRecord
  2
DEFAULT_1
 70
0
 62
7
  6
CENTER
370
-3
390
F
  0
LAYER
  5
1FB
100
AcDbSymbolTableRecord
100
AcDbLayerTableRecord
  2
DEFAULT_2
 70
0
 62
8
  6
HIDDEN
370
-3
390
F
  0
LAYER
  5
1FC
100
AcDbSymbolTableRecord
100
AcDbLayerTableRecord
  2
DEFAULT_3
 70
0
 62
7
  6
PHANTOM
370
-3
390
F
  0
LAYER
  5
1FD
100
AcDbSymbolTableRecord
100
AcDbLayerTableRecord
  2
01___PRT_ALL_DTM_PLN
 70
0
 62
7
  6
CONTINUOUS
370
-3
390
F
  0
LAYER
  5
1FE
100
AcDbSymbolTableRecord
100
AcDbLayerTableRecord
  2
01___PRT_DEF_DTM_PLN
 70
0
 62
7
  6
CONTINUOUS
370
-3
390
F
  0
LAYER
  5
1FF
100
AcDbSymbolTableRecord
100
AcDbLayerTableRecord
  2
02___PRT_ALL_AXES
 70
0
 62
7
  6
CONTINUOUS
370
-3
390
F
  0
LAYER
  5
200
100
AcDbSymbolTableRecord
100
AcDbLayerTableRecord
  2
03___PRT_ALL_CURVES
 70
0
 62
7
  6
CONTINUOUS
370
-3
390
F
  0
LAYER
  5
201
100
AcDbSymbolTableRecord
100
AcDbLayerTableRecord
  2
04___PRT_ALL_DTM_PNT
 70
0
 62
7
  6
CONTINUOUS
370
-3
390
F
  0
LAYER
  5
202
100
AcDbSymbolTableRecord
100
AcDbLayerTableRecord
  2
05___PRT_ALL_DTM_CSYS
 70
0
 62
7
  6
CONTINUOUS
370
-3
390
F
  0
LAYER
  5
203
100
AcDbSymbolTableRecord
100
AcDbLayerTableRecord
  2
05___PRT_DEF_DTM_CSYS
 70
0
 62
7
  6
CONTINUOUS
370
-3
390
F
  0
LAYER
  5
204
100
AcDbSymbolTableRecord
100
AcDbLayerTableRecord
  2
06___PRT_ALL_SURFS
 70
0
 62
7
  6
CONTINUOUS
370
-3
390
F
  0
LAYER
  5
205
100
AcDbSymbolTableRecord
100
AcDbLayerTableRecord
  2
2D-BEMAßUNGEN
 70
0
 62
7
  6
CONTINUOUS
370
-3
390
F
  0
LAYER
  5
206
100
AcDbSymbolTableRecord
100
AcDbLayerTableRecord
  2
ALLE
 70
0
 62
7
  6
CONTINUOUS
370
-3
390
F
  0
LAYER
  5
207
100
AcDbSymbolTableRecord
100
AcDbLayerTableRecord
  2
BEZUGSACHSEN
 70
0
 62
7
  6
CONTINUOUS
370
-3
390
F
  0
LAYER
  5
208
100
AcDbSymbolTableRecord
100
AcDbLayerTableRecord
  2
BEZUGSEBENE
 70
0
 62
7
  6
CONTINUOUS
370
-3
390
F
  0
LAYER
  5
209
100
AcDbSymbolTableRecord
100
AcDbLayerTableRecord
  2
BEZUGSEBENEN
 70
0
 62
7
  6
CONTINUOUS
370
-3
390
F
  0
LAYER
  5
20A
100
AcDbSymbolTableRecord
100
AcDbLayerTableRecord
  2
BEZUGSEBENEN-KES
 70
0
 62
7
  6
CONTINUOUS
370
-3
390
F
  0
LAYER
  5
20B
100
AcDbSymbolTableRecord
100
AcDbLayerTableRecord
  2
EINRASTLINIEN
 70
0
 62
7
  6
CONTINUOUS
370
-3
390
F
  0
LAYER
  5
20C
100
AcDbSymbolTableRecord
100
AcDbLayerTableRecord
  2
GESTEUERTE
 70
0
 62
7
  6
CONTINUOUS
370
-3
390
F
  0
LAYER
  5
20D
100
AcDbSymbolTableRecord
100
AcDbLayerTableRecord
  2
KURVEN
 70
0
 62
7
  6
CONTINUOUS
370
-3
390
F
  0
LAYER
  5
20E
100
AcDbSymbolTableRecord
100
AcDbLayerTableRecord
  2
RUNDUNGEN
 70
0
 62
7
  6
CONTINUOUS
370
-3
390
F
  0
LAYER
  5
20F
100
AcDbSymbolTableRecord
100
AcDbLayerTableRecord
  2
XSEC_DATUMS
 70
0
 62
7
  6
CONTINUOUS
370
-3
390
F
  0
LAYER
  5
210
100
AcDbSymbolTableRecord
100
AcDbLayerTableRecord
  2
ZEICHNUNGSBEMASSUNGEN
 70
0
 62
7
  6
CONTINUOUS
370
-3
390
F
  0
LAYER
  5
211
100
AcDbSymbolTableRecord
100
AcDbLayerTableRecord
  2
ZEICHNUNGSNOTIZEN
 70
0
 62
7
  6
CONTINUOUS
370
-3
390
F
  0
ENDTAB
  0
TABLE
  2
STYLE
  5
3
100
AcDbSymbolTable
 70
1
  0
STYLE
  5
11
100
AcDbSymbolTableRecord
100
AcDbTextStyleTableRecord
  2
STANDARD
 70
0
 40
0.0
 41
0.7
 50
0.0
 71
0
 42
0.2
  3
txt
  4

  0
STYLE
  5
212
100
AcDbSymbolTableRecord
100
AcDbTextStyleTableRecord
  2
TEXTSTYLE_1
 70
0
 40
0.0
 41
0.8
 50
0.0
 71
0
 42
0.2
  3
gdt
  4

  0
ENDTAB
  0
TABLE
  2
VIEW
  5
6
100
AcDbSymbolTable
 70
0
  0
ENDTAB
  0
TABLE
  2
UCS
  5
7
100
AcDbSymbolTable
 70
0
  0
ENDTAB
  0
TABLE
  2
APPID
  5
9
100
AcDbSymbolTable
 70
1
  0
APPID
  5
213
100
AcDbSymbolTableRecord
100
AcDbRegAppTableRecord
  2
ACAD
 70
0
  0
ENDTAB
  0
TABLE
  2
BLOCK_RECORD
  5
1
100
AcDbSymbolTable
 70
0
  0
BLOCK_RECORD
  5
214
100
AcDbSymbolTableRecord
100
AcDbBlockTableRecord
  2
*Model_Space
  0
BLOCK_RECORD
  5
215
100
AcDbSymbolTableRecord
100
AcDbBlockTableRecord
  2
*Paper_Space
  0
ENDTAB
  0
TABLE
  2
DIMSTYLE
  5
A
100
AcDbSymbolTable
 70
1
100
AcDbDimStyleTable
 71
0
  0
DIMSTYLE
105
216
100
AcDbSymbolTableRecord
100
AcDbDimStyleTableRecord
  2
STANDARD
 70
0
  3

  4

 40
1.0
 41
3.5
 42
0.0625
 43
0.38
 44
0.18
 45
0.0
 46
0.0
 47
0.005
 48
0.005
140
3.5
141
0.09
142
0.0
143
25.4
144
1.0
145
0.0
146
1.0
147
0.09
 71
1.0
 72
0.0
 73
0
 74
0
 75
0
 76
0
 77
1
 78
8
170
0
171
2
172
0
173
0
174
0
175
0
176
0
177
0
178
5
270
2
271
3
272
3
273
2
274
2
275
0
280
0
281
0
282
0
283
1
284
8
285
0
286
0
287
3
288
0
340
11
  0
ENDTAB
  0
ENDSEC
  0
SECTION
  2
BLOCKS
  0
BLOCK
  5
20
100
AcDbEntity
  8
0
100
AcDbBlockBegin
  2
*Model_Space
 70
0
 10
0.0
 20
0.0
 30
0.0
  3
*Model_Space
  1

  0
ENDBLK
  5
21
100
AcDbEntity
  8
0
100
AcDbBlockEnd
  0
BLOCK
  5
1C
100
AcDbEntity
  8
0
100
AcDbBlockBegin
  2
*Paper_Space
 70
0
 10
0.0
 20
0.0
 30
0.0
  3
*Paper_Space
  1

  0
ENDBLK
  5
1D
100
AcDbEntity
  8
0
100
AcDbBlockEnd
  0
ENDSEC
  0
SECTION
  2
ENTITIES
  0
LINE
  5
217
100
AcDbEntity
  8
0
100
AcDbLine
 62
7
  6
CONTINUOUS
 10
270.0
 20
123.3
 11
230.0
 21
123.3
  0
LINE
  5
218
100
AcDbEntity
  8
0
100
AcDbLine
 62
7
  6
CONTINUOUS
 10
230.0
 20
123.3
 11
230.0
 21
129.0
  0
LINE
  5
219
100
AcDbEntity
  8
0
100
AcDbLine
 62
7
  6
CONTINUOUS
 10
230.0
 20
129.0
 11
247.5
 21
129.0
  0
LINE
  5
21A
100
AcDbEntity
  8
0
100
AcDbLine
 62
7
  6
CONTINUOUS
 10
247.5
 20
129.0
 11
247.5
 21
176.6420884294
  0
LINE
  5
21B
100
AcDbEntity
  8
0
100
AcDbLine
 62
7
  6
CONTINUOUS
 10
247.5
 20
176.6420884294
 11
240.0
 21
176.6420884294
  0
LINE
  5
21C
100
AcDbEntity
  8
0
100
AcDbLine
 62
7
  6
CONTINUOUS
 10
240.0
 20
176.6420884294
 11
240.0
 21
181.6420884294
  0
LINE
  5
21D
100
AcDbEntity
  8
0
100
AcDbLine
 62
7
  6
CONTINUOUS
 10
240.0
 20
181.6420884294
 11
260.0
 21
181.6420884294
  0
LINE
  5
21E
100
AcDbEntity
  8
0
100
AcDbLine
 62
7
  6
CONTINUOUS
 10
260.0
 20
181.6420884294
 11
260.0
 21
176.6420884294
  0
LINE
  5
21F
100
AcDbEntity
  8
0
100
AcDbLine
 62
7
  6
CONTINUOUS
 10
260.0
 20
176.6420884294
 11
252.5
 21
176.6420884294
  0
LINE
  5
220
100
AcDbEntity
  8
0
100
AcDbLine
 62
7
  6
CONTINUOUS
 10
252.5
 20
176.6420884294
 11
252.5
 21
129.0
  0
LINE
  5
221
100
AcDbEntity
  8
0
100
AcDbLine
 62
7
  6
CONTINUOUS
 10
252.5
 20
129.0
 11
270.0
 21
129.0
  0
LINE
  5
222
100
AcDbEntity
  8
0
100
AcDbLine
 62
7
  6
CONTINUOUS
 10
270.0
 20
129.0
 11
270.0
 21
123.3
  0
HATCH
  5
223
100
AcDbEntity
  8
0
100
AcDbHatch
 62
2
  6
CONTINUOUS
 10
0.0
 20
0.0
 30
0.0
210
0.0
220
0.0
230
1.0
  2
B
 70
0
 71
1
 91
1
 92
1
 93
12
 72
1
 10
270.0
 20
123.3
 11
230.0
 21
123.3
 72
1
 10
230.0
 20
123.3
 11
230.0
 21
129.0
 72
1
 10
230.0
 20
129.0
 11
247.5
 21
129.0
 72
1
 10
247.5
 20
129.0
 11
247.5
 21
176.6420884294
 72
1
 10
247.5
 20
176.6420884294
 11
240.0
 21
176.6420884294
 72
1
 10
240.0
 20
176.6420884294
 11
240.0
 21
181.6420884294
 72
1
 10
240.0
 20
181.6420884294
 11
260.0
 21
181.6420884294
 72
1
 10
260.0
 20
181.6420884294
 11
260.0
 21
176.6420884294
 72
1
 10
260.0
 20
176.6420884294
 11
252.5
 21
176.6420884294
 72
1
 10
252.5
 20
176.6420884294
 11
252.5
 21
129.0
 72
1
 10
252.5
 20
129.0
 11
270.0
 21
129.0
 72
1
 10
270.0
 20
129.0
 11
270.0
 21
123.3
 97
12
330
217
330
218
330
219
330
21A
330
21B
330
21C
330
21D
330
21E
330
21F
330
220
330
221
330
222
 75
0
 76
0
 52
45.0
 41
3.5550047104
 77
0
 78
1
 53
45.0
 43
-0.9426629767
 44
0.9426629767
 45
-2.5137679379
 46
2.5137679379
 79
0
 98
1
 10
0.0
 20
0.0
  0
LINE
  5
224
100
AcDbEntity
  8
0
100
AcDbLine
 62
7
  6
CONTINUOUS
 10
0.0
 20
0.0
 11
0.0
 21
210.0
  0
LINE
  5
225
100
AcDbEntity
  8
0
100
AcDbLine
 62
7
  6
CONTINUOUS
 10
0.0
 20
0.0
 11
297.0
 21
0.0
  0
LINE
  5
226
100
AcDbEntity
  8
0
100
AcDbLine
 62
7
  6
CONTINUOUS
 10
0.0
 20
210.0
 11
297.0
 21
210.0
  0
LINE
  5
227
100
AcDbEntity
  8
0
100
AcDbLine
 62
7
  6
CONTINUOUS
 10
297.0
 20
0.0
 11
297.0
 21
210.0
  0
LINE
  5
228
100
AcDbEntity
  8
RUNDUNGEN
100
AcDbLine
 62
7
  6
CONTINUOUS
 10
43.6675888355
 20
133.4804205869
 11
40.5504959181
 21
123.8869950312
  0
LINE
  5
229
100
AcDbEntity
  8
RUNDUNGEN
100
AcDbLine
 62
7
  6
CONTINUOUS
 10
74.0312383182
 20
169.9692835547
 11
65.8705831144
 21
164.0402204928
  0
LINE
  5
22A
100
AcDbEntity
  8
0
100
AcDbLine
 62
7
  6
CONTINUOUS
 10
109.9564377136
 20
28.3579115706
 11
120.0435622864
 21
28.3579115706
  0
LINE
  5
22B
100
AcDbEntity
  8
RUNDUNGEN
100
AcDbLine
 62
7
  6
CONTINUOUS
 10
65.8705831144
 20
45.9597795072
 11
74.0312383182
 21
40.0307164453
  0
LINE
  5
22C
100
AcDbEntity
  8
RUNDUNGEN
100
AcDbLine
 62
7
  6
CONTINUOUS
 10
40.5504959181
 20
86.1130049688
 11
43.6675888355
 21
76.5195794131
  0
LINE
  5
22D
100
AcDbEntity
  8
RUNDUNGEN
100
AcDbLine
 62
7
  6
CONTINUOUS
 10
42.0983005625
 20
112.8614724998
 11
42.0983005625
 21
97.1385275002
  0
LINE
  5
22E
100
AcDbEntity
  8
0
100
AcDbLine
 62
7
  6
CONTINUOUS
 10
47.0983005625
 20
99.1894307241
 11
47.0983005625
 21
110.8105692759
  0
LINE
  5
22F
100
AcDbEntity
  8
0
100
AcDbLine
 62
7
  6
CONTINUOUS
 10
45.972928185
 20
124.395185663
 11
47.7557217315
 21
129.8820600114
  0
LINE
  5
230
100
AcDbEntity
  8
RUNDUNGEN
100
AcDbLine
 62
7
  6
CONTINUOUS
 10
60.6421438329
 20
154.2106086496
 11
51.4004286396
 21
141.4904789433
  0
LINE
  5
231
100
AcDbEntity
  8
0
100
AcDbLine
 62
7
  6
CONTINUOUS
 10
56.6510042803
 20
140.2107682437
 11
63.4817381359
 21
149.6124668262
  0
LINE
  5
232
100
AcDbEntity
  8
0
100
AcDbLine
 62
7
  6
CONTINUOUS
 10
70.5561299279
 20
161.2641296322
 11
75.2235440277
 21
164.6552044715
  0
LINE
  5
233
100
AcDbEntity
  8
RUNDUNGEN
100
AcDbLine
 62
7
  6
CONTINUOUS
 10
99.9488406036
 20
176.7629649023
 11
84.9954313064
 21
171.9043076958
  0
LINE
  5
234
100
AcDbEntity
  8
0
100
AcDbLine
 62
7
  6
CONTINUOUS
 10
88.4910411536
 20
167.7827890643
 11
99.5434007001
 21
171.3739183708
  0
LINE
  5
235
100
AcDbEntity
  8
0
100
AcDbLine
 62
7
  6
CONTINUOUS
 10
117.8846205533
 20
33.3579115706
 11
112.1153794467
 21
33.3579115706
  0
LINE
  5
236
100
AcDbEntity
  8
0
100
AcDbLine
 62
7
  6
CONTINUOUS
 10
84.9954313064
 20
38.0956923042
 11
99.9488406036
 21
33.2370350977
  0
LINE
  5
237
100
AcDbEntity
  8
0
100
AcDbLine
 62
7
  6
CONTINUOUS
 10
99.5434007001
 20
38.6260816292
 11
88.4910411536
 21
42.2172109357
  0
LINE
  5
238
100
AcDbEntity
  8
0
100
AcDbLine
 62
7
  6
CONTINUOUS
 10
75.2235440277
 20
45.3447955285
 11
70.5561299279
 21
48.7358703678
  0
LINE
  5
239
100
AcDbEntity
  8
RUNDUNGEN
100
AcDbLine
 62
7
  6
CONTINUOUS
 10
51.4004286396
 20
68.5095210567
 11
60.6421438329
 21
55.7893913504
  0
LINE
  5
23A
100
AcDbEntity
  8
0
100
AcDbLine
 62
7
  6
CONTINUOUS
 10
63.4817381359
 20
60.3875331738
 11
56.6510042803
 21
69.7892317563
  0
LINE
  5
23B
100
AcDbEntity
  8
0
100
AcDbLine
 62
7
  6
CONTINUOUS
 10
47.7557217315
 20
80.1179399886
 11
45.972928185
 21
85.604814337
  0
LINE
  5
23C
100
AcDbEntity
  8
0
100
AcDbLine
 62
7
  6
CONTINUOUS
 10
46.2480984577
 20
118.125486854
 11
46.4283005625
 21
116.065767371
  0
LINE
  5
23D
100
AcDbEntity
  8
0
100
AcDbLine
 62
7
  6
CONTINUOUS
 10
46.4283005625
 20
93.934232629
 11
46.2480984577
 21
91.874513146
  0
LINE
  5
23E
100
AcDbEntity
  8
0
100
AcDbLine
 62
7
  6
CONTINUOUS
 10
67.0935108586
 20
156.030095718
 11
66.0286246879
 21
154.2578275129
  0
LINE
  5
23F
100
AcDbEntity
  8
0
100
AcDbLine
 62
7
  6
CONTINUOUS
 10
53.0200349559
 20
136.3530397951
 11
51.6635756547
 21
134.7926118693
  0
LINE
  5
240
100
AcDbEntity
  8
0
100
AcDbLine
 62
7
  6
CONTINUOUS
 10
106.2375738299
 20
174.4429424668
 11
104.3343497066
 21
173.6350717569
  0
LINE
  5
241
100
AcDbEntity
  8
0
100
AcDbLine
 62
7
  6
CONTINUOUS
 10
146.7139906253
 20
43.20394859
 11
148.7285857742
 21
43.6690545278
  0
LINE
  5
242
100
AcDbEntity
  8
0
100
AcDbLine
 62
7
  6
CONTINUOUS
 10
81.2714142258
 20
43.6690545278
 11
83.2860093747
 21
43.20394859
  0
LINE
  5
243
100
AcDbEntity
  8
0
100
AcDbLine
 62
7
  6
CONTINUOUS
 10
104.3343497066
 20
36.3649282431
 11
106.2375738299
 21
35.5570575332
  0
LINE
  5
244
100
AcDbEntity
  8
0
100
AcDbLine
 62
7
  6
CONTINUOUS
 10
51.6635756547
 20
75.2073881307
 11
53.0200349559
 21
73.6469602049
  0
LINE
  5
245
100
AcDbEntity
  8
0
100
AcDbLine
 62
7
  6
CONTINUOUS
 10
66.0286246879
 20
55.7421724871
 11
67.0935108586
 21
53.969904282
  0
LINE
  5
246
100
AcDbEntity
  8
0
100
AcDbLine
 62
7
  6
CONTINUOUS
 10
91.0
 20
127.0
 11
91.0
 21
83.0
  0
LINE
  5
247
100
AcDbEntity
  8
0
100
AcDbLine
 62
7
  6
CONTINUOUS
 10
93.0
 20
81.0
 11
137.0
 21
81.0
  0
LINE
  5
248
100
AcDbEntity
  8
0
100
AcDbLine
 62
7
  6
CONTINUOUS
 10
111.0
 20
123.3
 11
111.0
 21
119.4568322948
  0
LINE
  5
249
100
AcDbEntity
  8
02___PRT_ALL_AXES
100
AcDbLine
 62
7
  6
CENTER
 10
115.0
 20
105.0
 11
115.0
 21
19.6341036619
  0
LINE
  5
24A
100
AcDbEntity
  8
02___PRT_ALL_AXES
100
AcDbLine
 62
7
  6
CENTER
 10
115.0
 20
105.0
 11
115.0
 21
190.3658963381
  0
LINE
  5
24B
100
AcDbEntity
  8
02___PRT_ALL_AXES
100
AcDbLine
 62
7
  6
CENTER
 10
115.0
 20
105.0
 11
29.6341036619
 21
105.0
  0
LINE
  5
24C
100
AcDbEntity
  8
02___PRT_ALL_AXES
100
AcDbLine
 62
7
  6
CENTER
 10
115.0
 20
105.0
 11
198.4761641796
 21
105.0
  0
LINE
  5
24D
100
AcDbEntity
  8
0
100
AcDbLine
 62
7
  6
CONTINUOUS
 10
119.0
 20
119.4568322948
 11
119.0
 21
123.3
  0
LINE
  5
24E
100
AcDbEntity
  8
0
100
AcDbLine
 62
7
  6
CONTINUOUS
 10
119.0
 20
123.3
 11
111.0
 21
123.3
  0
LINE
  5
24F
100
AcDbEntity
  8
0
100
AcDbLine
 62
7
  6
CONTINUOUS
 10
139.0
 20
83.0
 11
139.0
 21
127.0
  0
LINE
  5
250
100
AcDbEntity
  8
0
100
AcDbLine
 62
7
  6
CONTINUOUS
 10
137.0
 20
129.0
 11
93.0
 21
129.0
  0
LINE
  5
251
100
AcDbEntity
  8
0
100
AcDbLine
 62
7
  6
CONTINUOUS
 10
183.7519015423
 20
91.874513146
 11
183.5716994375
 21
93.934232629
  0
LINE
  5
252
100
AcDbEntity
  8
0
100
AcDbLine
 62
7
  6
CONTINUOUS
 10
182.9016994375
 20
110.8105692759
 11
182.9016994375
 21
99.1894307241
  0
LINE
  5
253
100
AcDbEntity
  8
0
100
AcDbLine
 62
7
  6
CONTINUOUS
 10
183.5716994375
 20
116.065767371
 11
183.7519015423
 21
118.125486854
  0
LINE
  5
254
100
AcDbEntity
  8
0
100
AcDbLine
 62
7
  6
CONTINUOUS
 10
162.9064891414
 20
53.969904282
 11
163.9713753121
 21
55.7421724871
  0
LINE
  5
255
100
AcDbEntity
  8
0
100
AcDbLine
 62
7
  6
CONTINUOUS
 10
173.3489957197
 20
69.7892317563
 11
166.5182618641
 21
60.3875331738
  0
LINE
  5
256
100
AcDbEntity
  8
0
100
AcDbLine
 62
7
  6
CONTINUOUS
 10
176.9799650441
 20
73.6469602049
 11
178.3364243453
 21
75.2073881307
  0
LINE
  5
257
100
AcDbEntity
  8
0
100
AcDbLine
 62
7
  6
CONTINUOUS
 10
123.7624261701
 20
35.5570575332
 11
125.6656502934
 21
36.3649282431
  0
LINE
  5
258
100
AcDbEntity
  8
0
100
AcDbLine
 62
7
  6
CONTINUOUS
 10
141.5089588464
 20
42.2172109357
 11
130.4565992999
 21
38.6260816292
  0
LINE
  5
259
100
AcDbEntity
  8
0
100
AcDbLine
 62
7
  6
CONTINUOUS
 10
83.2860093747
 20
166.79605141
 11
81.2714142258
 21
166.3309454722
  0
LINE
  5
25A
100
AcDbEntity
  8
0
100
AcDbLine
 62
7
  6
CONTINUOUS
 10
148.7285857742
 20
166.3309454722
 11
146.7139906253
 21
166.79605141
  0
LINE
  5
25B
100
AcDbEntity
  8
0
100
AcDbLine
 62
7
  6
CONTINUOUS
 10
130.4565992999
 20
171.3739183708
 11
141.5089588464
 21
167.7827890643
  0
LINE
  5
25C
100
AcDbEntity
  8
0
100
AcDbLine
 62
7
  6
CONTINUOUS
 10
125.6656502934
 20
173.6350717569
 11
123.7624261701
 21
174.4429424668
  0
LINE
  5
25D
100
AcDbEntity
  8
0
100
AcDbLine
 62
7
  6
CONTINUOUS
 10
178.3364243453
 20
134.7926118693
 11
176.9799650441
 21
136.3530397951
  0
LINE
  5
25E
100
AcDbEntity
  8
0
100
AcDbLine
 62
7
  6
CONTINUOUS
 10
166.5182618641
 20
149.6124668262
 11
173.3489957197
 21
140.2107682437
  0
LINE
  5
25F
100
AcDbEntity
  8
0
100
AcDbLine
 62
7
  6
CONTINUOUS
 10
163.9713753121
 20
154.2578275129
 11
162.9064891414
 21
156.030095718
  0
LINE
  5
260
100
AcDbEntity
  8
0
100
AcDbLine
 62
7
  6
CONTINUOUS
 10
187.9016994375
 20
97.1385275002
 11
187.9016994375
 21
112.8614724998
  0
LINE
  5
261
100
AcDbEntity
  8
0
100
AcDbLine
 62
7
  6
CONTINUOUS
 10
184.027071815
 20
85.604814337
 11
182.2442782685
 21
80.1179399886
  0
LINE
  5
262
100
AcDbEntity
  8
0
100
AcDbLine
 62
7
  6
CONTINUOUS
 10
186.3324111645
 20
76.5195794131
 11
189.4495040819
 21
86.1130049688
  0
LINE
  5
263
100
AcDbEntity
  8
0
100
AcDbLine
 62
7
  6
CONTINUOUS
 10
169.3578561671
 20
55.7893913504
 11
178.5995713604
 21
68.5095210567
  0
LINE
  5
264
100
AcDbEntity
  8
0
100
AcDbLine
 62
7
  6
CONTINUOUS
 10
159.4438700721
 20
48.7358703678
 11
154.7764559723
 21
45.3447955285
  0
LINE
  5
265
100
AcDbEntity
  8
0
100
AcDbLine
 62
7
  6
CONTINUOUS
 10
155.9687616818
 20
40.0307164453
 11
164.1294168856
 21
45.9597795072
  0
LINE
  5
266
100
AcDbEntity
  8
0
100
AcDbLine
 62
7
  6
CONTINUOUS
 10
130.0511593964
 20
33.2370350977
 11
145.0045686936
 21
38.0956923042
  0
LINE
  5
267
100
AcDbEntity
  8
0
100
AcDbLine
 62
7
  6
CONTINUOUS
 10
112.1153794467
 20
176.6420884294
 11
117.8846205533
 21
176.6420884294
  0
LINE
  5
268
100
AcDbEntity
  8
RUNDUNGEN
100
AcDbLine
 62
7
  6
CONTINUOUS
 10
120.0435622864
 20
181.6420884294
 11
109.9564377136
 21
181.6420884294
  0
LINE
  5
269
100
AcDbEntity
  8
RUNDUNGEN
100
AcDbLine
 62
7
  6
CONTINUOUS
 10
145.0045686936
 20
171.9043076958
 11
130.0511593964
 21
176.7629649023
  0
LINE
  5
26A
100
AcDbEntity
  8
0
100
AcDbLine
 62
7
  6
CONTINUOUS
 10
154.7764559723
 20
164.6552044715
 11
159.4438700721
 21
161.2641296322
  0
LINE
  5
26B
100
AcDbEntity
  8
RUNDUNGEN
100
AcDbLine
 62
7
  6
CONTINUOUS
 10
164.1294168856
 20
164.0402204928
 11
155.9687616818
 21
169.9692835547
  0
LINE
  5
26C
100
AcDbEntity
  8
0
100
AcDbLine
 62
7
  6
CONTINUOUS
 10
178.5995713604
 20
141.4904789433
 11
169.3578561671
 21
154.2106086496
  0
LINE
  5
26D
100
AcDbEntity
  8
0
100
AcDbLine
 62
7
  6
CONTINUOUS
 10
182.2442782685
 20
129.8820600114
 11
184.027071815
 21
124.395185663
  0
LINE
  5
26E
100
AcDbEntity
  8
0
100
AcDbLine
 62
7
  6
CONTINUOUS
 10
189.4495040819
 20
123.8869950312
 11
186.3324111645
 21
133.4804205869
  0
LINE
  5
26F
100
AcDbEntity
  8
0
100
AcDbLine
 62
7
  6
CONTINUOUS
 10
260.0
 20
28.3579115706
 11
240.0
 21
28.3579115706
  0
LINE
  5
270
100
AcDbEntity
  8
0
100
AcDbLine
 62
9
  6
CONTINUOUS
 10
260.0
 20
30.6294083508
 11
240.0
 21
30.6294083508
  0
LINE
  5
271
100
AcDbEntity
  8
0
100
AcDbLine
 62
7
  6
CONTINUOUS
 10
249.25
 20
32.3924020399
 11
250.75
 21
32.3924020399
  0
LINE
  5
272
100
AcDbEntity
  8
0
100
AcDbLine
 62
7
  6
CONTINUOUS
 10
260.0
 20
33.1391481303
 11
240.0
 21
33.1391481303
  0
LINE
  5
273
100
AcDbEntity
  8
0
100
AcDbLine
 62
9
  6
CONTINUOUS
 10
260.0
 20
33.2370350977
 11
240.0
 21
33.2370350977
  0
LINE
  5
274
100
AcDbEntity
  8
RUNDUNGEN
100
AcDbLine
 62
9
  6
CONTINUOUS
 10
260.0
 20
38.0956923042
 11
240.0
 21
38.0956923042
  0
LINE
  5
275
100
AcDbEntity
  8
0
100
AcDbLine
 62
7
  6
CONTINUOUS
 10
250.75
 20
38.9138685006
 11
249.25
 21
38.9138685006
  0
LINE
  5
276
100
AcDbEntity
  8
RUNDUNGEN
100
AcDbLine
 62
7
  6
CONTINUOUS
 10
260.0
 20
39.5532589312
 11
240.0
 21
39.5532589312
  0
LINE
  5
277
100
AcDbEntity
  8
RUNDUNGEN
100
AcDbLine
 62
9
  6
CONTINUOUS
 10
260.0
 20
40.0307164453
 11
240.0
 21
40.0307164453
  0
LINE
  5
278
100
AcDbEntity
  8
RUNDUNGEN
100
AcDbLine
 62
9
  6
CONTINUOUS
 10
260.0
 20
45.9597795072
 11
240.0
 21
45.9597795072
  0
LINE
  5
279
100
AcDbEntity
  8
RUNDUNGEN
100
AcDbLine
 62
9
  6
CONTINUOUS
 10
260.0
 20
49.2607711712
 11
240.0
 21
49.2607711712
  0
LINE
  5
27A
100
AcDbEntity
  8
0
100
AcDbLine
 62
7
  6
CONTINUOUS
 10
249.25
 20
50.8383885559
 11
250.75
 21
50.8383885559
  0
LINE
  5
27B
100
AcDbEntity
  8
0
100
AcDbLine
 62
7
  6
CONTINUOUS
 10
240.0
 20
53.969904282
 11
248.7210470959
 21
53.969904282
  0
LINE
  5
27C
100
AcDbEntity
  8
0
100
AcDbLine
 62
7
  6
CONTINUOUS
 10
251.2789529041
 20
53.969904282
 11
260.0
 21
53.969904282
  0
LINE
  5
27D
100
AcDbEntity
  8
RUNDUNGEN
100
AcDbLine
 62
7
  6
CONTINUOUS
 10
260.0
 20
54.964961855
 11
250.8079307256
 21
54.964961855
  0
LINE
  5
27E
100
AcDbEntity
  8
RUNDUNGEN
100
AcDbLine
 62
7
  6
CONTINUOUS
 10
249.1920692744
 20
54.964961855
 11
240.0
 21
54.964961855
  0
LINE
  5
27F
100
AcDbEntity
  8
0
100
AcDbLine
 62
7
  6
CONTINUOUS
 10
250.75
 20
55.0314733391
 11
249.25
 21
55.0314733391
  0
LINE
  5
280
100
AcDbEntity
  8
RUNDUNGEN
100
AcDbLine
 62
9
  6
CONTINUOUS
 10
260.0
 20
55.7893913504
 11
240.0
 21
55.7893913504
  0
LWPOLYLINE
  5
281
100
AcDbEntity
  8
0
100
AcDbPolyline
 62
7
  6
CONTINUOUS
 90
4
 70
0
 10
250.8069375545
 20
54.9649618599
 10
250.789883854
 20
54.969827289
 10
250.7688001595
 20
54.9918869281
 10
250.75
 20
55.0314733391
  0
LINE
  5
282
100
AcDbEntity
  8
RUNDUNGEN
100
AcDbLine
 62
9
  6
CONTINUOUS
 10
260.0
 20
68.5095210567
 11
240.0
 21
68.5095210567
  0
LINE
  5
283
100
AcDbEntity
  8
0
100
AcDbLine
 62
7
  6
CONTINUOUS
 10
250.75
 20
69.7961163448
 11
249.25
 21
69.7961163448
  0
LINE
  5
284
100
AcDbEntity
  8
0
100
AcDbLine
 62
9
  6
CONTINUOUS
 10
260.0
 20
70.8535163072
 11
250.8954374546
 21
70.8535163072
  0
LINE
  5
285
100
AcDbEntity
  8
0
100
AcDbLine
 62
9
  6
CONTINUOUS
 10
249.1045625454
 20
70.8535163072
 11
240.0
 21
70.8535163072
  0
LINE
  5
286
100
AcDbEntity
  8
0
100
AcDbLine
 62
7
  6
CONTINUOUS
 10
240.0
 20
73.6469602049
 11
248.6277170057
 21
73.6469602049
  0
LINE
  5
287
100
AcDbEntity
  8
0
100
AcDbLine
 62
7
  6
CONTINUOUS
 10
251.3722829943
 20
73.6469602049
 11
260.0
 21
73.6469602049
  0
LINE
  5
288
100
AcDbEntity
  8
RUNDUNGEN
100
AcDbLine
 62
7
  6
CONTINUOUS
 10
260.0
 20
74.792121899
 11
240.0
 21
74.792121899
  0
LINE
  5
289
100
AcDbEntity
  8
RUNDUNGEN
100
AcDbLine
 62
9
  6
CONTINUOUS
 10
260.0
 20
76.5195794131
 11
240.0
 21
76.5195794131
  0
LINE
  5
28A
100
AcDbEntity
  8
0
100
AcDbLine
 62
7
  6
CONTINUOUS
 10
230.0
 20
81.0
 11
240.0
 21
81.0
  0
LINE
  5
28B
100
AcDbEntity
  8
0
100
AcDbLine
 62
7
  6
CONTINUOUS
 10
260.0
 20
81.0
 11
270.0
 21
81.0
  0
LINE
  5
28C
100
AcDbEntity
  8
0
100
AcDbLine
 62
9
  6
CONTINUOUS
 10
230.0
 20
83.0
 11
240.0
 21
83.0
  0
LINE
  5
28D
100
AcDbEntity
  8
0
100
AcDbLine
 62
9
  6
CONTINUOUS
 10
260.0
 20
83.0
 11
270.0
 21
83.0
  0
LINE
  5
28E
100
AcDbEntity
  8
0
100
AcDbLine
 62
7
  6
CONTINUOUS
 10
230.0
 20
81.0
 11
230.0
 21
129.0
  0
LINE
  5
28F
100
AcDbEntity
  8
RUNDUNGEN
100
AcDbLine
 62
9
  6
CONTINUOUS
 10
260.0
 20
86.1130049688
 11
240.0
 21
86.1130049688
  0
LINE
  5
290
100
AcDbEntity
  8
RUNDUNGEN
100
AcDbLine
 62
9
  6
CONTINUOUS
 10
260.0
 20
89.1826248975
 11
240.0
 21
89.1826248975
  0
LINE
  5
291
100
AcDbEntity
  8
0
100
AcDbLine
 62
7
  6
CONTINUOUS
 10
249.25
 20
89.9722697582
 11
250.75
 21
89.9722697582
  0
LINE
  5
292
100
AcDbEntity
  8
0
100
AcDbLine
 62
7
  6
CONTINUOUS
 10
240.0
 20
91.874513146
 11
248.7210470959
 21
91.874513146
  0
LINE
  5
293
100
AcDbEntity
  8
0
100
AcDbLine
 62
7
  6
CONTINUOUS
 10
251.2789529041
 20
91.874513146
 11
260.0
 21
91.874513146
  0
LINE
  5
294
100
AcDbEntity
  8
0
100
AcDbLine
 62
7
  6
CONTINUOUS
 10
240.0
 20
93.934232629
 11
248.6277170057
 21
93.934232629
  0
LINE
  5
295
100
AcDbEntity
  8
0
100
AcDbLine
 62
7
  6
CONTINUOUS
 10
251.3722829943
 20
93.934232629
 11
260.0
 21
93.934232629
  0
LWPOLYLINE
  5
296
100
AcDbEntity
  8
0
100
AcDbPolyline
 62
7
  6
CONTINUOUS
 90
5
 70
0
 10
249.25
 20
50.8383885559
 10
249.1583623141
 20
51.3451615818
 10
249.0680456969
 20
51.8587901309
 10
248.9789840745
 20
52.3787215713
 10
248.8913756685
 20
52.9043074238
  0
LINE
  5
297
100
AcDbEntity
  8
0
100
AcDbLine
 62
7
  6
CONTINUOUS
 10
249.25
 20
32.3924020399
 11
249.1236351707
 21
33.1391481303
  0
LINE
  5
298
100
AcDbEntity
  8
0
100
AcDbLine
 62
7
  6
CONTINUOUS
 10
240.0
 20
93.934232629
 11
240.0
 21
91.874513146
  0
LINE
  5
299
100
AcDbEntity
  8
0
100
AcDbLine
 62
7
  6
CONTINUOUS
 10
240.0
 20
74.7922588224
 11
240.0
 21
73.6469602049
  0
LINE
  5
29A
100
AcDbEntity
  8
0
100
AcDbLine
 62
7
  6
CONTINUOUS
 10
240.0
 20
54.9649621215
 11
240.0
 21
53.969904282
  0
LINE
  5
29B
100
AcDbEntity
  8
0
100
AcDbLine
 62
7
  6
CONTINUOUS
 10
240.0
 20
28.3579115706
 11
240.0
 21
38.0956923042
  0
LINE
  5
29C
100
AcDbEntity
  8
RUNDUNGEN
100
AcDbLine
 62
7
  6
CONTINUOUS
 10
240.0
 20
38.0956923042
 11
240.0
 21
53.969904282
  0
LINE
  5
29D
100
AcDbEntity
  8
RUNDUNGEN
100
AcDbLine
 62
7
  6
CONTINUOUS
 10
240.0
 20
54.9649621215
 11
240.0
 21
73.6469602049
  0
LINE
  5
29E
100
AcDbEntity
  8
RUNDUNGEN
100
AcDbLine
 62
7
  6
CONTINUOUS
 10
240.0
 20
74.7922588224
 11
240.0
 21
91.874513146
  0
LINE
  5
29F
100
AcDbEntity
  8
RUNDUNGEN
100
AcDbLine
 62
7
  6
CONTINUOUS
 10
240.0
 20
93.934232629
 11
240.0
 21
105.0000000006
  0
LINE
  5
2A0
100
AcDbEntity
  8
0
100
AcDbLine
 62
7
  6
CONTINUOUS
 10
240.0
 20
129.0
 11
240.0
 21
181.6420884294
  0
LINE
  5
2A1
100
AcDbEntity
  8
0
100
AcDbLine
 62
9
  6
CONTINUOUS
 10
260.0
 20
95.2391580297
 11
250.8954374546
 21
95.2391580297
  0
LINE
  5
2A2
100
AcDbEntity
  8
0
100
AcDbLine
 62
9
  6
CONTINUOUS
 10
249.1045625454
 20
95.2391580297
 11
240.0
 21
95.2391580297
  0
LINE
  5
2A3
100
AcDbEntity
  8
0
100
AcDbLine
 62
7
  6
CONTINUOUS
 10
250.75
 20
95.8749487907
 11
249.25
 21
95.8749487907
  0
LINE
  5
2A4
100
AcDbEntity
  8
RUNDUNGEN
100
AcDbLine
 62
9
  6
CONTINUOUS
 10
260.0
 20
97.1385275002
 11
240.0
 21
97.1385275002
  0
LWPOLYLINE
  5
2A5
100
AcDbEntity
  8
0
100
AcDbPolyline
 62
7
  6
CONTINUOUS
 90
7
 70
0
 10
249.25
 20
89.9722697582
 10
249.1583623141
 20
90.2516450155
 10
249.0680456969
 20
90.5465809063
 10
248.9789840745
 20
90.8567445531
 10
248.8913756685
 20
91.1817322817
 10
248.8054187002
 20
91.521117333
 10
248.7210470959
 20
91.874513146
  0
LWPOLYLINE
  5
2A6
100
AcDbEntity
  8
0
100
AcDbPolyline
 62
7
  6
CONTINUOUS
 90
7
 70
0
 10
249.1045625454
 20
70.8535163072
 10
249.0205137458
 20
71.297128288
 10
248.9382298953
 20
71.7502142551
 10
248.85765018
 20
72.2123005817
 10
248.7789570415
 20
72.6828242389
 10
248.7023329213
 20
73.1612105564
 10
248.6277170057
 20
73.6469602049
  0
LINE
  5
2A7
100
AcDbEntity
  8
0
100
AcDbLine
 62
7
  6
CONTINUOUS
 10
248.8913756685
 20
52.9043074238
 11
248.7210470959
 21
53.969904282
  0
LWPOLYLINE
  5
2A8
100
AcDbEntity
  8
0
100
AcDbPolyline
 62
7
  6
CONTINUOUS
 90
5
 70
0
 10
249.25
 20
38.9138685006
 10
249.2311930699
 20
39.0770779643
 10
249.2101090892
 20
39.2487335148
 10
249.1866505653
 20
39.4273239614
 10
249.1691684848
 20
39.5532589312
  0
LWPOLYLINE
  5
2A9
100
AcDbEntity
  8
0
100
AcDbPolyline
 62
7
  6
CONTINUOUS
 90
7
 70
0
 10
249.25
 20
69.7961163448
 10
249.2311930699
 20
69.9837971528
 10
249.2101090892
 20
70.1690832867
 10
249.1866505653
 20
70.3502949429
 10
249.1611099763
 20
70.5258209893
 10
249.1337798006
 20
70.6940843741
 10
249.1045625454
 20
70.8535163072
  0
LINE
  5
2AA
100
AcDbEntity
  8
0
100
AcDbLine
 62
7
  6
CONTINUOUS
 10
251.3722829943
 20
73.6469602049
 11
251.3047466138
 21
74.792121899
  0
LINE
  5
2AB
100
AcDbEntity
  8
0
100
AcDbLine
 62
7
  6
CONTINUOUS
 10
248.7210470959
 20
53.969904282
 11
248.6674747621
 21
54.964961855
  0
LINE
  5
2AC
100
AcDbEntity
  8
0
100
AcDbLine
 62
7
  6
CONTINUOUS
 10
248.7210470959
 20
91.874513146
 11
248.6277170057
 21
93.934232629
  0
LINE
  5
2AD
100
AcDbEntity
  8
0
100
AcDbLine
 62
7
  6
CONTINUOUS
 10
247.5
 20
129.0
 11
247.5
 21
176.6420884294
  0
LINE
  5
2AE
100
AcDbEntity
  8
0
100
AcDbLine
 62
7
  6
CONTINUOUS
 10
249.25
 20
32.3924020399
 11
249.25
 21
33.1391481303
  0
LINE
  5
2AF
100
AcDbEntity
  8
0
100
AcDbLine
 62
7
  6
CONTINUOUS
 10
249.25
 20
38.9138685006
 11
249.25
 21
39.5532589312
  0
LINE
  5
2B0
100
AcDbEntity
  8
0
100
AcDbLine
 62
7
  6
CONTINUOUS
 10
249.25
 20
50.8383885559
 11
249.25
 21
55.0314733391
  0
LINE
  5
2B1
100
AcDbEntity
  8
0
100
AcDbLine
 62
7
  6
CONTINUOUS
 10
249.25
 20
69.7961163448
 11
249.25
 21
74.792121899
  0
LINE
  5
2B2
100
AcDbEntity
  8
0
100
AcDbLine
 62
7
  6
CONTINUOUS
 10
249.25
 20
89.9722697582
 11
249.25
 21
95.8749487907
  0
LINE
  5
2B3
100
AcDbEntity
  8
0
100
AcDbLine
 62
7
  6
CONTINUOUS
 10
248.6277170057
 20
73.6469602049
 11
248.6952533862
 21
74.792121899
  0
LINE
  5
2B4
100
AcDbEntity
  8
02___PRT_ALL_AXES
100
AcDbLine
 62
7
  6
CENTER
 10
279.8908975147
 20
105.0
 11
223.7630654471
 21
105.0
  0
LINE
  5
2B5
100
AcDbEntity
  8
0
100
AcDbLine
 62
2
  6
CONTINUOUS
 10
230.0
 20
105.0000000006
 11
270.0
 21
105.0000000006
  0
LWPOLYLINE
  5
2B6
100
AcDbEntity
  8
0
100
AcDbPolyline
 62
7
  6
CONTINUOUS
 90
7
 70
0
 10
250.8954374546
 20
95.2391580297
 10
250.8662299497
 20
95.3072028857
 10
250.838901848
 20
95.3916618858
 10
250.8133521165
 20
95.4917165238
 10
250.789883854
 20
95.6063790181
 10
250.7688001595
 20
95.7345237681
 10
250.75
 20
95.8749487907
  0
LWPOLYLINE
  5
2B7
100
AcDbEntity
  8
0
100
AcDbPolyline
 62
7
  6
CONTINUOUS
 90
7
 70
0
 10
251.3722829943
 20
93.934232629
 10
251.2976608042
 20
94.1907667765
 10
251.2210370567
 20
94.4320481
 10
251.1423548165
 20
94.6577890244
 10
251.0617848892
 20
94.8677212843
 10
250.9794980803
 20
95.0615914232
 10
250.8954374546
 20
95.2391580297
  0
LINE
  5
2B8
100
AcDbEntity
  8
0
100
AcDbLine
 62
7
  6
CONTINUOUS
 10
250.75
 20
32.3924020399
 11
250.75
 21
33.1391481303
  0
LINE
  5
2B9
100
AcDbEntity
  8
0
100
AcDbLine
 62
7
  6
CONTINUOUS
 10
250.75
 20
38.9138685006
 11
250.75
 21
39.5532589312
  0
LINE
  5
2BA
100
AcDbEntity
  8
0
100
AcDbLine
 62
7
  6
CONTINUOUS
 10
250.75
 20
50.8383885559
 11
250.75
 21
55.0314733391
  0
LINE
  5
2BB
100
AcDbEntity
  8
0
100
AcDbLine
 62
7
  6
CONTINUOUS
 10
250.75
 20
69.7961163448
 11
250.75
 21
74.792121899
  0
LINE
  5
2BC
100
AcDbEntity
  8
0
100
AcDbLine
 62
7
  6
CONTINUOUS
 10
250.75
 20
89.9722697582
 11
250.75
 21
95.8749487907
  0
LINE
  5
2BD
100
AcDbEntity
  8
0
100
AcDbLine
 62
7
  6
CONTINUOUS
 10
252.5
 20
129.0
 11
252.5
 21
176.6420884294
  0
LINE
  5
2BE
100
AcDbEntity
  8
0
100
AcDbLine
 62
7
  6
CONTINUOUS
 10
251.2789529041
 20
91.874513146
 11
251.3722829943
 21
93.934232629
  0
LINE
  5
2BF
100
AcDbEntity
  8
0
100
AcDbLine
 62
7
  6
CONTINUOUS
 10
251.2789529041
 20
53.969904282
 11
251.3325252379
 21
54.964961855
  0
LWPOLYLINE
  5
2C0
100
AcDbEntity
  8
0
100
AcDbPolyline
 62
7
  6
CONTINUOUS
 90
7
 70
0
 10
250.75
 20
69.7961163448
 10
250.7688069301
 20
69.9837971528
 10
250.7898909108
 20
70.1690832867
 10
250.8133494347
 20
70.3502949429
 10
250.8388900237
 20
70.5258209893
 10
250.8662201994
 20
70.6940843741
 10
250.8954374546
 20
70.8535163072
  0
LWPOLYLINE
  5
2C1
100
AcDbEntity
  8
0
100
AcDbPolyline
 62
7
  6
CONTINUOUS
 90
7
 70
0
 10
248.6277170057
 20
93.934232629
 10
248.7023391958
 20
94.1907667765
 10
248.7789629433
 20
94.4320481
 10
248.8576451835
 20
94.6577890244
 10
248.9382151108
 20
94.8677212843
 10
249.0205019197
 20
95.0615914232
 10
249.1045625454
 20
95.2391580297
  0
LWPOLYLINE
  5
2C2
100
AcDbEntity
  8
0
100
AcDbPolyline
 62
7
  6
CONTINUOUS
 90
7
 70
0
 10
250.75
 20
89.9722697582
 10
250.8416376859
 20
90.2516450155
 10
250.9319543031
 20
90.5465809063
 10
251.0210159255
 20
90.8567445531
 10
251.1086243315
 20
91.1817322817
 10
251.1945812998
 20
91.521117333
 10
251.2789529041
 20
91.874513146
  0
LWPOLYLINE
  5
2C3
100
AcDbEntity
  8
0
100
AcDbPolyline
 62
7
  6
CONTINUOUS
 90
7
 70
0
 10
249.1045625454
 20
95.2391580297
 10
249.1337700503
 20
95.3072028857
 10
249.161098152
 20
95.3916618858
 10
249.1866478835
 20
95.4917165238
 10
249.210116146
 20
95.6063790181
 10
249.2311998405
 20
95.7345237681
 10
249.25
 20
95.8749487907
  0
LINE
  5
2C4
100
AcDbEntity
  8
RUNDUNGEN
100
AcDbLine
 62
7
  6
CONTINUOUS
 10
260.0
 20
105.0000000006
 11
260.0
 21
93.934232629
  0
LINE
  5
2C5
100
AcDbEntity
  8
0
100
AcDbLine
 62
7
  6
CONTINUOUS
 10
260.0
 20
93.934232629
 11
260.0
 21
91.874513146
  0
LINE
  5
2C6
100
AcDbEntity
  8
RUNDUNGEN
100
AcDbLine
 62
7
  6
CONTINUOUS
 10
260.0
 20
91.874513146
 11
260.0
 21
74.7922588224
  0
LINE
  5
2C7
100
AcDbEntity
  8
0
100
AcDbLine
 62
7
  6
CONTINUOUS
 10
260.0
 20
74.792121899
 11
260.0
 21
73.6469602049
  0
LINE
  5
2C8
100
AcDbEntity
  8
RUNDUNGEN
100
AcDbLine
 62
7
  6
CONTINUOUS
 10
260.0
 20
73.6469602049
 11
260.0
 21
54.9649621215
  0
LINE
  5
2C9
100
AcDbEntity
  8
0
100
AcDbLine
 62
7
  6
CONTINUOUS
 10
260.0
 20
54.964961855
 11
260.0
 21
53.969904282
  0
LINE
  5
2CA
100
AcDbEntity
  8
RUNDUNGEN
100
AcDbLine
 62
7
  6
CONTINUOUS
 10
260.0
 20
53.969904282
 11
260.0
 21
38.0956923042
  0
LINE
  5
2CB
100
AcDbEntity
  8
0
100
AcDbLine
 62
7
  6
CONTINUOUS
 10
260.0
 20
38.0956923042
 11
260.0
 21
28.3579115706
  0
LINE
  5
2CC
100
AcDbEntity
  8
0
100
AcDbLine
 62
7
  6
CONTINUOUS
 10
260.0
 20
129.0
 11
260.0
 21
181.6420884294
  0
LWPOLYLINE
  5
2CD
100
AcDbEntity
  8
0
100
AcDbPolyline
 62
7
  6
CONTINUOUS
 90
5
 70
0
 10
250.75
 20
38.9138685006
 10
250.7688069301
 20
39.0770779643
 10
250.7898909108
 20
39.2487335148
 10
250.8133494347
 20
39.4273239614
 10
250.8308315152
 20
39.5532589312
  0
LWPOLYLINE
  5
2CE
100
AcDbEntity
  8
0
100
AcDbPolyline
 62
7
  6
CONTINUOUS
 90
6
 70
0
 10
250.75
 20
50.8383885559
 10
250.8416376859
 20
51.3451615818
 10
250.9319543031
 20
51.8587901309
 10
251.0210159255
 20
52.3787215713
 10
251.1086243315
 20
52.9043074238
 10
251.2789529041
 20
53.969904282
  0
LWPOLYLINE
  5
2CF
100
AcDbEntity
  8
0
100
AcDbPolyline
 62
7
  6
CONTINUOUS
 90
7
 70
0
 10
250.8954374546
 20
70.8535163072
 10
250.9794862542
 20
71.297128288
 10
251.0617701047
 20
71.7502142551
 10
251.14234982
 20
72.2123005817
 10
251.2210429585
 20
72.6828242389
 10
251.2976670787
 20
73.1612105564
 10
251.3722829943
 20
73.6469602049
  0
LINE
  5
2D0
100
AcDbEntity
  8
0
100
AcDbLine
 62
7
  6
CONTINUOUS
 10
250.75
 20
32.3924020399
 11
250.8763648293
 21
33.1391481303
  0
LINE
  5
2D1
100
AcDbEntity
  8
0
100
AcDbLine
 62
7
  6
CONTINUOUS
 10
230.0
 20
119.4568322948
 11
270.0
 21
119.4568322948
  0
LINE
  5
2D2
100
AcDbEntity
  8
0
100
AcDbLine
 62
7
  6
CONTINUOUS
 10
270.0
 20
81.0
 11
270.0
 21
129.0
  0
LINE
  5
2D3
100
AcDbEntity
  8
0
100
AcDbLine
 62
7
  6
CONTINUOUS
 10
270.0
 20
123.3
 11
230.0
 21
123.3
  0
LINE
  5
2D4
100
AcDbEntity
  8
0
100
AcDbLine
 62
7
  6
CONTINUOUS
 10
270.0
 20
129.0
 11
252.5
 21
129.0
  0
LINE
  5
2D5
100
AcDbEntity
  8
0
100
AcDbLine
 62
7
  6
CONTINUOUS
 10
247.5
 20
129.0
 11
230.0
 21
129.0
  0
LINE
  5
2D6
100
AcDbEntity
  8
0
100
AcDbLine
 62
7
  6
CONTINUOUS
 10
240.0
 20
129.7348462941
 11
247.5
 21
129.7348462941
  0
LINE
  5
2D7
100
AcDbEntity
  8
0
100
AcDbLine
 62
7
  6
CONTINUOUS
 10
252.5
 20
129.7348462941
 11
260.0
 21
129.7348462941
  0
LINE
  5
2D8
100
AcDbEntity
  8
0
100
AcDbLine
 62
9
  6
CONTINUOUS
 10
240.0
 20
130.1563269253
 11
247.5
 21
130.1563269253
  0
LINE
  5
2D9
100
AcDbEntity
  8
0
100
AcDbLine
 62
9
  6
CONTINUOUS
 10
252.5
 20
130.1563269253
 11
260.0
 21
130.1563269253
  0
LINE
  5
2DA
100
AcDbEntity
  8
0
100
AcDbLine
 62
9
  6
CONTINUOUS
 10
240.0
 20
136.7538975704
 11
247.5
 21
136.7538975704
  0
LINE
  5
2DB
100
AcDbEntity
  8
0
100
AcDbLine
 62
9
  6
CONTINUOUS
 10
252.5
 20
136.7538975704
 11
260.0
 21
136.7538975704
  0
LINE
  5
2DC
100
AcDbEntity
  8
0
100
AcDbLine
 62
7
  6
CONTINUOUS
 10
240.0
 20
140.2107682437
 11
247.5
 21
140.2107682437
  0
LINE
  5
2DD
100
AcDbEntity
  8
0
100
AcDbLine
 62
7
  6
CONTINUOUS
 10
252.5
 20
140.2107682437
 11
260.0
 21
140.2107682437
  0
LINE
  5
2DE
100
AcDbEntity
  8
0
100
AcDbLine
 62
7
  6
CONTINUOUS
 10
240.0
 20
149.1550398807
 11
247.5
 21
149.1550398807
  0
LINE
  5
2DF
100
AcDbEntity
  8
0
100
AcDbLine
 62
7
  6
CONTINUOUS
 10
252.5
 20
149.1550398807
 11
260.0
 21
149.1550398807
  0
LWPOLYLINE
  5
2E0
100
AcDbEntity
  8
0
100
AcDbPolyline
 62
7
  6
CONTINUOUS
 90
4
 70
0
 10
249.1930624455
 20
54.9649618599
 10
249.210116146
 20
54.969827289
 10
249.2311998405
 20
54.9918869281
 10
249.25
 20
55.0314733391
  0
LINE
  5
2E1
100
AcDbEntity
  8
0
100
AcDbLine
 62
9
  6
CONTINUOUS
 10
240.0
 20
154.7366815524
 11
247.5
 21
154.7366815524
  0
LINE
  5
2E2
100
AcDbEntity
  8
0
100
AcDbLine
 62
9
  6
CONTINUOUS
 10
252.5
 20
154.7366815524
 11
260.0
 21
154.7366815524
  0
LINE
  5
2E3
100
AcDbEntity
  8
0
100
AcDbLine
 62
7
  6
CONTINUOUS
 10
240.0
 20
160.4385475289
 11
247.5
 21
160.4385475289
  0
LINE
  5
2E4
100
AcDbEntity
  8
0
100
AcDbLine
 62
7
  6
CONTINUOUS
 10
252.5
 20
160.4385475289
 11
260.0
 21
160.4385475289
  0
LINE
  5
2E5
100
AcDbEntity
  8
0
100
AcDbLine
 62
9
  6
CONTINUOUS
 10
240.0
 20
164.0447615373
 11
247.5
 21
164.0447615373
  0
LINE
  5
2E6
100
AcDbEntity
  8
0
100
AcDbLine
 62
9
  6
CONTINUOUS
 10
252.5
 20
164.0447615373
 11
260.0
 21
164.0447615373
  0
LINE
  5
2E7
100
AcDbEntity
  8
0
100
AcDbLine
 62
7
  6
CONTINUOUS
 10
240.0
 20
167.7325619682
 11
247.5
 21
167.7325619682
  0
LINE
  5
2E8
100
AcDbEntity
  8
0
100
AcDbLine
 62
7
  6
CONTINUOUS
 10
252.5
 20
167.7325619682
 11
260.0
 21
167.7325619682
  0
LINE
  5
2E9
100
AcDbEntity
  8
0
100
AcDbLine
 62
9
  6
CONTINUOUS
 10
240.0
 20
170.2841466243
 11
247.5
 21
170.2841466243
  0
LINE
  5
2EA
100
AcDbEntity
  8
0
100
AcDbLine
 62
9
  6
CONTINUOUS
 10
252.5
 20
170.2841466243
 11
260.0
 21
170.2841466243
  0
LINE
  5
2EB
100
AcDbEntity
  8
0
100
AcDbLine
 62
7
  6
CONTINUOUS
 10
240.0
 20
176.6420884294
 11
247.5
 21
176.6420884294
  0
LINE
  5
2EC
100
AcDbEntity
  8
0
100
AcDbLine
 62
7
  6
CONTINUOUS
 10
252.5
 20
176.6420884294
 11
260.0
 21
176.6420884294
  0
LINE
  5
2ED
100
AcDbEntity
  8
0
100
AcDbLine
 62
7
  6
CONTINUOUS
 10
240.0
 20
181.6420884294
 11
260.0
 21
181.6420884294
  0
ARC
  5
2EE
100
AcDbEntity
  8
0
100
AcDbCircle
 62
7
  6
CONTINUOUS
 10
114.38
 20
24.10067632
 40
21.6666666667
100
AcDbArc
 50
42.0982010187
 51
52.1860444241
  0
ARC
  5
2EF
100
AcDbEntity
  8
0
100
AcDbCircle
 62
7
  6
CONTINUOUS
 10
38.2517615868
 20
79.4110791094
 40
21.6666666667
100
AcDbArc
 50
55.8139555759
 51
65.9017989813
  0
ARC
  5
2F0
100
AcDbEntity
  8
0
100
AcDbCircle
 62
7
  6
CONTINUOUS
 10
35.3639876093
 20
104.4964745157
 40
21.6666666667
100
AcDbArc
 50
299.3171467228
 51
317.3197527349
  0
ARC
  5
2F1
100
AcDbEntity
  8
0
100
AcDbCircle
 62
7
  6
CONTINUOUS
 10
50.2771477579
 20
58.5984870393
 40
21.6666666667
100
AcDbArc
 50
78.6802472651
 51
96.6828532772
  0
ARC
  5
2F2
100
AcDbEntity
  8
0
100
AcDbCircle
 62
7
  6
CONTINUOUS
 10
37.8685805138
 20
80.5903891896
 40
21.6666666667
100
AcDbArc
 50
330.0982010187
 51
340.1860444241
  0
ARC
  5
2F3
100
AcDbEntity
  8
0
100
AcDbCircle
 62
7
  6
CONTINUOUS
 10
67.950161157
 20
39.1866454531
 40
21.6666666667
100
AcDbArc
 50
91.8139555759
 51
101.9017989813
  0
ARC
  5
2F4
100
AcDbEntity
  8
0
100
AcDbCircle
 62
7
  6
CONTINUOUS
 10
50.8690774655
 20
57.7837656915
 40
21.6666666667
100
AcDbArc
 50
335.3171467228
 51
353.3197527349
  0
ARC
  5
2F5
100
AcDbEntity
  8
0
100
AcDbCircle
 62
7
  6
CONTINUOUS
 10
89.9122376141
 20
29.4172494159
 40
21.6666666667
100
AcDbArc
 50
114.6802472651
 51
132.6828532772
  0
ARC
  5
2F6
100
AcDbEntity
  8
0
100
AcDbCircle
 62
7
  6
CONTINUOUS
 10
66.946980084
 20
39.9154991659
 40
21.6666666667
100
AcDbArc
 50
6.0982010187
 51
16.1860444241
  0
ARC
  5
2F7
100
AcDbEntity
  8
0
100
AcDbCircle
 62
7
  6
CONTINUOUS
 10
90.87
 20
29.1060535524
 40
21.6666666667
100
AcDbArc
 50
11.3171467228
 51
29.3197527349
  0
ARC
  5
2F8
100
AcDbEntity
  8
RUNDUNGEN
100
AcDbCircle
 62
7
  6
CONTINUOUS
 10
38.2517615868
 20
79.4110791094
 40
16.6666666666
100
AcDbArc
 50
60.6204782948
 51
71.7473672409
  0
ARC
  5
2F9
100
AcDbEntity
  8
RUNDUNGEN
100
AcDbCircle
 62
7
  6
CONTINUOUS
 10
35.3639876093
 20
104.4964745157
 40
16.6666666667
100
AcDbArc
 50
293.2442272809
 51
310.7717021026
  0
ARC
  5
2FA
100
AcDbEntity
  8
RUNDUNGEN
100
AcDbCircle
 62
7
  6
CONTINUOUS
 10
50.2771477579
 20
58.5984870393
 40
16.6666666666
100
AcDbArc
 50
85.2282978974
 51
102.7557727191
  0
ARC
  5
2FB
100
AcDbEntity
  8
RUNDUNGEN
100
AcDbCircle
 62
7
  6
CONTINUOUS
 10
37.8685805138
 20
80.5903891896
 40
16.6666666666
100
AcDbArc
 50
324.2526327591
 51
335.3795217052
  0
ARC
  5
2FC
100
AcDbEntity
  8
RUNDUNGEN
100
AcDbCircle
 62
7
  6
CONTINUOUS
 10
67.950161157
 20
39.1866454531
 40
16.6666666666
100
AcDbArc
 50
96.6204782948
 51
107.7473672409
  0
ARC
  5
2FD
100
AcDbEntity
  8
RUNDUNGEN
100
AcDbCircle
 62
7
  6
CONTINUOUS
 10
50.8690774655
 20
57.7837656915
 40
16.6666666667
100
AcDbArc
 50
329.2442272809
 51
346.7717021026
  0
ARC
  5
2FE
100
AcDbEntity
  8
RUNDUNGEN
100
AcDbCircle
 62
7
  6
CONTINUOUS
 10
89.9122376141
 20
29.4172494159
 40
16.6666666666
100
AcDbArc
 50
121.2282978974
 51
138.7557727191
  0
ARC
  5
2FF
100
AcDbEntity
  8
RUNDUNGEN
100
AcDbCircle
 62
7
  6
CONTINUOUS
 10
66.946980084
 20
39.9154991659
 40
16.6666666666
100
AcDbArc
 50
0.2526327591
 51
11.3795217052
  0
ARC
  5
300
100
AcDbEntity
  8
0
100
AcDbCircle
 62
7
  6
CONTINUOUS
 10
90.87
 20
29.1060535524
 40
16.6666666667
100
AcDbArc
 50
5.2442272809
 51
22.7717021026
  0
ARC
  5
301
100
AcDbEntity
  8
0
100
AcDbCircle
 62
7
  6
CONTINUOUS
 10
114.38
 20
24.10067632
 40
16.6666666666
100
AcDbArc
 50
36.2526327591
 51
47.3795217052
  0
ARC
  5
302
100
AcDbEntity
  8
0
100
AcDbCircle
 62
7
  6
CONTINUOUS
 10
47.6164600626
 20
93.1980367228
 40
5.0
100
AcDbArc
 50
317.3197527349
 51
55.8139555759
  0
ARC
  5
303
100
AcDbEntity
  8
0
100
AcDbCircle
 62
7
  6
CONTINUOUS
 10
53.5485510871
 20
74.9409378358
 40
5.0
100
AcDbArc
 50
340.1860444241
 51
78.6802472651
  0
ARC
  5
304
100
AcDbEntity
  8
0
100
AcDbCircle
 62
7
  6
CONTINUOUS
 10
67.4225910119
 20
55.8449601193
 40
5.0
100
AcDbArc
 50
353.3197527349
 51
91.8139555759
  0
ARC
  5
305
100
AcDbEntity
  8
0
100
AcDbCircle
 62
7
  6
CONTINUOUS
 10
82.9530069383
 20
44.5614524711
 40
5.0
100
AcDbArc
 50
16.1860444241
 51
114.6802472651
  0
ARC
  5
306
100
AcDbEntity
  8
0
100
AcDbCircle
 62
7
  6
CONTINUOUS
 10
105.401675098
 20
37.2674380318
 40
5.0
100
AcDbArc
 50
29.3197527349
 51
127.8139555759
  0
ARC
  5
307
100
AcDbEntity
  8
RUNDUNGEN
100
AcDbCircle
 62
7
  6
CONTINUOUS
 10
42.9281372088
 20
86.8855474547
 40
2.5
100
AcDbArc
 50
113.2442272809
 51
198.0
  0
ARC
  5
308
100
AcDbEntity
  8
RUNDUNGEN
100
AcDbCircle
 62
7
  6
CONTINUOUS
 10
46.0452301262
 20
77.292121899
 40
2.5
100
AcDbArc
 50
198.0
 51
282.7557727191
  0
ARC
  5
309
100
AcDbEntity
  8
RUNDUNGEN
100
AcDbCircle
 62
7
  6
CONTINUOUS
 10
67.3400462451
 20
47.9823219932
 40
2.5
100
AcDbArc
 50
149.2442272809
 51
234.0
  0
ARC
  5
30A
100
AcDbEntity
  8
RUNDUNGEN
100
AcDbCircle
 62
7
  6
CONTINUOUS
 10
75.5007014489
 20
42.0532589312
 40
2.5
100
AcDbArc
 50
234.0
 51
318.7557727191
  0
ARC
  5
30B
100
AcDbEntity
  8
0
100
AcDbCircle
 62
7
  6
CONTINUOUS
 10
109.9564377136
 20
30.8579115706
 40
2.5
100
AcDbArc
 50
185.2442272809
 51
270.0
  0
ARC
  5
30C
100
AcDbEntity
  8
0
100
AcDbCircle
 62
7
  6
CONTINUOUS
 10
93.0
 20
83.0
 40
2.0
100
AcDbArc
 50
180.0
 51
270.0
  0
ARC
  5
30D
100
AcDbEntity
  8
RUNDUNGEN
100
AcDbCircle
 62
7
  6
CONTINUOUS
 10
44.0983005625
 20
97.1385275002
 40
2.0
100
AcDbArc
 50
180.0
 51
251.7473672409
  0
ARC
  5
30E
100
AcDbEntity
  8
RUNDUNGEN
100
AcDbCircle
 62
7
  6
CONTINUOUS
 10
53.0184626283
 20
69.6850915613
 40
2.0
100
AcDbArc
 50
144.2526327591
 51
216.0
  0
ARC
  5
30F
100
AcDbEntity
  8
RUNDUNGEN
100
AcDbCircle
 62
7
  6
CONTINUOUS
 10
62.2601778217
 20
56.964961855
 40
2.0
100
AcDbArc
 50
216.0
 51
287.7473672409
  0
ARC
  5
310
100
AcDbEntity
  8
RUNDUNGEN
100
AcDbCircle
 62
7
  6
CONTINUOUS
 10
85.6134652951
 20
39.9978053368
 40
2.0
100
AcDbArc
 50
180.2526327591
 51
252.0
  0
ARC
  5
311
100
AcDbEntity
  8
0
100
AcDbCircle
 62
7
  6
CONTINUOUS
 10
100.5668745924
 20
35.1391481303
 40
2.0
100
AcDbArc
 50
252.0
 51
323.7473672409
  0
ARC
  5
312
100
AcDbEntity
  8
0
100
AcDbCircle
 62
7
  6
CONTINUOUS
 10
114.38
 20
185.89932368
 40
21.6666666667
100
AcDbArc
 50
307.8139555759
 51
317.9017989813
  0
ARC
  5
313
100
AcDbEntity
  8
0
100
AcDbCircle
 62
7
  6
CONTINUOUS
 10
90.87
 20
180.8939464476
 40
21.6666666667
100
AcDbArc
 50
330.6802472651
 51
348.6828532772
  0
ARC
  5
314
100
AcDbEntity
  8
0
100
AcDbCircle
 62
7
  6
CONTINUOUS
 10
66.946980084
 20
170.0845008341
 40
21.6666666667
100
AcDbArc
 50
343.8139555759
 51
353.9017989813
  0
ARC
  5
315
100
AcDbEntity
  8
0
100
AcDbCircle
 62
7
  6
CONTINUOUS
 10
89.9122376141
 20
180.5827505841
 40
21.6666666667
100
AcDbArc
 50
227.3171467228
 51
245.3197527349
  0
ARC
  5
316
100
AcDbEntity
  8
0
100
AcDbCircle
 62
7
  6
CONTINUOUS
 10
50.8690774655
 20
152.2162343085
 40
21.6666666667
100
AcDbArc
 50
6.6802472651
 51
24.6828532772
  0
ARC
  5
317
100
AcDbEntity
  8
0
100
AcDbCircle
 62
7
  6
CONTINUOUS
 10
67.950161157
 20
170.8133545469
 40
21.6666666667
100
AcDbArc
 50
258.0982010187
 51
268.1860444241
  0
ARC
  5
318
100
AcDbEntity
  8
0
100
AcDbCircle
 62
7
  6
CONTINUOUS
 10
37.8685805138
 20
129.4096108104
 40
21.6666666667
100
AcDbArc
 50
19.8139555759
 51
29.9017989813
  0
ARC
  5
319
100
AcDbEntity
  8
0
100
AcDbCircle
 62
7
  6
CONTINUOUS
 10
50.2771477579
 20
151.4015129607
 40
21.6666666667
100
AcDbArc
 50
263.3171467228
 51
281.3197527349
  0
ARC
  5
31A
100
AcDbEntity
  8
0
100
AcDbCircle
 62
7
  6
CONTINUOUS
 10
35.3639876093
 20
105.5035254843
 40
21.6666666667
100
AcDbArc
 50
42.6802472651
 51
60.6828532772
  0
ARC
  5
31B
100
AcDbEntity
  8
0
100
AcDbCircle
 62
7
  6
CONTINUOUS
 10
38.2517615868
 20
130.5889208906
 40
21.6666666667
100
AcDbArc
 50
294.0982010187
 51
304.1860444241
  0
ARC
  5
31C
100
AcDbEntity
  8
RUNDUNGEN
100
AcDbCircle
 62
7
  6
CONTINUOUS
 10
114.38
 20
185.89932368
 40
16.6666666666
100
AcDbArc
 50
312.6204782948
 51
323.7473672409
  0
ARC
  5
31D
100
AcDbEntity
  8
RUNDUNGEN
100
AcDbCircle
 62
7
  6
CONTINUOUS
 10
90.87
 20
180.8939464476
 40
16.6666666666
100
AcDbArc
 50
337.2282978974
 51
354.7557727191
  0
ARC
  5
31E
100
AcDbEntity
  8
RUNDUNGEN
100
AcDbCircle
 62
7
  6
CONTINUOUS
 10
66.946980084
 20
170.0845008341
 40
16.6666666666
100
AcDbArc
 50
348.6204782948
 51
359.7473672409
  0
ARC
  5
31F
100
AcDbEntity
  8
RUNDUNGEN
100
AcDbCircle
 62
7
  6
CONTINUOUS
 10
89.9122376141
 20
180.5827505841
 40
16.6666666667
100
AcDbArc
 50
221.2442272809
 51
238.7717021026
  0
ARC
  5
320
100
AcDbEntity
  8
RUNDUNGEN
100
AcDbCircle
 62
7
  6
CONTINUOUS
 10
50.8690774655
 20
152.2162343085
 40
16.6666666666
100
AcDbArc
 50
13.2282978974
 51
30.7557727191
  0
ARC
  5
321
100
AcDbEntity
  8
RUNDUNGEN
100
AcDbCircle
 62
7
  6
CONTINUOUS
 10
67.950161157
 20
170.8133545469
 40
16.6666666666
100
AcDbArc
 50
252.2526327591
 51
263.3795217052
  0
ARC
  5
322
100
AcDbEntity
  8
RUNDUNGEN
100
AcDbCircle
 62
7
  6
CONTINUOUS
 10
37.8685805138
 20
129.4096108104
 40
16.6666666666
100
AcDbArc
 50
24.6204782948
 51
35.7473672409
  0
ARC
  5
323
100
AcDbEntity
  8
RUNDUNGEN
100
AcDbCircle
 62
7
  6
CONTINUOUS
 10
50.2771477579
 20
151.4015129607
 40
16.6666666667
100
AcDbArc
 50
257.2442272809
 51
274.7717021026
  0
ARC
  5
324
100
AcDbEntity
  8
RUNDUNGEN
100
AcDbCircle
 62
7
  6
CONTINUOUS
 10
35.3639876093
 20
105.5035254843
 40
16.6666666666
100
AcDbArc
 50
49.2282978974
 51
66.7557727191
  0
ARC
  5
325
100
AcDbEntity
  8
RUNDUNGEN
100
AcDbCircle
 62
7
  6
CONTINUOUS
 10
38.2517615868
 20
130.5889208906
 40
16.6666666666
100
AcDbArc
 50
288.2526327591
 51
299.3795217052
  0
ARC
  5
326
100
AcDbEntity
  8
0
100
AcDbCircle
 62
7
  6
CONTINUOUS
 10
105.401675098
 20
172.7325619682
 40
5.0
100
AcDbArc
 50
232.1860444241
 51
330.6802472651
  0
ARC
  5
327
100
AcDbEntity
  8
0
100
AcDbCircle
 62
7
  6
CONTINUOUS
 10
82.9530069383
 20
165.4385475289
 40
5.0
100
AcDbArc
 50
245.3197527349
 51
343.8139555759
  0
ARC
  5
328
100
AcDbEntity
  8
0
100
AcDbCircle
 62
7
  6
CONTINUOUS
 10
67.4225910119
 20
154.1550398807
 40
5.0
100
AcDbArc
 50
268.1860444241
 51
6.6802472651
  0
ARC
  5
329
100
AcDbEntity
  8
0
100
AcDbCircle
 62
7
  6
CONTINUOUS
 10
53.5485510871
 20
135.0590621642
 40
5.0
100
AcDbArc
 50
281.3197527349
 51
19.8139555759
  0
ARC
  5
32A
100
AcDbEntity
  8
0
100
AcDbCircle
 62
7
  6
CONTINUOUS
 10
47.6164600626
 20
116.8019632772
 40
5.0
100
AcDbArc
 50
304.1860444241
 51
42.6802472651
  0
ARC
  5
32B
100
AcDbEntity
  8
RUNDUNGEN
100
AcDbCircle
 62
7
  6
CONTINUOUS
 10
109.9564377136
 20
179.1420884294
 40
2.5
100
AcDbArc
 50
90.0
 51
174.7557727191
  0
ARC
  5
32C
100
AcDbEntity
  8
RUNDUNGEN
100
AcDbCircle
 62
7
  6
CONTINUOUS
 10
75.5007014489
 20
167.9467410688
 40
2.5
100
AcDbArc
 50
41.2442272809
 51
126.0
  0
ARC
  5
32D
100
AcDbEntity
  8
RUNDUNGEN
100
AcDbCircle
 62
7
  6
CONTINUOUS
 10
67.3400462451
 20
162.0176780068
 40
2.5
100
AcDbArc
 50
126.0
 51
210.7557727191
  0
ARC
  5
32E
100
AcDbEntity
  8
RUNDUNGEN
100
AcDbCircle
 62
7
  6
CONTINUOUS
 10
46.0452301262
 20
132.707878101
 40
2.5
100
AcDbArc
 50
77.2442272809
 51
162.0
  0
ARC
  5
32F
100
AcDbEntity
  8
RUNDUNGEN
100
AcDbCircle
 62
7
  6
CONTINUOUS
 10
42.9281372088
 20
123.1144525453
 40
2.5
100
AcDbArc
 50
162.0
 51
246.7557727191
  0
ARC
  5
330
100
AcDbEntity
  8
0
100
AcDbCircle
 62
7
  6
CONTINUOUS
 10
93.0
 20
127.0
 40
2.0
100
AcDbArc
 50
90.0
 51
180.0
  0
ARC
  5
331
100
AcDbEntity
  8
RUNDUNGEN
100
AcDbCircle
 62
7
  6
CONTINUOUS
 10
100.5668745924
 20
174.8608518697
 40
2.0
100
AcDbArc
 50
36.2526327591
 51
108.0
  0
ARC
  5
332
100
AcDbEntity
  8
RUNDUNGEN
100
AcDbCircle
 62
7
  6
CONTINUOUS
 10
85.6134652951
 20
170.0021946632
 40
2.0
100
AcDbArc
 50
108.0
 51
179.7473672409
  0
ARC
  5
333
100
AcDbEntity
  8
RUNDUNGEN
100
AcDbCircle
 62
7
  6
CONTINUOUS
 10
62.2601778217
 20
153.035038145
 40
2.0
100
AcDbArc
 50
72.2526327591
 51
144.0
  0
ARC
  5
334
100
AcDbEntity
  8
RUNDUNGEN
100
AcDbCircle
 62
7
  6
CONTINUOUS
 10
53.0184626283
 20
140.3149084387
 40
2.0
100
AcDbArc
 50
144.0
 51
215.7473672409
  0
ARC
  5
335
100
AcDbEntity
  8
RUNDUNGEN
100
AcDbCircle
 62
7
  6
CONTINUOUS
 10
44.0983005625
 20
112.8614724998
 40
2.0
100
AcDbArc
 50
108.2526327591
 51
180.0
  0
ARC
  5
336
100
AcDbEntity
  8
0
100
AcDbCircle
 62
7
  6
CONTINUOUS
 10
191.7482384132
 20
79.4110791094
 40
21.6666666667
100
AcDbArc
 50
114.0982010187
 51
124.1860444241
  0
ARC
  5
337
100
AcDbEntity
  8
0
100
AcDbCircle
 62
7
  6
CONTINUOUS
 10
194.6360123907
 20
104.4964745157
 40
21.6666666667
100
AcDbArc
 50
222.6802472651
 51
240.6828532772
  0
ARC
  5
338
100
AcDbEntity
  8
0
100
AcDbCircle
 62
7
  6
CONTINUOUS
 10
179.7228522421
 20
58.5984870393
 40
21.6666666667
100
AcDbArc
 50
83.3171467228
 51
101.3197527349
  0
ARC
  5
339
100
AcDbEntity
  8
0
100
AcDbCircle
 62
7
  6
CONTINUOUS
 10
192.1314194862
 20
80.5903891896
 40
21.6666666667
100
AcDbArc
 50
199.8139555759
 51
209.9017989813
  0
ARC
  5
33A
100
AcDbEntity
  8
0
100
AcDbCircle
 62
7
  6
CONTINUOUS
 10
162.049838843
 20
39.1866454531
 40
21.6666666667
100
AcDbArc
 50
78.0982010187
 51
88.1860444241
  0
ARC
  5
33B
100
AcDbEntity
  8
0
100
AcDbCircle
 62
7
  6
CONTINUOUS
 10
179.1309225345
 20
57.7837656915
 40
21.6666666667
100
AcDbArc
 50
186.6802472651
 51
204.6828532772
  0
ARC
  5
33C
100
AcDbEntity
  8
0
100
AcDbCircle
 62
7
  6
CONTINUOUS
 10
140.0877623859
 20
29.4172494159
 40
21.6666666667
100
AcDbArc
 50
47.3171467228
 51
65.3197527349
  0
ARC
  5
33D
100
AcDbEntity
  8
0
100
AcDbCircle
 62
7
  6
CONTINUOUS
 10
163.053019916
 20
39.9154991659
 40
21.6666666667
100
AcDbArc
 50
163.8139555759
 51
173.9017989813
  0
ARC
  5
33E
100
AcDbEntity
  8
0
100
AcDbCircle
 62
7
  6
CONTINUOUS
 10
139.13
 20
29.1060535524
 40
21.6666666667
100
AcDbArc
 50
150.6802472651
 51
168.6828532772
  0
ARC
  5
33F
100
AcDbEntity
  8
0
100
AcDbCircle
 62
7
  6
CONTINUOUS
 10
115.62
 20
24.10067632
 40
21.6666666667
100
AcDbArc
 50
127.8139555759
 51
137.9017989813
  0
ARC
  5
340
100
AcDbEntity
  8
0
100
AcDbCircle
 62
7
  6
CONTINUOUS
 10
115.62
 20
24.10067632
 40
16.6666666666
100
AcDbArc
 50
132.6204782948
 51
143.7473672409
  0
ARC
  5
341
100
AcDbEntity
  8
0
100
AcDbCircle
 62
7
  6
CONTINUOUS
 10
139.13
 20
29.1060535524
 40
16.6666666666
100
AcDbArc
 50
157.2282978974
 51
174.7557727191
  0
ARC
  5
342
100
AcDbEntity
  8
0
100
AcDbCircle
 62
7
  6
CONTINUOUS
 10
163.053019916
 20
39.9154991659
 40
16.6666666666
100
AcDbArc
 50
168.6204782948
 51
179.7473672409
  0
ARC
  5
343
100
AcDbEntity
  8
0
100
AcDbCircle
 62
7
  6
CONTINUOUS
 10
140.0877623859
 20
29.4172494159
 40
16.6666666667
100
AcDbArc
 50
41.2442272809
 51
58.7717021026
  0
ARC
  5
344
100
AcDbEntity
  8
0
100
AcDbCircle
 62
7
  6
CONTINUOUS
 10
179.1309225345
 20
57.7837656915
 40
16.6666666666
100
AcDbArc
 50
193.2282978974
 51
210.7557727191
  0
ARC
  5
345
100
AcDbEntity
  8
0
100
AcDbCircle
 62
7
  6
CONTINUOUS
 10
162.049838843
 20
39.1866454531
 40
16.6666666666
100
AcDbArc
 50
72.2526327591
 51
83.3795217052
  0
ARC
  5
346
100
AcDbEntity
  8
0
100
AcDbCircle
 62
7
  6
CONTINUOUS
 10
192.1314194862
 20
80.5903891896
 40
16.6666666666
100
AcDbArc
 50
204.6204782948
 51
215.7473672409
  0
ARC
  5
347
100
AcDbEntity
  8
0
100
AcDbCircle
 62
7
  6
CONTINUOUS
 10
179.7228522421
 20
58.5984870393
 40
16.6666666667
100
AcDbArc
 50
77.2442272809
 51
94.7717021026
  0
ARC
  5
348
100
AcDbEntity
  8
0
100
AcDbCircle
 62
7
  6
CONTINUOUS
 10
194.6360123907
 20
104.4964745157
 40
16.6666666666
100
AcDbArc
 50
229.2282978974
 51
246.7557727191
  0
ARC
  5
349
100
AcDbEntity
  8
0
100
AcDbCircle
 62
7
  6
CONTINUOUS
 10
191.7482384132
 20
79.4110791094
 40
16.6666666666
100
AcDbArc
 50
108.2526327591
 51
119.3795217052
  0
ARC
  5
34A
100
AcDbEntity
  8
0
100
AcDbCircle
 62
7
  6
CONTINUOUS
 10
182.3835399374
 20
93.1980367228
 40
5.0
100
AcDbArc
 50
124.1860444241
 51
222.6802472651
  0
ARC
  5
34B
100
AcDbEntity
  8
0
100
AcDbCircle
 62
7
  6
CONTINUOUS
 10
176.4514489129
 20
74.9409378358
 40
5.0
100
AcDbArc
 50
101.3197527349
 51
199.8139555759
  0
ARC
  5
34C
100
AcDbEntity
  8
0
100
AcDbCircle
 62
7
  6
CONTINUOUS
 10
162.5774089881
 20
55.8449601193
 40
5.0
100
AcDbArc
 50
88.1860444241
 51
186.6802472651
  0
ARC
  5
34D
100
AcDbEntity
  8
0
100
AcDbCircle
 62
7
  6
CONTINUOUS
 10
147.0469930617
 20
44.5614524711
 40
5.0
100
AcDbArc
 50
65.3197527349
 51
163.8139555759
  0
ARC
  5
34E
100
AcDbEntity
  8
0
100
AcDbCircle
 62
7
  6
CONTINUOUS
 10
124.598324902
 20
37.2674380318
 40
5.0
100
AcDbArc
 50
52.1860444241
 51
150.6802472651
  0
ARC
  5
34F
100
AcDbEntity
  8
0
100
AcDbCircle
 62
7
  6
CONTINUOUS
 10
120.0435622864
 20
30.8579115706
 40
2.5
100
AcDbArc
 50
270.0
 51
354.7557727191
  0
ARC
  5
350
100
AcDbEntity
  8
0
100
AcDbCircle
 62
7
  6
CONTINUOUS
 10
154.4992985511
 20
42.0532589312
 40
2.5
100
AcDbArc
 50
221.2442272809
 51
306.0
  0
ARC
  5
351
100
AcDbEntity
  8
0
100
AcDbCircle
 62
7
  6
CONTINUOUS
 10
162.6599537549
 20
47.9823219932
 40
2.5
100
AcDbArc
 50
306.0
 51
30.7557727191
  0
ARC
  5
352
100
AcDbEntity
  8
0
100
AcDbCircle
 62
7
  6
CONTINUOUS
 10
183.9547698738
 20
77.292121899
 40
2.5
100
AcDbArc
 50
257.2442272809
 51
342.0
  0
ARC
  5
353
100
AcDbEntity
  8
0
100
AcDbCircle
 62
7
  6
CONTINUOUS
 10
187.0718627912
 20
86.8855474547
 40
2.5
100
AcDbArc
 50
342.0
 51
66.7557727191
  0
ARC
  5
354
100
AcDbEntity
  8
0
100
AcDbCircle
 62
7
  6
CONTINUOUS
 10
137.0
 20
83.0
 40
2.0
100
AcDbArc
 50
270.0
 51
360.0
  0
ARC
  5
355
100
AcDbEntity
  8
0
100
AcDbCircle
 62
7
  6
CONTINUOUS
 10
129.4331254076
 20
35.1391481303
 40
2.0
100
AcDbArc
 50
216.2526327591
 51
288.0
  0
ARC
  5
356
100
AcDbEntity
  8
0
100
AcDbCircle
 62
7
  6
CONTINUOUS
 10
144.3865347049
 20
39.9978053368
 40
2.0
100
AcDbArc
 50
288.0
 51
359.7473672409
  0
ARC
  5
357
100
AcDbEntity
  8
0
100
AcDbCircle
 62
7
  6
CONTINUOUS
 10
167.7398221783
 20
56.964961855
 40
2.0
100
AcDbArc
 50
252.2526327591
 51
324.0
  0
ARC
  5
358
100
AcDbEntity
  8
0
100
AcDbCircle
 62
7
  6
CONTINUOUS
 10
176.9815373717
 20
69.6850915613
 40
2.0
100
AcDbArc
 50
324.0
 51
35.7473672409
  0
ARC
  5
359
100
AcDbEntity
  8
0
100
AcDbCircle
 62
7
  6
CONTINUOUS
 10
185.9016994375
 20
97.1385275002
 40
2.0
100
AcDbArc
 50
288.2526327591
 51
360.0
  0
ARC
  5
35A
100
AcDbEntity
  8
0
100
AcDbCircle
 62
7
  6
CONTINUOUS
 10
115.0
 20
105.0
 40
73.0243515535
100
AcDbArc
 50
24.1242119652
 51
28.8216109106
  0
ARC
  5
35B
100
AcDbEntity
  8
0
100
AcDbCircle
 62
7
  6
CONTINUOUS
 10
115.0
 20
105.0
 40
73.0243515535
100
AcDbArc
 50
7.1783890894
 51
11.8757880348
  0
ARC
  5
35C
100
AcDbEntity
  8
0
100
AcDbCircle
 62
7
  6
CONTINUOUS
 10
115.0
 20
105.0
 40
73.0243515535
100
AcDbArc
 50
348.1242119652
 51
352.8216109106
  0
ARC
  5
35D
100
AcDbEntity
  8
0
100
AcDbCircle
 62
7
  6
CONTINUOUS
 10
115.0
 20
105.0
 40
73.0243515535
100
AcDbArc
 50
331.1783890894
 51
335.8757880348
  0
ARC
  5
35E
100
AcDbEntity
  8
0
100
AcDbCircle
 62
7
  6
CONTINUOUS
 10
115.0
 20
105.0
 40
73.0243515535
100
AcDbArc
 50
312.1242119652
 51
316.8216109106
  0
ARC
  5
35F
100
AcDbEntity
  8
0
100
AcDbCircle
 62
7
  6
CONTINUOUS
 10
115.0
 20
105.0
 40
73.0243515535
100
AcDbArc
 50
295.1783890894
 51
299.8757880348
  0
ARC
  5
360
100
AcDbEntity
  8
0
100
AcDbCircle
 62
7
  6
CONTINUOUS
 10
115.0
 20
105.0
 40
73.0243515535
100
AcDbArc
 50
276.1242119652
 51
280.8216109106
  0
ARC
  5
361
100
AcDbEntity
  8
0
100
AcDbCircle
 62
7
  6
CONTINUOUS
 10
115.0
 20
105.0
 40
73.0243515535
100
AcDbArc
 50
259.1783890894
 51
263.8757880348
  0
ARC
  5
362
100
AcDbEntity
  8
0
100
AcDbCircle
 62
7
  6
CONTINUOUS
 10
115.0
 20
105.0
 40
73.0243515535
100
AcDbArc
 50
240.1242119652
 51
244.8216109106
  0
ARC
  5
363
100
AcDbEntity
  8
0
100
AcDbCircle
 62
7
  6
CONTINUOUS
 10
115.0
 20
105.0
 40
73.0243515535
100
AcDbArc
 50
223.1783890894
 51
227.8757880348
  0
ARC
  5
364
100
AcDbEntity
  8
0
100
AcDbCircle
 62
7
  6
CONTINUOUS
 10
115.0
 20
105.0
 40
73.0243515535
100
AcDbArc
 50
204.1242119652
 51
208.8216109106
  0
ARC
  5
365
100
AcDbEntity
  8
0
100
AcDbCircle
 62
7
  6
CONTINUOUS
 10
115.0
 20
105.0
 40
73.0243515535
100
AcDbArc
 50
187.1783890894
 51
191.8757880348
  0
ARC
  5
366
100
AcDbEntity
  8
0
100
AcDbCircle
 62
7
  6
CONTINUOUS
 10
115.0
 20
105.0
 40
73.0243515535
100
AcDbArc
 50
168.1242119652
 51
172.8216109106
  0
ARC
  5
367
100
AcDbEntity
  8
0
100
AcDbCircle
 62
7
  6
CONTINUOUS
 10
115.0
 20
105.0
 40
73.0243515535
100
AcDbArc
 50
151.1783890894
 51
155.8757880348
  0
ARC
  5
368
100
AcDbEntity
  8
0
100
AcDbCircle
 62
7
  6
CONTINUOUS
 10
115.0
 20
105.0
 40
73.0243515535
100
AcDbArc
 50
132.1242119652
 51
136.8216109106
  0
ARC
  5
369
100
AcDbEntity
  8
0
100
AcDbCircle
 62
7
  6
CONTINUOUS
 10
115.0
 20
105.0
 40
73.0243515535
100
AcDbArc
 50
115.1783890894
 51
119.8757880348
  0
ARC
  5
36A
100
AcDbEntity
  8
0
100
AcDbCircle
 62
7
  6
CONTINUOUS
 10
115.0
 20
105.0
 40
73.0243515535
100
AcDbArc
 50
96.1242119652
 51
100.8216109106
  0
ARC
  5
36B
100
AcDbEntity
  8
0
100
AcDbCircle
 62
7
  6
CONTINUOUS
 10
115.0
 20
105.0
 40
73.0243515535
100
AcDbArc
 50
79.1783890894
 51
83.8757880348
  0
ARC
  5
36C
100
AcDbEntity
  8
0
100
AcDbCircle
 62
7
  6
CONTINUOUS
 10
115.0
 20
105.0
 40
73.0243515535
100
AcDbArc
 50
60.1242119652
 51
64.8216109106
  0
ARC
  5
36D
100
AcDbEntity
  8
0
100
AcDbCircle
 62
7
  6
CONTINUOUS
 10
115.0
 20
105.0
 40
73.0243515535
100
AcDbArc
 50
43.1783890894
 51
47.8757880348
  0
ARC
  5
36E
100
AcDbEntity
  8
0
100
AcDbCircle
 62
7
  6
CONTINUOUS
 10
115.0
 20
105.0
 40
15.0
100
AcDbArc
 50
105.4660099534
 51
74.5339900466
  0
ARC
  5
36F
100
AcDbEntity
  8
0
100
AcDbCircle
 62
7
  6
CONTINUOUS
 10
137.0
 20
127.0
 40
2.0
100
AcDbArc
 50
0.0
 51
90.0
  0
ARC
  5
370
100
AcDbEntity
  8
0
100
AcDbCircle
 62
7
  6
CONTINUOUS
 10
140.0877623859
 20
180.5827505841
 40
21.6666666667
100
AcDbArc
 50
294.6802472651
 51
312.6828532772
  0
ARC
  5
371
100
AcDbEntity
  8
0
100
AcDbCircle
 62
7
  6
CONTINUOUS
 10
139.13
 20
180.8939464476
 40
21.6666666667
100
AcDbArc
 50
191.3171467228
 51
209.3197527349
  0
ARC
  5
372
100
AcDbEntity
  8
0
100
AcDbCircle
 62
7
  6
CONTINUOUS
 10
115.62
 20
185.89932368
 40
21.6666666667
100
AcDbArc
 50
222.0982010187
 51
232.1860444241
  0
ARC
  5
373
100
AcDbEntity
  8
RUNDUNGEN
100
AcDbCircle
 62
7
  6
CONTINUOUS
 10
140.0877623859
 20
180.5827505841
 40
16.6666666666
100
AcDbArc
 50
301.2282978974
 51
318.7557727191
  0
ARC
  5
374
100
AcDbEntity
  8
RUNDUNGEN
100
AcDbCircle
 62
7
  6
CONTINUOUS
 10
139.13
 20
180.8939464476
 40
16.6666666667
100
AcDbArc
 50
185.2442272809
 51
202.7717021026
  0
ARC
  5
375
100
AcDbEntity
  8
RUNDUNGEN
100
AcDbCircle
 62
7
  6
CONTINUOUS
 10
115.62
 20
185.89932368
 40
16.6666666666
100
AcDbArc
 50
216.2526327591
 51
227.3795217052
  0
ARC
  5
376
100
AcDbEntity
  8
0
100
AcDbCircle
 62
7
  6
CONTINUOUS
 10
147.0469930617
 20
165.4385475289
 40
5.0
100
AcDbArc
 50
196.1860444241
 51
294.6802472651
  0
ARC
  5
377
100
AcDbEntity
  8
0
100
AcDbCircle
 62
7
  6
CONTINUOUS
 10
124.598324902
 20
172.7325619682
 40
5.0
100
AcDbArc
 50
209.3197527349
 51
307.8139555759
  0
ARC
  5
378
100
AcDbEntity
  8
RUNDUNGEN
100
AcDbCircle
 62
7
  6
CONTINUOUS
 10
154.4992985511
 20
167.9467410688
 40
2.5
100
AcDbArc
 50
54.0
 51
138.7557727191
  0
ARC
  5
379
100
AcDbEntity
  8
RUNDUNGEN
100
AcDbCircle
 62
7
  6
CONTINUOUS
 10
120.0435622864
 20
179.1420884294
 40
2.5
100
AcDbArc
 50
5.2442272809
 51
90.0
  0
ARC
  5
37A
100
AcDbEntity
  8
RUNDUNGEN
100
AcDbCircle
 62
7
  6
CONTINUOUS
 10
144.3865347049
 20
170.0021946632
 40
2.0
100
AcDbArc
 50
0.2526327591
 51
72.0
  0
ARC
  5
37B
100
AcDbEntity
  8
RUNDUNGEN
100
AcDbCircle
 62
7
  6
CONTINUOUS
 10
129.4331254076
 20
174.8608518697
 40
2.0
100
AcDbArc
 50
72.0
 51
143.7473672409
  0
ARC
  5
37C
100
AcDbEntity
  8
0
100
AcDbCircle
 62
7
  6
CONTINUOUS
 10
191.7482384132
 20
130.5889208906
 40
21.6666666667
100
AcDbArc
 50
235.8139555759
 51
245.9017989813
  0
ARC
  5
37D
100
AcDbEntity
  8
0
100
AcDbCircle
 62
7
  6
CONTINUOUS
 10
194.6360123907
 20
105.5035254843
 40
21.6666666667
100
AcDbArc
 50
119.3171467228
 51
137.3197527349
  0
ARC
  5
37E
100
AcDbEntity
  8
0
100
AcDbCircle
 62
7
  6
CONTINUOUS
 10
192.1314194862
 20
129.4096108104
 40
21.6666666667
100
AcDbArc
 50
150.0982010187
 51
160.1860444241
  0
ARC
  5
37F
100
AcDbEntity
  8
0
100
AcDbCircle
 62
7
  6
CONTINUOUS
 10
192.1314194862
 20
129.4096108104
 40
16.6666666666
100
AcDbArc
 50
144.2526327591
 51
155.3795217052
  0
ARC
  5
380
100
AcDbEntity
  8
0
100
AcDbCircle
 62
7
  6
CONTINUOUS
 10
191.7482384132
 20
130.5889208906
 40
16.6666666666
100
AcDbArc
 50
240.6204782948
 51
251.7473672409
  0
ARC
  5
381
100
AcDbEntity
  8
0
100
AcDbCircle
 62
7
  6
CONTINUOUS
 10
194.6360123907
 20
105.5035254843
 40
16.6666666667
100
AcDbArc
 50
113.2442272809
 51
130.7717021026
  0
ARC
  5
382
100
AcDbEntity
  8
0
100
AcDbCircle
 62
7
  6
CONTINUOUS
 10
182.3835399374
 20
116.8019632772
 40
5.0
100
AcDbArc
 50
137.3197527349
 51
235.8139555759
  0
ARC
  5
383
100
AcDbEntity
  8
0
100
AcDbCircle
 62
7
  6
CONTINUOUS
 10
176.4514489129
 20
135.0590621642
 40
5.0
100
AcDbArc
 50
160.1860444241
 51
258.6802472651
  0
ARC
  5
384
100
AcDbEntity
  8
0
100
AcDbCircle
 62
7
  6
CONTINUOUS
 10
187.0718627912
 20
123.1144525453
 40
2.5
100
AcDbArc
 50
293.2442272809
 51
18.0
  0
ARC
  5
385
100
AcDbEntity
  8
0
100
AcDbCircle
 62
7
  6
CONTINUOUS
 10
183.9547698738
 20
132.707878101
 40
2.5
100
AcDbArc
 50
18.0
 51
102.7557727191
  0
ARC
  5
386
100
AcDbEntity
  8
0
100
AcDbCircle
 62
7
  6
CONTINUOUS
 10
176.9815373717
 20
140.3149084387
 40
2.0
100
AcDbArc
 50
324.2526327591
 51
36.0
  0
ARC
  5
387
100
AcDbEntity
  8
0
100
AcDbCircle
 62
7
  6
CONTINUOUS
 10
185.9016994375
 20
112.8614724998
 40
2.0
100
AcDbArc
 50
0.0
 51
71.7473672409
  0
ARC
  5
388
100
AcDbEntity
  8
0
100
AcDbCircle
 62
7
  6
CONTINUOUS
 10
179.7228522421
 20
151.4015129607
 40
21.6666666667
100
AcDbArc
 50
258.6802472651
 51
276.6828532772
  0
ARC
  5
389
100
AcDbEntity
  8
0
100
AcDbCircle
 62
7
  6
CONTINUOUS
 10
162.049838843
 20
170.8133545469
 40
21.6666666667
100
AcDbArc
 50
271.8139555759
 51
281.9017989813
  0
ARC
  5
38A
100
AcDbEntity
  8
0
100
AcDbCircle
 62
7
  6
CONTINUOUS
 10
179.1309225345
 20
152.2162343085
 40
21.6666666667
100
AcDbArc
 50
155.3171467228
 51
173.3197527349
  0
ARC
  5
38B
100
AcDbEntity
  8
0
100
AcDbCircle
 62
7
  6
CONTINUOUS
 10
163.053019916
 20
170.0845008341
 40
21.6666666667
100
AcDbArc
 50
186.0982010187
 51
196.1860444241
  0
ARC
  5
38C
100
AcDbEntity
  8
0
100
AcDbCircle
 62
7
  6
CONTINUOUS
 10
179.7228522421
 20
151.4015129607
 40
16.6666666666
100
AcDbArc
 50
265.2282978974
 51
282.7557727191
  0
ARC
  5
38D
100
AcDbEntity
  8
RUNDUNGEN
100
AcDbCircle
 62
7
  6
CONTINUOUS
 10
162.049838843
 20
170.8133545469
 40
16.6666666666
100
AcDbArc
 50
276.6204782948
 51
287.7473672409
  0
ARC
  5
38E
100
AcDbEntity
  8
RUNDUNGEN
100
AcDbCircle
 62
7
  6
CONTINUOUS
 10
179.1309225345
 20
152.2162343085
 40
16.6666666667
100
AcDbArc
 50
149.2442272809
 51
166.7717021026
  0
ARC
  5
38F
100
AcDbEntity
  8
RUNDUNGEN
100
AcDbCircle
 62
7
  6
CONTINUOUS
 10
163.053019916
 20
170.0845008341
 40
16.6666666666
100
AcDbArc
 50
180.2526327591
 51
191.3795217052
  0
ARC
  5
390
100
AcDbEntity
  8
0
100
AcDbCircle
 62
7
  6
CONTINUOUS
 10
162.5774089881
 20
154.1550398807
 40
5.0
100
AcDbArc
 50
173.3197527349
 51
271.8139555759
  0
ARC
  5
391
100
AcDbEntity
  8
RUNDUNGEN
100
AcDbCircle
 62
7
  6
CONTINUOUS
 10
162.6599537549
 20
162.0176780068
 40
2.5
100
AcDbArc
 50
329.2442272809
 51
54.0
  0
ARC
  5
392
100
AcDbEntity
  8
RUNDUNGEN
100
AcDbCircle
 62
7
  6
CONTINUOUS
 10
167.7398221783
 20
153.035038145
 40
2.0
100
AcDbArc
 50
36.0
 51
107.7473672409
  0
ENDSEC
  0
SECTION
  2
OBJECTS
  0
DICTIONARY
  5
C
100
AcDbDictionary
280
0
281
1
  3
ACAD_GROUP
350
D
  3
ACAD_MLINESTYLE
350
17
  3
ACAD_LAYOUT
350
1A
  3
ACAD_PLOTSETTINGS
350
19
  3
ACAD_PLOTSTYLENAME
350
E
  0
DICTIONARY
  5
D
102
{ACAD_REACTORS
330
C
102
}
100
AcDbDictionary
280
0
281
1
  0
ACDBDICTIONARYWDFLT
  5
E
102
{ACAD_REACTORS
330
C
102
}
100
AcDbDictionary
281
1
  3
Normal
350
F
100
AcDbDictionaryWithDefault
340
F
  0
DICTIONARY
  5
17
102
{ACAD_REACTORS
330
C
102
}
100
AcDbDictionary
280
0
281
1
  3
Standard
350
18
  0
DICTIONARY
  5
19
102
{ACAD_REACTORS
330
C
102
}
100
AcDbDictionary
281
1
  0
DICTIONARY
  5
1A
102
{ACAD_REACTORS
330
C
102
}
100
AcDbDictionary
281
1
  3
Model
350
393
  3
Layout1
350
394
  0
ACDBPLACEHOLDER
  5
F
102
{ACAD_REACTORS
330
E
102
}
  0
MLINESTYLE
  5
18
102
{ACAD_REACTORS
330
17
102
}
100
AcDbMlineStyle
  2
STANDARD
 70
0
  3

 62
256
 51
90.0
 52
90.0
 71
2
 49
0.5
 62
256
  6
BYLAYER
 49
-0.5
 62
256
  6
BYLAYER
  0
LAYOUT
  5
393
102
{ACAD_REACTORS
330
1A
102
}
100
AcDbPlotSettings
  1

  2
none_device
  4
ISO_A4_(297.00_x_210.00_MM)
  6

 40
0.0
 41
0.0
 42
0.0
 43
0.0
 44
297.0
 45
210.0
 46
0.0
 47
0.0
 48
0.0
 49
0.0
140
0.0
141
0.0
142
1.0
143
1.0
 70
1024
 72
1
 73
0
 74
0
  7

 75
0
147
1.0
148
0.0
149
0.0
100
AcDbLayout
  1
Model
 70
0
 71
0
 10
0.0
 20
0.0
 11
297.0
 21
210.0
 12
0.0
 22
0.0
 32
0.0
 14
0.0
 24
0.0
 34
0.0
 15
0.0
 25
0.0
 35
0.0
146
0.0
 13
0.0
 23
0.0
 33
0.0
 16
1.0
 26
0.0
 36
0.0
 17
0.0
 27
1.0
 37
0.0
 76
0
330
214
345
0
346
0
  0
LAYOUT
  5
394
102
{ACAD_REACTORS
330
1A
102
}
100
AcDbPlotSettings
  1

  2
none_device
  4
ISO_A4_(297.00_x_210.00_MM)
  6

 40
0.0
 41
0.0
 42
0.0
 43
0.0
 44
297.0
 45
210.0
 46
0.0
 47
0.0
 48
0.0
 49
0.0
140
0.0
141
0.0
142
1.0
143
1.0
 70
0
 72
1
 73
0
 74
0
  7

 75
0
147
1.0
148
0.0
149
0.0
100
AcDbLayout
  1
Layout1
 70
0
 71
1
 10
0.0
 20
0.0
 11
297.0
 21
210.0
 12
0.0
 22
0.0
 32
0.0
 14
0.0
 24
0.0
 34
0.0
 15
0.0
 25
0.0
 35
0.0
146
0.0
 13
0.0
 23
0.0
 33
0.0
 16
1.0
 26
0.0
 36
0.0
 17
0.0
 27
1.0
 37
0.0
 76
0
330
215
345
0
346
0
  0
ENDSEC
  0
EOF
